  0
SECTION
  2
HEADER
  9
$ACADVER
  1
AC1032
  9
$ACADMAINTVER
 90
      155
  9
$DWGCODEPAGE
  3
ANSI_1252
  9
$LASTSAVEDBY
  1
falinoori
  9
$REQUIREDVERSIONS
160
                 0
  9
$INSBASE
 10
0.0
 20
0.0
 30
0.0
  9
$EXTMIN
 10
-51.40229067753367
 20
893.4258203464429
 30
0.0
  9
$EXTMAX
 10
1855.607019973438
 20
1612.449374012447
 30
0.0
  9
$LIMMIN
 10
0.0
 20
0.0
  9
$LIMMAX
 10
420.0
 20
297.0
  9
$ORTHOMODE
 70
     1
  9
$REGENMODE
 70
     1
  9
$FILLMODE
 70
     1
  9
$QTEXTMODE
 70
     0
  9
$MIRRTEXT
 70
     1
  9
$LTSCALE
 40
1.0
  9
$ATTMODE
 70
     1
  9
$TEXTSIZE
 40
96.45744407920119
  9
$TRACEWID
 40
1.0
  9
$TEXTSTYLE
  7
STANDARD
  9
$CLAYER
  8
Dimensions Table
  9
$CELTYPE
  6
BYLAYER
  9
$CECOLOR
 62
   256
  9
$CELTSCALE
 40
1.0
  9
$DISPSILH
 70
     0
  9
$DIMSCALE
 40
1.0
  9
$DIMASZ
 40
5.0
  9
$DIMEXO
 40
2.0
  9
$DIMDLI
 40
3.75
  9
$DIMRND
 40
0.0
  9
$DIMDLE
 40
0.0
  9
$DIMEXE
 40
2.0
  9
$DIMTP
 40
0.0
  9
$DIMTM
 40
0.0
  9
$DIMTXT
 40
5.0
  9
$DIMCEN
 40
2.0
  9
$DIMTSZ
 40
0.0
  9
$DIMTOL
 70
     0
  9
$DIMLIM
 70
     0
  9
$DIMTIH
 70
     0
  9
$DIMTOH
 70
     1
  9
$DIMSE1
 70
     0
  9
$DIMSE2
 70
     0
  9
$DIMTAD
 70
     0
  9
$DIMZIN
 70
    12
  9
$DIMBLK
  1

  9
$DIMASO
 70
     1
  9
$DIMSHO
 70
     1
  9
$DIMPOST
  1

  9
$DIMAPOST
  1

  9
$DIMALT
 70
     0
  9
$DIMALTD
 70
     4
  9
$DIMALTF
 40
0.0394
  9
$DIMLFAC
 40
1.0
  9
$DIMTOFL
 70
     1
  9
$DIMTVP
 40
0.0
  9
$DIMTIX
 70
     0
  9
$DIMSOXD
 70
     0
  9
$DIMSAH
 70
     0
  9
$DIMBLK1
  1

  9
$DIMBLK2
  1

  9
$DIMSTYLE
  2
STANDARD
  9
$DIMCLRD
 70
     3
  9
$DIMCLRE
 70
     3
  9
$DIMCLRT
 70
     2
  9
$DIMTFAC
 40
2.0
  9
$DIMGAP
 40
2.0
  9
$DIMJUST
 70
     0
  9
$DIMSD1
 70
     0
  9
$DIMSD2
 70
     0
  9
$DIMTOLJ
 70
     1
  9
$DIMTZIN
 70
    12
  9
$DIMALTZ
 70
     0
  9
$DIMALTTZ
 70
     0
  9
$DIMUPT
 70
     0
  9
$DIMDEC
 70
     1
  9
$DIMTDEC
 70
     1
  9
$DIMALTU
 70
     8
  9
$DIMALTTD
 70
     4
  9
$DIMTXSTY
  7
STANDARD
  9
$DIMAUNIT
 70
     0
  9
$DIMADEC
 70
     1
  9
$DIMALTRND
 40
0.0
  9
$DIMAZIN
 70
     3
  9
$DIMDSEP
 70
    46
  9
$DIMATFIT
 70
     3
  9
$DIMFRAC
 70
     0
  9
$DIMLDRBLK
  1

  9
$DIMLUNIT
 70
     2
  9
$DIMLWD
 70
    -2
  9
$DIMLWE
 70
    -2
  9
$DIMTMOVE
 70
     0
  9
$DIMFXL
 40
1.0
  9
$DIMFXLON
 70
     0
  9
$DIMJOGANG
 40
0.7853981633974483
  9
$DIMTFILL
 70
     0
  9
$DIMTFILLCLR
 70
     0
  9
$DIMARCSYM
 70
     0
  9
$DIMLTYPE
  6

  9
$DIMLTEX1
  6

  9
$DIMLTEX2
  6

  9
$DIMTXTDIRECTION
 70
     0
  9
$LUNITS
 70
     2
  9
$LUPREC
 70
     4
  9
$SKETCHINC
 40
1.0
  9
$FILLETRAD
 40
1.0
  9
$AUNITS
 70
     0
  9
$AUPREC
 70
     0
  9
$MENU
  1
.
  9
$ELEVATION
 40
0.0
  9
$PELEVATION
 40
0.0
  9
$THICKNESS
 40
0.0
  9
$LIMCHECK
 70
     0
  9
$CHAMFERA
 40
0.0
  9
$CHAMFERB
 40
0.0
  9
$CHAMFERC
 40
20.0
  9
$CHAMFERD
 40
0.0
  9
$SKPOLY
 70
     0
  9
$TDCREATE
 40
2451572.394884260
  9
$TDUCREATE
 40
2451571.936554862
  9
$TDUPDATE
 40
2459585.538703704
  9
$TDUUPDATE
 40
2459585.080370370
  9
$TDINDWG
 40
17.3302208912
  9
$TDUSRTIMER
 40
17.3302208912
  9
$USRTIMER
 70
     1
  9
$ANGBASE
 50
0.0
  9
$ANGDIR
 70
     0
  9
$PDMODE
 70
     0
  9
$PDSIZE
 40
0.0
  9
$PLINEWID
 40
0.0
  9
$SPLFRAME
 70
     0
  9
$SPLINETYPE
 70
     6
  9
$SPLINESEGS
 70
     8
  9
$HANDSEED
  5
175A5
  9
$SURFTAB1
 70
     6
  9
$SURFTAB2
 70
     6
  9
$SURFTYPE
 70
     6
  9
$SURFU
 70
     6
  9
$SURFV
 70
     6
  9
$UCSBASE
  2

  9
$UCSNAME
  2

  9
$UCSORG
 10
0.0
 20
0.0
 30
0.0
  9
$UCSXDIR
 10
1.0
 20
0.0
 30
0.0
  9
$UCSYDIR
 10
0.0
 20
1.0
 30
0.0
  9
$UCSORTHOREF
  2

  9
$UCSORTHOVIEW
 70
     0
  9
$UCSORGTOP
 10
0.0
 20
0.0
 30
0.0
  9
$UCSORGBOTTOM
 10
0.0
 20
0.0
 30
0.0
  9
$UCSORGLEFT
 10
0.0
 20
0.0
 30
0.0
  9
$UCSORGRIGHT
 10
0.0
 20
0.0
 30
0.0
  9
$UCSORGFRONT
 10
0.0
 20
0.0
 30
0.0
  9
$UCSORGBACK
 10
0.0
 20
0.0
 30
0.0
  9
$PUCSBASE
  2

  9
$PUCSNAME
  2

  9
$PUCSORG
 10
0.0
 20
0.0
 30
0.0
  9
$PUCSXDIR
 10
1.0
 20
0.0
 30
0.0
  9
$PUCSYDIR
 10
0.0
 20
1.0
 30
0.0
  9
$PUCSORTHOREF
  2

  9
$PUCSORTHOVIEW
 70
     0
  9
$PUCSORGTOP
 10
0.0
 20
0.0
 30
0.0
  9
$PUCSORGBOTTOM
 10
0.0
 20
0.0
 30
0.0
  9
$PUCSORGLEFT
 10
0.0
 20
0.0
 30
0.0
  9
$PUCSORGRIGHT
 10
0.0
 20
0.0
 30
0.0
  9
$PUCSORGFRONT
 10
0.0
 20
0.0
 30
0.0
  9
$PUCSORGBACK
 10
0.0
 20
0.0
 30
0.0
  9
$USERI1
 70
     0
  9
$USERI2
 70
     0
  9
$USERI3
 70
     0
  9
$USERI4
 70
     0
  9
$USERI5
 70
     0
  9
$USERR1
 40
0.0
  9
$USERR2
 40
0.0
  9
$USERR3
 40
0.0
  9
$USERR4
 40
0.0
  9
$USERR5
 40
0.0
  9
$WORLDVIEW
 70
     1
  9
$SHADEDGE
 70
     3
  9
$SHADEDIF
 70
    70
  9
$TILEMODE
 70
     1
  9
$MAXACTVP
 70
    48
  9
$PINSBASE
 10
0.0
 20
0.0
 30
0.0
  9
$PLIMCHECK
 70
     0
  9
$PEXTMIN
 10
42.54500305652618
 20
27.30500061511992
 30
0.0
  9
$PEXTMAX
 10
382.9050275087356
 20
245.7450055360794
 30
0.0
  9
$PLIMMIN
 10
-3.17498779296875
 20
-3.174999952316284
  9
$PLIMMAX
 10
428.6250305175781
 20
276.2249939441681
  9
$UNITMODE
 70
     0
  9
$VISRETAIN
 70
     1
  9
$PLINEGEN
 70
     0
  9
$PSLTSCALE
 70
     1
  9
$TREEDEPTH
 70
  3020
  9
$CMLSTYLE
  2
STANDARD
  9
$CMLJUST
 70
     0
  9
$CMLSCALE
 40
20.0
  9
$PROXYGRAPHICS
 70
     1
  9
$MEASUREMENT
 70
     1
  9
$CELWEIGHT
370
    -1
  9
$ENDCAPS
280
     0
  9
$JOINSTYLE
280
     0
  9
$LWDISPLAY
290
     0
  9
$INSUNITS
 70
     0
  9
$HYPERLINKBASE
  1

  9
$STYLESHEET
  1
monochrome.ctb
  9
$XEDIT
290
     1
  9
$CEPSNTYPE
380
     0
  9
$PSTYLEMODE
290
     1
  9
$FINGERPRINTGUID
  2
{A577D464-EACF-11D3-8670-00A0C9E08C48}
  9
$VERSIONGUID
  2
{2331DE0B-6939-6A4F-94DB-E50F29EDA384}
  9
$EXTNAMES
290
     1
  9
$PSVPSCALE
 40
0.0
  9
$OLESTARTUP
290
     0
  9
$SORTENTS
280
    96
  9
$INDEXCTL
280
     0
  9
$HIDETEXT
280
     0
  9
$XCLIPFRAME
280
     0
  9
$HALOGAP
280
     0
  9
$OBSCOLOR
 70
   257
  9
$OBSLTYPE
280
     0
  9
$INTERSECTIONDISPLAY
280
     0
  9
$INTERSECTIONCOLOR
 70
   257
  9
$DIMASSOC
280
     1
  9
$PROJECTNAME
  1

  9
$CAMERADISPLAY
290
     0
  9
$LENSLENGTH
 40
50.0
  9
$CAMERAHEIGHT
 40
0.0
  9
$STEPSPERSEC
 40
2.0
  9
$STEPSIZE
 40
6.0
  9
$3DDWFPREC
 40
2.0
  9
$PSOLWIDTH
 40
0.25
  9
$PSOLHEIGHT
 40
4.0
  9
$LOFTANG1
 40
1.570796326794896
  9
$LOFTANG2
 40
1.570796326794896
  9
$LOFTMAG1
 40
0.0
  9
$LOFTMAG2
 40
0.0
  9
$LOFTPARAM
 70
     7
  9
$LOFTNORMALS
280
     1
  9
$LATITUDE
 40
37.795
  9
$LONGITUDE
 40
-122.394
  9
$NORTHDIRECTION
 40
0.0
  9
$TIMEZONE
 70
 -8000
  9
$LIGHTGLYPHDISPLAY
280
     1
  9
$TILEMODELIGHTSYNCH
280
     1
  9
$CMATERIAL
347
15810
  9
$SOLIDHIST
280
     1
  9
$SHOWHIST
280
     1
  9
$DWFFRAME
280
     2
  9
$DGNFRAME
280
     0
  9
$REALWORLDSCALE
290
     1
  9
$INTERFERECOLOR
 62
     1
  9
$INTERFEREOBJVS
345
1581C
  9
$INTERFEREVPVS
346
15819
  9
$CSHADOW
280
     0
  9
$SHADOWPLANELOCATION
 40
0.0
  0
ENDSEC
  0
SECTION
  2
CLASSES
  0
CLASS
  1
DICTIONARYVAR
  2
AcDbDictionaryVar
  3
ObjectDBX Classes
 90
        0
 91
       11
280
     0
281
     0
  0
CLASS
  1
ACDBDICTIONARYWDFLT
  2
AcDbDictionaryWithDefault
  3
ObjectDBX Classes
 90
        0
 91
        1
280
     0
281
     0
  0
CLASS
  1
SORTENTSTABLE
  2
AcDbSortentsTable
  3
ObjectDBX Classes
 90
        0
 91
        2
280
     0
281
     0
  0
CLASS
  1
MATERIAL
  2
AcDbMaterial
  3
ObjectDBX Classes
 90
     1153
 91
        3
280
     0
281
     0
  0
CLASS
  1
VISUALSTYLE
  2
AcDbVisualStyle
  3
ObjectDBX Classes
 90
     4095
 91
       26
280
     0
281
     0
  0
CLASS
  1
TABLESTYLE
  2
AcDbTableStyle
  3
ObjectDBX Classes
 90
     4095
 91
        1
280
     0
281
     0
  0
CLASS
  1
DIMASSOC
  2
AcDbDimAssoc
  3
"AcDbDimAssoc|Product Desc:     AcDim ARX App For Dimension|Company:          Autodesk, Inc.|WEB Address:      www.autodesk.com"
 90
        0
 91
        0
280
     0
281
     0
  0
CLASS
  1
SCALE
  2
AcDbScale
  3
ObjectDBX Classes
 90
     1153
 91
       17
280
     0
281
     0
  0
CLASS
  1
MLEADERSTYLE
  2
AcDbMLeaderStyle
  3
ACDB_MLEADERSTYLE_CLASS
 90
     4095
 91
        1
280
     0
281
     0
  0
CLASS
  1
ACDBSECTIONVIEWSTYLE
  2
AcDbSectionViewStyle
  3
ObjectDBX Classes
 90
     1025
 91
        1
280
     0
281
     0
  0
CLASS
  1
ACDBDETAILVIEWSTYLE
  2
AcDbDetailViewStyle
  3
ObjectDBX Classes
 90
     1025
 91
        1
280
     0
281
     0
  0
CLASS
  1
ACAD_EVALUATION_GRAPH
  2
AcDbEvalGraph
  3
ObjectDBX Classes
 90
     1153
 91
        1
280
     0
281
     0
  0
CLASS
  1
ACAECUSTOBJ
  2
AcAeEditorObj
  3
AcAeEditorObj
 90
     1024
 91
        1
280
     0
281
     0
  0
CLASS
  1
ACDB_DYNAMICBLOCKPURGEPREVENTER_VERSION
  2
AcDbDynamicBlockPurgePreventer
  3
ObjectDBX Classes
 90
     1153
 91
        1
280
     0
281
     0
  0
CLASS
  1
CELLSTYLEMAP
  2
AcDbCellStyleMap
  3
ObjectDBX Classes
 90
     1152
 91
        1
280
     0
281
     0
  0
ENDSEC
  0
SECTION
  2
TABLES
  0
TABLE
  2
VPORT
  5
8
330
0
100
AcDbSymbolTable
 70
     1
  0
VPORT
  5
1580E
330
8
100
AcDbSymbolTableRecord
100
AcDbViewportTableRecord
  2
*Active
 70
     0
 10
0.0
 20
0.0
 11
1.0
 21
1.0
 12
1353.856674067491
 22
1307.999720570044
 13
0.0
 23
0.0
 14
10.0
 24
10.0
 15
10.0
 25
10.0
 16
0.0
 26
0.0
 36
1.0
 17
0.0
 27
0.0
 37
0.0
 40
971.7782555378562
 41
2.0
 42
50.0
 43
0.0
 44
0.0
 50
0.0
 51
0.0
 71
     0
 72
   100
 73
     1
 74
     1
 75
     0
 76
     0
 77
     0
 78
     0
281
     0
 65
     1
110
0.0
120
0.0
130
0.0
111
1.0
121
0.0
131
0.0
112
0.0
122
1.0
132
0.0
 79
     0
146
0.0
348
15818
 60
     3
 61
     5
292
     1
282
     1
141
0.0
142
0.0
 63
   250
421
  3355443
1001
ACAD_NAV_VCDISPLAY
1070
     3
  0
ENDTAB
  0
TABLE
  2
LTYPE
  5
5
330
0
100
AcDbSymbolTable
 70
     8
  0
LTYPE
  5
12
330
5
100
AcDbSymbolTableRecord
100
AcDbLinetypeTableRecord
  2
BYBLOCK
 70
     0
  3

 72
    65
 73
     0
 40
0.0
  0
LTYPE
  5
13
330
5
100
AcDbSymbolTableRecord
100
AcDbLinetypeTableRecord
  2
BYLAYER
 70
     0
  3

 72
    65
 73
     0
 40
0.0
  0
LTYPE
  5
14
330
5
100
AcDbSymbolTableRecord
100
AcDbLinetypeTableRecord
  2
CONTINUOUS
 70
     0
  3
Solid line
 72
    65
 73
     0
 40
0.0
  0
LTYPE
  5
42E
330
5
100
AcDbSymbolTableRecord
100
AcDbLinetypeTableRecord
  2
CENTER
 70
     0
  3
Center ____ _ ____ _ ____ _ ____ _ ____ _ ____
 72
    65
 73
     4
 40
50.8
 49
31.75
 74
     0
 49
-6.349999999999999
 74
     0
 49
6.349999999999999
 74
     0
 49
-6.349999999999999
 74
     0
  0
LTYPE
  5
D7C8
330
5
100
AcDbSymbolTableRecord
100
AcDbLinetypeTableRecord
  2
ACAD_ISO02W100
 70
     0
  3
ISO dash __ __ __ __ __ __ __ __ __ __ __ __ __
 72
    65
 73
     2
 40
15.0
 49
12.0
 74
     0
 49
-3.0
 74
     0
  0
LTYPE
  5
D84D
330
5
100
AcDbSymbolTableRecord
100
AcDbLinetypeTableRecord
  2
HIDDEN
 70
     0
  3
Hidden __ __ __ __ __ __ __ __ __ __ __ __ __ _
 72
    65
 73
     2
 40
9.524999999999998
 49
6.349999999999999
 74
     0
 49
-3.174999999999999
 74
     0
  0
LTYPE
  5
D84F
330
5
100
AcDbSymbolTableRecord
100
AcDbLinetypeTableRecord
  2
HIDDEN2
 70
     0
  3
Hidden (.5x) _ _ _ _ _ _ _ _ _ _ _ _ _ _ _ _ _
 72
    65
 73
     2
 40
4.762499999999999
 49
3.174999999999999
 74
     0
 49
-1.587499999999999
 74
     0
  0
LTYPE
  5
16081
330
5
100
AcDbSymbolTableRecord
100
AcDbLinetypeTableRecord
  2
CENTER2
 70
     0
  3
Center (.5x) ___ _ ___ _ ___ _ ___ _ ___ _ ___
 72
    65
 73
     4
 40
28.575
 49
19.05
 74
     0
 49
-3.174999999999999
 74
     0
 49
3.174999999999999
 74
     0
 49
-3.174999999999999
 74
     0
  0
ENDTAB
  0
TABLE
  2
LAYER
  5
2
102
{ACAD_XDICTIONARY
360
12626
102
}
330
0
100
AcDbSymbolTable
 70
    16
  0
LAYER
  5
E
102
{ACAD_XDICTIONARY
360
17458
102
}
330
2
100
AcDbSymbolTableRecord
100
AcDbLayerTableRecord
  2
0
 70
     0
 62
     7
  6
CONTINUOUS
290
     0
370
    -3
390
26A6
347
12623
348
0
  0
LAYER
  5
5B
330
2
100
AcDbSymbolTableRecord
100
AcDbLayerTableRecord
  2
DEFPOINTS
 70
     0
 62
     7
  6
CONTINUOUS
290
     0
370
    -3
390
26A6
347
12623
348
0
  0
LAYER
  5
1600
102
{ACAD_XDICTIONARY
360
1745A
102
}
330
2
100
AcDbSymbolTableRecord
100
AcDbLayerTableRecord
  2
Defpoint
 70
     0
 62
     9
  6
CONTINUOUS
370
    -3
390
26A6
347
12623
348
0
  0
LAYER
  5
2D49
102
{ACAD_XDICTIONARY
360
1745C
102
}
330
2
100
AcDbSymbolTableRecord
100
AcDbLayerTableRecord
  2
BORDER_A1
 70
     0
 62
     3
  6
CONTINUOUS
370
    -3
390
26A6
347
12623
348
0
  0
LAYER
  5
2D4A
102
{ACAD_XDICTIONARY
360
1745E
102
}
330
2
100
AcDbSymbolTableRecord
100
AcDbLayerTableRecord
  2
BORDER_TEXT_A1
 70
     0
 62
     4
  6
CONTINUOUS
370
    -3
390
26A6
347
12623
348
0
  0
LAYER
  5
2D4B
102
{ACAD_XDICTIONARY
360
17460
102
}
330
2
100
AcDbSymbolTableRecord
100
AcDbLayerTableRecord
  2
BORDER_ITEM_LIST_A1
 70
     0
 62
     2
  6
CONTINUOUS
370
    -3
390
26A6
347
12623
348
0
  0
LAYER
  5
D7C2
102
{ACAD_XDICTIONARY
360
17462
102
}
330
2
100
AcDbSymbolTableRecord
100
AcDbLayerTableRecord
  2
Insert
 70
     0
 62
   210
  6
CONTINUOUS
370
    -3
390
26A6
347
12623
348
0
  0
LAYER
  5
D7C3
102
{ACAD_XDICTIONARY
360
17464
102
}
330
2
100
AcDbSymbolTableRecord
100
AcDbLayerTableRecord
  2
InsertDims
 70
     0
 62
     3
  6
CONTINUOUS
370
    -3
390
26A6
347
12623
348
0
  0
LAYER
  5
D806
102
{ACAD_XDICTIONARY
360
17466
102
}
330
2
100
AcDbSymbolTableRecord
100
AcDbLayerTableRecord
  2
Construction
 70
     0
 62
     7
  6
CONTINUOUS
370
    -3
390
26A6
347
12623
348
0
  0
LAYER
  5
13B64
102
{ACAD_XDICTIONARY
360
17468
102
}
330
2
100
AcDbSymbolTableRecord
100
AcDbLayerTableRecord
  2
UTB20
 70
     0
 62
     7
  6
CONTINUOUS
370
    -3
390
26A6
347
12623
348
0
  0
LAYER
  5
13B65
102
{ACAD_XDICTIONARY
360
1746A
102
}
330
2
100
AcDbSymbolTableRecord
100
AcDbLayerTableRecord
  2
MuscleStartDims
 70
     0
 62
   212
  6
CONTINUOUS
370
    -3
390
26A6
347
12623
348
0
  0
LAYER
  5
13B9C
102
{ACAD_XDICTIONARY
360
1746C
102
}
330
2
100
AcDbSymbolTableRecord
100
AcDbLayerTableRecord
  2
MuscleStart
 70
     0
 62
    23
  6
CONTINUOUS
370
    -3
390
26A6
347
12623
348
0
  0
LAYER
  5
13C06
102
{ACAD_XDICTIONARY
360
1746E
102
}
330
2
100
AcDbSymbolTableRecord
100
AcDbLayerTableRecord
  2
Layer1
 70
     0
 62
    23
  6
CONTINUOUS
370
    -3
390
26A6
347
12623
348
0
  0
LAYER
  5
13EED
102
{ACAD_XDICTIONARY
360
17470
102
}
330
2
100
AcDbSymbolTableRecord
100
AcDbLayerTableRecord
  2
Dimensions Table
 70
     0
 62
     7
  6
CONTINUOUS
370
    -3
390
26A6
347
12623
348
0
  0
LAYER
  5
16088
102
{ACAD_XDICTIONARY
360
16089
102
}
330
2
100
AcDbSymbolTableRecord
100
AcDbLayerTableRecord
  2
6文字层
 70
     0
 62
     3
  6
CONTINUOUS
370
    -3
390
26A6
347
12623
348
0
1001
AcadStringInfo
1000
MIFCodePage
1070
     5
  0
LAYER
  5
17440
102
{ACAD_XDICTIONARY
360
17441
102
}
330
2
100
AcDbSymbolTableRecord
100
AcDbLayerTableRecord
  2
ANCON-TEXT
 70
     0
 62
     6
  6
CONTINUOUS
370
    -3
390
26A6
347
12623
348
0
  0
ENDTAB
  0
TABLE
  2
STYLE
  5
3
330
0
100
AcDbSymbolTable
 70
     3
  0
STYLE
  5
F
330
3
100
AcDbSymbolTableRecord
100
AcDbTextStyleTableRecord
  2
STANDARD
 70
     0
 40
0.0
 41
1.0
 50
0.0
 71
     0
 42
96.45744407920119
  3
txt
  4

  0
STYLE
  5
16091
330
3
100
AcDbSymbolTableRecord
100
AcDbTextStyleTableRecord
  2
TH_GBDIM
 70
     0
 40
0.0
 41
0.8
 50
0.0
 71
     0
 42
5.0
  3
romans.shx
  4
gbcbig.shx
  0
STYLE
  5
16092
330
3
100
AcDbSymbolTableRecord
100
AcDbTextStyleTableRecord
  2
国标
 70
     0
 40
0.0
 41
0.8
 50
0.0
 71
     0
 42
5.0
  3
gbeitc.shx
  4
gbcbig.shx
1001
AcadStringInfo
1000
MIFCodePage
1070
     5
  0
ENDTAB
  0
TABLE
  2
VIEW
  5
6
330
0
100
AcDbSymbolTable
 70
     2
  0
ENDTAB
  0
TABLE
  2
UCS
  5
7
330
0
100
AcDbSymbolTable
 70
     0
  0
ENDTAB
  0
TABLE
  2
APPID
  5
9
330
0
100
AcDbSymbolTable
 70
    13
  0
APPID
  5
10
330
9
100
AcDbSymbolTableRecord
100
AcDbRegAppTableRecord
  2
ACAD
 70
     0
  0
APPID
  5
D4EE
330
9
100
AcDbSymbolTableRecord
100
AcDbRegAppTableRecord
  2
DCO15
 70
     0
  0
APPID
  5
16096
330
9
100
AcDbSymbolTableRecord
100
AcDbRegAppTableRecord
  2
ACAD_PSEXT
 70
     0
  0
APPID
  5
16097
330
9
100
AcDbSymbolTableRecord
100
AcDbRegAppTableRecord
  2
ACAD_DSTYLE_DIMJOGGED_JOGANGLE_SYMBOL
 70
     0
  0
APPID
  5
16098
330
9
100
AcDbSymbolTableRecord
100
AcDbRegAppTableRecord
  2
ACAD_DSTYLE_DIMJAG
 70
     0
  0
APPID
  5
16099
330
9
100
AcDbSymbolTableRecord
100
AcDbRegAppTableRecord
  2
ACAD_DSTYLE_DIMTALN
 70
     0
  0
APPID
  5
1609A
330
9
100
AcDbSymbolTableRecord
100
AcDbRegAppTableRecord
  2
ACAD_DSTYLE_DIMRADIAL_EXTENSION
 70
     0
  0
APPID
  5
1609B
330
9
100
AcDbSymbolTableRecord
100
AcDbRegAppTableRecord
  2
AcadStringInfo
 70
     0
  0
APPID
  5
169C6
330
9
100
AcDbSymbolTableRecord
100
AcDbRegAppTableRecord
  2
ACAD_NAV_VCDISPLAY
 70
     0
  0
APPID
  5
16A44
330
9
100
AcDbSymbolTableRecord
100
AcDbRegAppTableRecord
  2
ACAD_EXEMPT_FROM_CAD_STANDARDS
 70
     0
  0
APPID
  5
17572
330
9
100
AcDbSymbolTableRecord
100
AcDbRegAppTableRecord
  2
ACAUTHENVIRON
 70
     0
  0
APPID
  5
17578
330
9
100
AcDbSymbolTableRecord
100
AcDbRegAppTableRecord
  2
AcDbDynamicBlockTrueName
 70
     0
  0
APPID
  5
17579
330
9
100
AcDbSymbolTableRecord
100
AcDbRegAppTableRecord
  2
AcDbDynamicBlockGUID
 70
     0
  0
ENDTAB
  0
TABLE
  2
DIMSTYLE
  5
A
330
0
100
AcDbSymbolTable
 70
     5
100
AcDbDimStyleTable
 71
     1
340
1D
  0
DIMSTYLE
105
1D
330
A
100
AcDbSymbolTableRecord
100
AcDbDimStyleTableRecord
  2
STANDARD
 70
     0
 41
5.0
 42
2.0
 43
3.75
 44
2.0
 73
     0
 78
    12
 79
     3
140
5.0
141
2.0
143
0.0394
146
2.0
147
2.0
171
     4
172
     1
176
     3
177
     3
178
     2
179
     1
271
     1
272
     1
273
     8
274
     4
284
    12
340
F
  0
DIMSTYLE
105
16093
330
A
100
AcDbSymbolTableRecord
100
AcDbDimStyleTableRecord
  2
ISO-25
 70
     0
 41
3.0
 42
0.0
 43
3.75
 44
1.25
 73
     0
 74
     0
 77
     1
 78
     8
140
4.0
141
2.5
143
0.03937007874016
147
0.625
171
     3
172
     1
271
     2
272
     2
274
     3
283
     0
284
     8
340
F
  0
DIMSTYLE
105
16094
330
A
100
AcDbSymbolTableRecord
100
AcDbDimStyleTableRecord
  2
国标
 70
     0
 41
2.0
 42
0.0
 43
3.75
 44
1.25
 73
     0
 74
     0
 77
     1
 78
     8
140
4.0
141
2.5
143
0.03937007874016
146
0.7
147
1.0
171
     3
172
     1
176
   256
177
   256
178
   256
271
     2
272
     2
274
     3
284
     8
340
16092
345
13
346
13
347
13
371
    -1
372
    -1
1001
ACAD_DSTYLE_DIMJAG
1070
   388
1040
1.5
1001
ACAD_DSTYLE_DIMTALN
1070
   392
1070
     0
1001
AcadStringInfo
1000
MIFCodePage
1070
     5
  0
DIMSTYLE
105
16095
330
A
100
AcDbSymbolTableRecord
100
AcDbDimStyleTableRecord
  2
TH_GBDIM
 70
     0
 41
2.5
 42
0.0
 43
10.0
 44
2.0
 49
2.0
 50
90.0
 73
     0
 74
     0
 77
     1
140
2.5
141
2.5
146
0.714286
147
1.5
172
     1
176
   130
177
   130
178
     3
271
     2
272
     2
283
     0
340
16091
371
    -1
372
    -1
1001
ACAD_DSTYLE_DIMJOGGED_JOGANGLE_SYMBOL
1070
   384
1040
1.570796326794896
  0
ENDTAB
  0
TABLE
  2
BLOCK_RECORD
  5
1
330
0
100
AcDbSymbolTable
 70
   234
  0
BLOCK_RECORD
  5
18
102
{ACAD_XDICTIONARY
360
16BD7
102
}
330
1
100
AcDbSymbolTableRecord
100
AcDbBlockTableRecord
  2
*MODEL_SPACE
340
26A9
 70
     0
280
     1
281
     0
  0
BLOCK_RECORD
  5
1741A
330
1
100
AcDbSymbolTableRecord
100
AcDbBlockTableRecord
  2
*Paper_Space
340
1741B
 70
     0
280
     1
281
     0
  0
BLOCK_RECORD
  5
12524
330
1
100
AcDbSymbolTableRecord
100
AcDbBlockTableRecord
  2
A$C3FDE73E2
340
0
 70
     0
280
     1
281
     0
  0
BLOCK_RECORD
  5
1256F
330
1
100
AcDbSymbolTableRecord
100
AcDbBlockTableRecord
  2
A$C03B31D34
340
0
 70
     0
280
     1
281
     0
  0
BLOCK_RECORD
  5
1257A
330
1
100
AcDbSymbolTableRecord
100
AcDbBlockTableRecord
  2
A$C6E774BC7
340
0
 70
     0
280
     1
281
     0
  0
BLOCK_RECORD
  5
12590
330
1
100
AcDbSymbolTableRecord
100
AcDbBlockTableRecord
  2
A$C76981B85
340
0
 70
     0
280
     1
281
     0
  0
BLOCK_RECORD
  5
1263F
330
1
100
AcDbSymbolTableRecord
100
AcDbBlockTableRecord
  2
A$C7DA24904
340
0
102
{BLKREFS
331
12658
102
}
 70
     0
280
     1
281
     0
  0
BLOCK_RECORD
  5
12656
330
1
100
AcDbSymbolTableRecord
100
AcDbBlockTableRecord
  2
A$C28967C54
340
0
 70
     0
280
     1
281
     0
  0
BLOCK_RECORD
  5
133C8
330
1
100
AcDbSymbolTableRecord
100
AcDbBlockTableRecord
  2
A$C17E05194
340
0
 70
     0
280
     1
281
     0
  0
BLOCK_RECORD
  5
13B5D
330
1
100
AcDbSymbolTableRecord
100
AcDbBlockTableRecord
  2
A$C6D670A69
340
0
102
{BLKREFS
331
13B98
331
13B9F
331
13BA0
331
13BA1
331
13BA2
331
13BA3
331
13BA4
331
13BA5
331
13BA6
102
}
 70
     0
280
     1
281
     0
  0
BLOCK_RECORD
  5
13B97
330
1
100
AcDbSymbolTableRecord
100
AcDbBlockTableRecord
  2
A$C051E231E
340
0
 70
     0
280
     1
281
     0
  0
BLOCK_RECORD
  5
13B9E
330
1
100
AcDbSymbolTableRecord
100
AcDbBlockTableRecord
  2
A$C650E0C29
340
0
 70
     0
280
     1
281
     0
  0
BLOCK_RECORD
  5
13BD4
330
1
100
AcDbSymbolTableRecord
100
AcDbBlockTableRecord
  2
A$C3C7212E3
340
0
 70
     0
280
     1
281
     0
  0
BLOCK_RECORD
  5
13E92
330
1
100
AcDbSymbolTableRecord
100
AcDbBlockTableRecord
  2
A$C2C446AB3
340
0
 70
     0
280
     1
281
     0
  0
BLOCK_RECORD
  5
15655
330
1
100
AcDbSymbolTableRecord
100
AcDbBlockTableRecord
  2
A$C7C5C0D6E
340
0
 70
     0
280
     1
281
     0
  0
BLOCK_RECORD
  5
15659
330
1
100
AcDbSymbolTableRecord
100
AcDbBlockTableRecord
  2
A$C76E56FEB
340
0
 70
     0
280
     1
281
     0
  0
BLOCK_RECORD
  5
1565D
330
1
100
AcDbSymbolTableRecord
100
AcDbBlockTableRecord
  2
A$C024639DF
340
0
 70
     0
280
     1
281
     0
  0
BLOCK_RECORD
  5
156F1
330
1
100
AcDbSymbolTableRecord
100
AcDbBlockTableRecord
  2
A$C406A5D29
340
0
 70
     0
280
     1
281
     0
  0
BLOCK_RECORD
  5
1743D
102
{ACAD_XDICTIONARY
360
17573
102
}
330
1
100
AcDbSymbolTableRecord
100
AcDbBlockTableRecord
  2
ANcon Contact Detail
340
0
310
28000000300000003000000001002000000000000024000001000000010000000000000000000000302821FF302821FF302821FF302821FF302821FF302821FF302821FF302821FF302821FF302821FF302821FF302821FF302821FF302821FF302821FF302821FF302821FF302821FF302821FF302821FF302821FF302821
310
FF302821FF302821FF302821FF302821FF302821FF302821FF302821FF302821FF302821FF302821FF302821FF302821FF302821FF302821FF302821FF302821FF302821FF302821FF302821FF302821FF302821FF302821FF302821FF302821FF302821FF302821FF302821FF302821FF302821FF302821FF302821FF3028
310
21FF302821FF302821FF302821FF302821FF302821FF302821FF302821FF302821FF302821FF302821FF302821FF302821FF302821FF302821FF302821FF302821FF302821FF302821FF302821FF302821FF302821FF302821FF302821FF302821FF302821FF302821FF302821FF302821FF302821FF302821FF302821FF30
310
2821FF302821FF302821FF302821FF302821FF302821FF302821FF302821FF302821FF302821FF302821FF302821FF302821FF302821FF302821FF302821FF302821FF302821FF302821FF302821FF302821FF302821FF302821FF302821FF302821FF302821FF302821FF302821FF302821FF302821FF302821FF302821FF
310
302821FF302821FF302821FF302821FF302821FF302821FF302821FF302821FF302821FF302821FF302821FF302821FF302821FF302821FF302821FF302821FF302821FF302821FF302821FF302821FF302821FF302821FF302821FF302821FF302821FF302821FF302821FF302821FF302821FF302821FF302821FF302821
310
FF302821FF302821FF302821FF302821FF302821FF302821FF302821FF302821FF302821FF302821FF302821FF302821FF302821FF302821FF302821FF302821FF302821FF302821FF302821FF302821FF302821FF302821FF302821FF302821FF302821FF302821FF302821FF302821FF302821FF302821FF302821FF3028
310
21FF302821FF302821FF302821FF302821FF302821FF302821FF302821FF302821FF302821FF302821FF302821FF302821FF302821FF302821FF302821FF302821FF302821FF302821FF302821FF302821FF302821FF302821FF302821FF302821FF302821FF302821FF302821FF302821FF302821FF302821FF302821FF30
310
2821FF302821FF302821FF302821FF302821FF302821FF302821FF302821FF302821FF302821FF302821FF302821FF302821FF302821FF302821FF302821FF302821FF302821FF302821FF302821FF302821FF302821FF302821FF302821FF302821FF302821FF302821FF302821FF302821FF302821FF302821FF302821FF
310
302821FF302821FF302821FF302821FF302821FF302821FF302821FF302821FF302821FF302821FF302821FF302821FF302821FF302821FF302821FF302821FF302821FF302821FF302821FF302821FF302821FF302821FF302821FF302821FF302821FF302821FF302821FF302821FF302821FF302821FF302821FF302821
310
FF302821FF302821FF302821FF302821FF302821FF302821FF302821FF302821FF302821FF302821FF302821FF302821FF302821FF302821FF302821FF302821FF302821FF302821FF302821FF302821FF302821FF302821FF302821FF302821FF302821FF302821FF302821FF302821FF302821FF302821FF302821FF3028
310
21FF302821FF302821FF302821FF302821FF302821FF302821FF302821FF302821FF302821FF302821FF302821FF302821FF302821FF302821FF302821FF302821FF302821FF302821FF302821FF302821FF302821FF302821FF302821FF302821FF302821FF302821FF302821FF302821FF302821FF302821FF302821FF30
310
2821FF302821FF302821FF302821FF302821FF302821FF302821FF302821FF302821FF302821FF302821FF302821FF302821FF302821FF302821FF302821FF302821FF302821FF302821FF302821FF302821FF302821FF302821FF302821FF302821FF302821FF302821FF302821FF302821FF302821FF302821FF302821FF
310
302821FF302821FF302821FF302821FF302821FF302821FF302821FF302821FF302821FF302821FF302821FF302821FF302821FF302821FF302821FF302821FF302821FF302821FF302821FF302821FF302821FF302821FF302821FF302821FF302821FF302821FF302821FF302821FF302821FF302821FF302821FF302821
310
FF302821FF302821FF302821FF302821FF302821FF302821FF302821FF302821FF302821FF302821FF302821FF302821FF302821FF302821FF302821FF302821FF302821FF302821FF302821FF302821FF302821FF302821FF302821FF302821FF302821FF302821FF302821FF302821FF302821FF302821FF302821FF3028
310
21FF302821FF302821FF302821FF302821FF302821FF302821FF302821FF302821FF302821FF302821FF302821FF302821FF302821FF302821FF302821FF302821FF302821FF302821FF302821FF302821FF302821FF302821FF302821FF302821FF302821FF302821FF302821FF302821FF302821FF302821FF302821FF30
310
2821FF302821FF302821FF302821FF302821FF302821FF302821FF302821FF302821FF302821FF302821FF302821FF302821FF302821FF302821FF302821FF302821FF302821FF302821FF302821FF302821FF302821FF302821FF302821FF302821FF302821FF302821FF302821FF302821FF302821FF302821FF302821FF
310
302821FF302821FF302821FF302821FF302821FF302821FF302821FF302821FF302821FF302821FF302821FF302821FF302821FF302821FF302821FF302821FF302821FF302821FF302821FF302821FF302821FF302821FF302821FF302821FF302821FF302821FF302821FF302821FF302821FF302821FF302821FF302821
310
FF302821FF302821FF302821FF302821FF302821FF302821FF302821FF302821FF302821FF302821FF302821FF302821FF302821FF302821FF302821FF302821FF302821FF302821FF302821FF302821FF302821FF302821FF302821FF302821FF302821FF302821FF302821FF302821FF302821FF302821FF302821FF3028
310
21FF302821FF302821FF302821FF302821FF302821FF302821FF302821FF302821FF302821FF302821FF302821FF302821FF302821FF302821FF302821FF302821FF302821FF302821FF302821FF302821FF302821FF302821FF302821FF302821FF302821FF302821FF302821FF302821FF302821FF302821FF302821FF30
310
2821FF302821FF302821FF302821FF302821FF302821FF302821FF302821FF302821FF302821FF302821FF302821FF302821FF302821FF302821FF302821FF302821FF302821FF302821FF302821FF302821FF302821FF302821FF302821FF302821FF302821FF302821FF302821FF302821FF302821FF302821FF302821FF
310
302821FF302821FF302821FF302821FF302821FF302821FF302821FF302821FF302821FF302821FF302821FF302821FF302821FF302821FF302821FF302821FF302821FF302821FF302821FF302821FF302821FF302821FF302821FF302821FF302821FF302821FF302821FF302821FF302821FF302821FF302821FF302821
310
FF302821FF302821FF302821FF302821FF302821FF302821FF302821FF302821FF302821FF302821FF302821FF302821FF302821FF302821FF302821FF302821FF302821FF302821FF302821FF302821FF302821FF302821FF302821FF302821FF302821FF302821FF302821FF302821FF302821FF302821FF302821FF3028
310
21FF302821FF302821FF302821FF302821FF302821FF302821FF302821FF302821FF302821FF302821FF302821FF302821FF302821FF302821FF302821FF302821FF302821FF302821FF302821FF302821FF302821FF302821FF302821FF302821FF302821FF302821FF302821FF302821FF302821FF302821FF302821FF30
310
2821FF302821FF302821FF302821FF302821FF302821FF302821FF302821FF302821FF302821FF302821FF302821FF302821FF302821FF302821FF302821FF302821FF302821FF302821FF302821FF302821FF302821FF302821FF302821FF302821FF302821FF302821FF302821FF302821FF302821FF302821FF302821FF
310
302821FF302821FF302821FF302821FF302821FF302821FF302821FF302821FF302821FF302821FF302821FF302821FF302821FF302821FF302821FF302821FF302821FF302821FF302821FF302821FF302821FF302821FF302821FF302821FF302821FF302821FF302821FF302821FF302821FF302821FF302821FF302821
310
FF302821FF302821FF302821FF302821FF302821FF302821FF302821FF302821FF302821FF302821FF302821FF302821FF302821FF302821FF302821FF302821FF302821FF302821FF302821FF302821FF302821FF302821FF302821FF302821FF302821FF302821FF302821FF302821FF302821FF302821FF302821FF3028
310
21FF302821FF302821FF302821FF302821FF302821FF302821FF302821FF302821FF302821FF302821FF302821FF302821FF302821FF302821FF302821FF302821FF302821FF302821FF302821FF302821FF302821FF302821FF302821FF302821FF302821FF302821FF302821FF302821FF302821FF302821FF302821FF30
310
2821FF302821FF302821FF302821FF302821FF302821FF302821FF302821FF302821FF302821FF302821FF302821FF302821FF302821FF302821FF302821FF302821FF302821FF302821FF302821FF302821FF302821FF302821FF302821FF302821FF302821FF302821FF302821FF302821FF302821FF302821FF302821FF
310
302821FF302821FF302821FF302821FF302821FF302821FF302821FF302821FF302821FF302821FF302821FF302821FF302821FF302821FF302821FF302821FF302821FF302821FF302821FF302821FF302821FF302821FF302821FF302821FF302821FF302821FF302821FF302821FF302821FF302821FF302821FF302821
310
FF302821FF302821FF302821FF302821FFFF00FFFFFF00FFFFFF00FFFFFF00FFFFFF00FFFFFF00FFFFFF00FFFFFF00FFFFFF00FFFFFF00FFFFFF00FFFFFF00FFFFFF00FFFFFF00FFFFFF00FFFFFF00FFFFFF00FFFFFF00FFFFFF00FFFFFF00FFFFFF00FFFFFF00FFFFFF00FFFFFF00FFFFFF00FFFFFF00FFFF302821FF3028
310
21FF302821FF302821FF302821FF302821FF302821FF302821FF302821FF302821FF302821FF302821FF302821FF302821FF302821FF302821FF302821FF302821FF302821FF302821FF302821FFFF00FFFFFF00FFFFFF00FFFFFF00FFFFFF00FFFFFF00FFFFFF00FFFFFF00FFFFFF00FFFFFF00FFFFFF00FFFFFF00FFFFFF
310
00FFFFFF00FFFFFF00FFFFFF00FFFFFF00FFFFFF00FFFFFF00FFFFFF00FFFFFF00FFFFFF00FFFFFF00FFFFFF00FFFFFF00FFFFFF00FFFFFF00FFFF302821FF302821FF302821FF302821FF302821FF302821FF302821FF302821FF302821FF302821FF302821FF302821FF302821FF302821FF302821FF302821FF302821FF
310
302821FF302821FF302821FF302821FFFF00FFFFFF00FFFFFF00FFFFFF00FFFFFF00FFFFFF00FFFFFF00FFFFFF00FFFFFF00FFFFFF00FFFFFF00FFFFFF00FFFFFF00FFFFFF00FFFFFF00FFFFFF00FFFFFF00FFFFFF00FFFFFF00FFFFFF00FFFFFF00FFFFFF00FFFFFF00FFFFFF00FFFFFF00FFFFFF00FFFFFF00FFFFFF00FF
310
FFFF00FFFFFF00FFFFFF00FFFFFF00FFFF302821FF302821FF302821FF302821FF302821FF302821FF302821FF302821FF302821FF302821FF302821FF302821FF302821FF302821FF302821FF302821FFFF00FFFFFF00FFFFFF00FFFFFF00FFFFFF00FFFFFF00FFFFFF00FFFFFF00FFFFFF00FFFFFF00FFFFFF00FFFFFF00
310
FFFFFF00FFFFFF00FFFFFF00FFFFFF00FFFFFF00FFFFFF00FFFFFF00FFFFFF00FFFFFF00FFFFFF00FFFFFF00FFFFFF00FFFFFF00FFFFFF00FFFFFF00FFFFFF00FFFFFF00FFFFFF00FFFFFF00FFFFFF00FFFF302821FF302821FF302821FF302821FF302821FF302821FF302821FF302821FF302821FF302821FF302821FF30
310
2821FF302821FF302821FF302821FF302821FFFF00FFFFFF00FFFFFF00FFFFFF00FFFFFF00FFFFFF00FFFFFF00FFFFFF00FFFFFF00FFFFFF00FFFFFF00FFFFFF00FFFFFF00FFFFFF00FFFFFF00FFFFFF00FFFFFF00FFFFFF00FFFFFF00FFFFFF00FFFFFF00FFFFFF00FFFFFF00FFFFFF00FFFFFF00FFFFFF00FFFFFF00FFFF
310
FF00FFFFFF00FFFFFF00FFFFFF00FFFFFF00FFFF302821FF302821FF302821FF302821FF302821FF302821FF302821FF302821FF302821FF302821FF302821FF302821FF302821FF302821FF302821FF302821FF302821FFFF00FFFFFF00FFFFFF00FFFFFF00FFFF302821FFFF00FFFFFF00FFFFFF00FFFFFF00FFFFFF00FF
310
FFFF00FFFFFF00FFFFFF00FFFFFF00FFFFFF00FFFFFF00FFFFFF00FFFFFF00FFFFFF00FFFF302821FF302821FF302821FF302821FF302821FF302821FF302821FF302821FF302821FF302821FF302821FF302821FF302821FF302821FF302821FF302821FF302821FF302821FF302821FF302821FF302821FF302821FF3028
310
21FF302821FF302821FF302821FF302821FF302821FF302821FFFF00FFFFFF00FFFFFF00FFFFFF00FFFFFF00FFFFFF00FFFFFF00FFFFFF00FFFFFF00FFFFFF00FFFFFF00FFFFFF00FFFFFF00FFFFFF00FFFFFF00FFFFFF00FFFFFF00FFFFFF00FFFFFF00FFFF302821FF302821FF302821FF302821FF302821FF302821FF30
310
2821FF302821FF302821FF302821FF302821FF302821FF302821FF302821FF302821FF302821FF302821FF302821FF302821FF302821FF302821FF302821FF302821FF302821FF302821FF302821FF302821FF302821FFFF00FFFFFF00FFFF302821FFFF00FFFF302821FFFF00FFFFFF00FFFFFF00FFFFFF00FFFFFF00FFFF
310
FF00FFFFFF00FFFFFF00FFFFFF00FFFFFF00FFFFFF00FFFFFF00FFFFFF00FFFFFF00FFFFFF00FFFF302821FF302821FF302821FF302821FF302821FF302821FF302821FF302821FF302821FF302821FF302821FF302821FF302821FF302821FF302821FF302821FF302821FF302821FF302821FF302821FF302821FF302821
310
FF302821FF302821FF302821FF302821FF302821FF302821FFFF00FFFFFF00FFFFFF00FFFFFF00FFFFFF00FFFFFF00FFFFFF00FFFFFF00FFFFFF00FFFFFF00FFFFFF00FFFFFF00FFFFFF00FFFFFF00FFFFFF00FFFFFF00FFFF302821FF302821FF302821FF302821FF302821FF302821FF302821FF302821FF302821FF3028
310
21FF302821FF302821FF302821FF302821FF302821FF302821FF302821FF302821FF302821FF302821FF302821FF302821FF302821FF302821FF302821FF302821FF302821FF302821FF302821FF302821FF302821FF302821FFFF00FFFF302821FFFF00FFFFFF00FFFFFF00FFFFFF00FFFFFF00FFFFFF00FFFFFF00FFFFFF
310
00FFFFFF00FFFFFF00FFFFFF00FFFFFF00FFFFFF00FFFFFF00FFFF302821FF302821FF302821FF302821FF302821FF302821FF302821FF302821FF302821FF302821FF302821FF302821FF302821FF302821FF302821FF302821FF302821FF302821FF302821FF302821FF302821FF302821FF302821FF302821FF302821FF
310
302821FF302821FF302821FF302821FF302821FF302821FF302821FFFF00FFFF302821FF302821FF302821FFFF00FFFF302821FF302821FFFF00FFFFFF00FFFF302821FF302821FF302821FF302821FFFF00FFFFFF00FFFF302821FF302821FF302821FF302821FF302821FF302821FF302821FF302821FF302821FF302821
310
FF302821FF302821FF302821FF302821FF302821FF302821FF302821FF302821FF302821FF302821FF302821FF302821FF302821FF302821FF302821FF302821FF302821FF302821FF302821FF302821FF302821FF302821FF302821FF302821FF302821FF302821FF302821FF302821FF302821FF302821FF302821FF3028
310
21FF302821FF302821FF302821FF302821FF302821FF302821FF302821FF302821FF302821FF302821FF302821FF302821FF302821FF302821FF302821FF302821FF302821FF302821FF302821FF302821FF302821FF302821FF302821FF302821FF302821FF302821FF302821FF302821FF302821FF302821FF302821FF30
310
2821FF302821FF302821FF302821FF302821FF302821FF302821FF302821FF302821FF302821FF302821FF302821FF302821FF302821FF302821FF302821FF302821FF302821FF302821FF302821FF302821FF302821FF302821FF302821FF302821FF302821FF302821FF302821FF302821FF302821FF302821FF302821FF
310
302821FF302821FF302821FF302821FF302821FF302821FF302821FF302821FF302821FF302821FF302821FF302821FF302821FF302821FF302821FF302821FF302821FF302821FF302821FF302821FF302821FF302821FF302821FF302821FF302821FF302821FF302821FF302821FF302821FF302821FF302821FF302821
310
FF302821FF302821FF302821FF302821FF302821FF302821FF302821FF302821FF302821FF302821FF302821FF302821FF302821FF302821FF302821FF302821FF302821FF302821FF302821FF302821FF302821FF302821FF302821FF302821FF302821FF302821FF302821FF302821FF302821FF302821FF302821FF3028
310
21FF302821FF302821FF302821FF302821FF302821FF302821FF302821FF302821FF302821FF302821FF302821FF302821FF302821FF302821FF302821FF302821FF302821FF302821FF302821FF302821FF302821FF302821FF302821FF302821FF302821FF302821FF302821FF302821FF302821FF302821FF302821FF30
310
2821FF302821FF302821FF302821FF302821FF302821FF302821FF302821FF302821FF302821FF302821FF302821FF302821FF302821FF302821FF302821FF302821FF302821FF302821FF302821FF302821FF302821FF302821FF302821FF302821FF302821FF302821FF302821FF302821FF302821FF302821FF302821FF
310
302821FF302821FF302821FF302821FF302821FF302821FF302821FF302821FF302821FF302821FF302821FF302821FF302821FF302821FF302821FF302821FF302821FF302821FF302821FF302821FF302821FF302821FF302821FF302821FF302821FF302821FF302821FF302821FF302821FF302821FF302821FF302821
310
FF302821FF302821FF302821FF302821FF302821FF302821FF302821FF302821FF302821FF302821FF302821FF302821FF302821FF302821FF302821FF302821FF302821FF302821FF302821FF302821FF302821FF302821FF302821FF302821FF302821FF302821FF302821FF302821FF302821FF302821FF302821FF3028
310
21FF302821FF302821FF302821FF302821FF302821FF302821FF302821FF302821FF302821FF302821FF302821FF302821FF302821FF302821FF302821FF302821FF302821FF302821FF302821FF302821FF302821FF302821FF302821FF302821FF302821FF302821FF302821FF302821FF302821FF302821FF302821FF30
310
2821FF302821FF302821FF302821FF302821FF302821FF302821FF302821FF302821FF302821FF302821FF302821FF302821FF302821FF302821FF302821FF302821FF302821FF302821FF302821FF302821FF302821FF302821FF302821FF302821FF302821FF302821FF302821FF302821FF302821FF302821FF302821FF
310
302821FF302821FF302821FF302821FF302821FF302821FF302821FF302821FF302821FF302821FF302821FF302821FF302821FF302821FF302821FF302821FF302821FF302821FF302821FF302821FF302821FF302821FF302821FF302821FF302821FF302821FF302821FF302821FF302821FF302821FF302821FF302821
310
FF302821FF302821FF302821FF302821FF302821FF302821FF302821FF302821FF302821FF302821FF302821FF302821FF302821FF302821FF302821FF302821FF302821FF302821FF302821FF302821FF302821FF302821FF302821FF302821FF302821FF302821FF302821FF302821FF302821FF302821FF302821FF3028
310
21FF302821FF302821FF302821FF302821FF302821FF302821FF302821FF302821FF302821FF302821FF302821FF302821FF302821FF302821FF302821FF302821FF302821FF302821FF302821FF302821FF302821FF302821FF302821FF302821FF302821FF302821FF302821FF302821FF302821FF302821FF302821FF30
310
2821FF302821FF302821FF302821FF302821FF302821FF302821FF302821FF302821FF302821FF302821FF302821FF302821FF302821FF302821FF302821FF302821FF302821FF302821FF302821FF302821FF302821FF302821FF302821FF302821FF302821FF302821FF302821FF302821FF302821FF302821FF302821FF
310
302821FF302821FF302821FF302821FF302821FF302821FF302821FF302821FF302821FF302821FF302821FF302821FF302821FF302821FF302821FF302821FF302821FF302821FF302821FF302821FF302821FF302821FF302821FF302821FF302821FF302821FF302821FF302821FF302821FF302821FF302821FF302821
310
FF302821FF302821FF302821FF302821FF302821FF302821FF302821FF302821FF302821FF302821FF302821FF302821FF302821FF302821FF302821FF302821FF302821FF302821FF302821FF302821FF302821FF302821FF302821FF302821FF302821FF302821FF302821FF302821FF302821FF302821FF302821FF3028
310
21FF302821FF302821FF302821FF302821FF302821FF302821FF302821FF302821FF302821FF302821FF302821FF302821FF302821FF302821FF302821FF302821FF302821FF302821FF302821FF302821FF302821FF302821FF302821FF302821FF302821FF302821FF302821FF302821FF302821FF302821FF302821FF30
310
2821FF302821FF302821FF302821FF302821FF302821FF302821FF302821FF302821FF302821FF302821FF302821FF302821FF302821FF302821FF302821FF302821FF302821FF302821FF302821FF302821FF302821FF302821FF302821FF302821FF302821FF302821FF302821FF302821FF302821FF302821FF302821FF
310
302821FF302821FF302821FF302821FF302821FF302821FF302821FF302821FF302821FF302821FF302821FF302821FF302821FF302821FF302821FF302821FF302821FF302821FF302821FF302821FF302821FF302821FF302821FF302821FF302821FF302821FF302821FF302821FF302821FF302821FF302821FF302821
310
FF302821FF302821FF302821FF302821FF302821FF302821FF302821FF302821FF302821FF302821FF302821FF302821FF302821FF302821FF302821FF302821FF302821FF302821FF302821FF302821FF302821FF302821FF302821FF302821FF302821FF302821FF302821FF302821FF302821FF302821FF302821FF3028
310
21FF302821FF302821FF302821FF302821FF302821FF302821FF302821FF302821FF302821FF302821FF302821FF302821FF302821FF302821FF302821FF302821FF302821FF302821FF302821FF302821FF302821FF302821FF302821FF302821FF302821FF302821FF302821FF302821FF302821FF302821FF302821FF30
310
2821FF302821FF302821FF302821FF302821FF302821FF302821FF302821FF302821FF302821FF302821FF302821FF302821FF302821FF302821FF302821FF302821FF302821FF302821FF302821FF302821FF302821FF302821FF302821FF302821FF302821FF302821FF302821FF302821FF302821FF302821FF302821FF
310
302821FF302821FF302821FF302821FF302821FF302821FF302821FF302821FF302821FF302821FF302821FF302821FF302821FF302821FF302821FF302821FF302821FF302821FF302821FF302821FF302821FF302821FF302821FF302821FF302821FF302821FF302821FF302821FF302821FF302821FF302821FF302821
310
FF302821FF302821FF302821FF302821FF302821FF302821FF302821FF302821FF302821FF302821FF302821FF302821FF302821FF302821FF302821FF302821FF302821FF302821FF302821FF302821FF302821FF302821FF302821FF302821FF302821FF302821FF302821FF302821FF302821FF302821FF302821FF3028
310
21FF302821FF302821FF302821FF302821FF302821FF302821FF302821FF302821FF302821FF302821FF302821FF302821FF302821FF302821FF302821FF302821FF302821FF302821FF302821FF302821FF302821FF302821FF302821FF302821FF302821FF302821FF302821FF302821FF302821FF302821FF302821FF30
310
2821FF302821FF302821FF302821FF302821FF302821FF302821FF302821FF302821FF302821FF302821FF302821FF302821FF302821FF302821FF302821FF302821FF302821FF302821FF302821FF302821FF302821FF302821FF302821FF302821FF302821FF302821FF302821FF302821FF302821FF302821FF302821FF
310
302821FF302821FF302821FF302821FF302821FF302821FF302821FF302821FF302821FF302821FF302821FF302821FF302821FF302821FF302821FF302821FF302821FF302821FF302821FF302821FF302821FF302821FF302821FF302821FF302821FF302821FF302821FF302821FF
102
{BLKREFS
331
17447
331
1744C
331
17539
331
1753C
102
}
 70
     1
280
     1
281
     0
1001
AcDbDynamicBlockGUID
1000
{015843D8-11DE-4345-8745-38F4C5389A45}
  0
ENDTAB
  0
ENDSEC
  0
SECTION
  2
BLOCKS
  0
BLOCK
  5
19
330
18
100
AcDbEntity
  8
0
100
AcDbBlockBegin
  2
*MODEL_SPACE
 70
     0
 10
0.0
 20
0.0
 30
0.0
  3
*MODEL_SPACE
  1

  0
ENDBLK
  5
1A
330
18
100
AcDbEntity
  8
0
100
AcDbBlockEnd
  0
BLOCK
  5
1741C
330
1741A
100
AcDbEntity
 67
     1
  8
0
100
AcDbBlockBegin
  2
*Paper_Space
 70
     0
 10
0.0
 20
0.0
 30
0.0
  3
*Paper_Space
  1

  0
ENDBLK
  5
1741D
330
1741A
100
AcDbEntity
 67
     1
  8
0
100
AcDbBlockEnd
  0
BLOCK
  5
1252D
330
12524
100
AcDbEntity
  8
0
100
AcDbBlockBegin
  2
A$C3FDE73E2
 70
     0
 10
0.0
 20
0.0
 30
0.0
  3
A$C3FDE73E2
  1

  0
LINE
  5
12525
330
12524
100
AcDbEntity
  8
Insert
100
AcDbLine
 10
95.0
 20
-24.99999999999995
 30
0.0
 11
91.5
 21
-24.99999999999995
 31
0.0
  0
LINE
  5
12526
330
12524
100
AcDbEntity
  8
Insert
100
AcDbLine
 10
91.49999999999995
 20
-24.99999999999989
 30
0.0
 11
86.0151724426986
 21
-15.00000000000006
 31
0.0
  0
LINE
  5
12527
330
12524
100
AcDbEntity
  8
Insert
100
AcDbLine
 10
91.5
 20
-0.2499999999999432
 30
0.0
 11
91.5
 21
-24.99999999999995
 31
0.0
  0
LINE
  5
12528
330
12524
100
AcDbEntity
  8
Insert
100
AcDbLine
 10
95.0
 20
-0.2499999999999432
 30
0.0
 11
95.0
 21
-24.99999999999995
 31
0.0
  0
LINE
  5
12529
330
12524
100
AcDbEntity
  8
Insert
100
AcDbLine
 10
91.49999999999995
 20
25.0
 30
0.0
 11
86.0151724426986
 21
15.00000000000017
 31
0.0
  0
LINE
  5
1252A
330
12524
100
AcDbEntity
  8
Insert
100
AcDbLine
 10
95.0
 20
25.00000000000006
 30
0.0
 11
91.5
 21
25.00000000000006
 31
0.0
  0
LINE
  5
1252B
330
12524
100
AcDbEntity
  8
Insert
100
AcDbLine
 10
91.5
 20
0.2500000000000568
 30
0.0
 11
91.5
 21
25.00000000000006
 31
0.0
  0
LINE
  5
1252C
330
12524
100
AcDbEntity
  8
Insert
100
AcDbLine
 10
95.0
 20
0.2500000000000568
 30
0.0
 11
95.0
 21
25.00000000000006
 31
0.0
  0
ENDBLK
  5
1252E
330
12524
100
AcDbEntity
  8
0
100
AcDbBlockEnd
  0
BLOCK
  5
12576
330
1256F
100
AcDbEntity
  8
0
100
AcDbBlockBegin
  2
A$C03B31D34
 70
     0
 10
0.0
 20
0.0
 30
0.0
  3
A$C03B31D34
  1

  0
LINE
  5
12570
330
1256F
100
AcDbEntity
  8
Insert
100
AcDbLine
 10
6.062177826491051
 20
25.0
 30
0.0
 11
-0.0000000000002274
 21
14.00000000000005
 31
0.0
  0
LINE
  5
12571
330
1256F
100
AcDbEntity
  8
Insert
100
AcDbLine
 10
9.562177826491051
 20
25.0
 30
0.0
 11
6.062177826491051
 21
25.0
 31
0.0
  0
LINE
  5
12572
330
1256F
100
AcDbEntity
  8
Insert
100
AcDbLine
 10
6.062177826491051
 20
-25.0
 30
0.0
 11
6.062177826491051
 21
24.99999999999995
 31
0.0
  0
LINE
  5
12573
330
1256F
100
AcDbEntity
  8
Insert
100
AcDbLine
 10
9.562177826491051
 20
-25.0
 30
0.0
 11
9.562177826491051
 21
24.99999999999995
 31
0.0
  0
LINE
  5
12574
330
1256F
100
AcDbEntity
  8
Insert
100
AcDbLine
 10
6.062177826491051
 20
-25.00000000000006
 30
0.0
 11
0.0000000000002274
 21
-14.0
 31
0.0
  0
LINE
  5
12575
330
1256F
100
AcDbEntity
  8
Insert
100
AcDbLine
 10
9.562177826491051
 20
-25.0
 30
0.0
 11
6.062177826491051
 21
-25.0
 31
0.0
  0
ENDBLK
  5
12577
330
1256F
100
AcDbEntity
  8
0
100
AcDbBlockEnd
  0
BLOCK
  5
12581
330
1257A
100
AcDbEntity
  8
0
100
AcDbBlockBegin
  2
A$C6E774BC7
 70
     0
 10
0.0
 20
0.0
 30
0.0
  3
A$C6E774BC7
  1

  0
LINE
  5
1257B
330
1257A
100
AcDbEntity
  8
Insert
100
AcDbLine
 10
7.216878364870353
 20
-25.0420835176023
 30
0.0
 11
0.0
 21
-12.04208351760235
 31
0.0
  0
LINE
  5
1257C
330
1257A
100
AcDbEntity
  8
Insert
100
AcDbLine
 10
10.71687836487035
 20
-25.0420835176023
 30
0.0
 11
7.216878364870353
 21
-25.0420835176023
 31
0.0
  0
LINE
  5
1257D
330
1257A
100
AcDbEntity
  8
Insert
100
AcDbLine
 10
7.216878364870353
 20
-25.0420835176023
 30
0.0
 11
7.216878364870126
 21
24.95791648239771
 31
0.0
  0
LINE
  5
1257E
330
1257A
100
AcDbEntity
  8
Insert
100
AcDbLine
 10
10.71687836487012
 20
-25.0420835176023
 30
0.0
 11
10.71687836487035
 21
24.95791648239771
 31
0.0
  0
LINE
  5
1257F
330
1257A
100
AcDbEntity
  8
Insert
100
AcDbLine
 10
7.216878364870353
 20
24.95791648239771
 30
0.0
 11
0.0
 21
12.04208351760198
 31
0.0
  0
LINE
  5
12580
330
1257A
100
AcDbEntity
  8
Insert
100
AcDbLine
 10
10.71687836487035
 20
24.95791648239771
 30
0.0
 11
7.216878364870353
 21
24.95791648239771
 31
0.0
  0
ENDBLK
  5
12582
330
1257A
100
AcDbEntity
  8
0
100
AcDbBlockEnd
  0
BLOCK
  5
12597
330
12590
100
AcDbEntity
  8
0
100
AcDbBlockBegin
  2
A$C76981B85
 70
     0
 10
0.0
 20
0.0
 30
0.0
  3
A$C76981B85
  1

  0
LINE
  5
12591
330
12590
100
AcDbEntity
  8
Insert
100
AcDbLine
 10
8.371578903248973
 20
25.0
 30
0.0
 11
-0.0000000000009095
 21
10.00000000000005
 31
0.0
  0
LINE
  5
12592
330
12590
100
AcDbEntity
  8
Insert
100
AcDbLine
 10
11.87157890324897
 20
25.0
 30
0.0
 11
8.371578903248973
 21
25.0
 31
0.0
  0
LINE
  5
12593
330
12590
100
AcDbEntity
  8
Insert
100
AcDbLine
 10
11.87157890324897
 20
-25.0
 30
0.0
 11
11.87157890324897
 21
24.99999999999995
 31
0.0
  0
LINE
  5
12594
330
12590
100
AcDbEntity
  8
Insert
100
AcDbLine
 10
8.371578903248973
 20
-25.0
 30
0.0
 11
8.371578903248973
 21
25.0
 31
0.0
  0
LINE
  5
12595
330
12590
100
AcDbEntity
  8
Insert
100
AcDbLine
 10
8.371578903248973
 20
-25.00000000000006
 30
0.0
 11
0.0000000000004547
 21
-10.0
 31
0.0
  0
LINE
  5
12596
330
12590
100
AcDbEntity
  8
Insert
100
AcDbLine
 10
11.87157890324897
 20
-25.0
 30
0.0
 11
8.371578903248973
 21
-25.0
 31
0.0
  0
ENDBLK
  5
12598
330
12590
100
AcDbEntity
  8
0
100
AcDbBlockEnd
  0
BLOCK
  5
12650
330
1263F
100
AcDbEntity
  8
0
100
AcDbBlockBegin
  2
A$C7DA24904
 70
     0
 10
0.0
 20
0.0
 30
0.0
  3
A$C7DA24904
  1

  0
HATCH
  5
12640
330
1263F
100
AcDbEntity
  8
Insert
100
AcDbHatch
 10
0.0
 20
0.0
 30
0.0
210
0.0
220
0.0
230
1.0
  2
SOLID
 70
     1
 71
     1
 91
        1
 92
        1
 93
        6
 72
     1
 10
5.683208745309343
 20
0.0000000000000568
 11
7.379593545308125
 21
-4.444533599996987
 72
     2
 10
5.683115175334478
 20
-4.980360024977528
 40
1.779086512088733
 50
342.4714707425489
 51
399.2210966703916
 73
     0
 72
     1
 10
7.061394345307462
 20
-6.105302399997015
 11
7.733826345307875
 21
-7.855199999994681
 72
     2
 10
6.026986657431507
 20
-4.877017979591244
 40
3.43261851459844
 50
299.8176530047359
 51
364.8326229761852
 73
     1
 72
     1
 10
9.447402396418624
 20
-4.587836307880422
 11
7.680853545307968
 21
0.0000000000000568
 72
     1
 10
7.680853545307968
 20
0.0000000000000568
 11
5.683208745309343
 21
0.0000000000000568
 97
        6
330
1264F
330
1264E
330
1264D
330
1264C
330
1264B
330
12649
 75
     0
 76
     1
 98
        1
 10
123.1041895375271
 20
314.3532193613657
450
        0
451
        0
460
0.0
461
0.0
452
        1
462
1.0
453
        2
463
0.0
 63
     5
421
      255
463
1.0
 63
     7
421
 16777215
470
LINEAR
  0
HATCH
  5
12641
330
1263F
100
AcDbEntity
  8
Insert
100
AcDbHatch
 10
0.0
 20
0.0
 30
0.0
210
0.0
220
0.0
230
1.0
  2
SOLID
 70
     1
 71
     1
 91
        1
 92
        1
 93
        6
 72
     1
 10
1.992432317014277
 20
0.0
 11
0.0
 21
0.0
 72
     1
 10
0.0
 20
0.0000000000000568
 11
2.746802496850023
 21
-7.162671424904374
 72
     2
 10
5.48070141800008
 20
-5.086938649304784
 40
3.43261851459844
 50
217.2078515414913
 51
282.2228215129755
 73
     1
 72
     1
 10
6.207435139390554
 20
-8.441745344922026
 11
5.535003139390141
 21
-6.691847744924359
 72
     2
 10
5.805288684072593
 20
-4.933412491117223
 40
1.779086512088733
 50
98.73842881184971
 51
155.4880547397589
 73
     0
 72
     1
 10
4.186542710119852
 20
-5.671525144651752
 11
1.992432317014277
 21
0.0
 97
        6
330
12642
330
12644
330
12645
330
12646
330
12647
330
12648
 75
     0
 76
     1
 98
        1
 10
123.1041895375271
 20
314.3532193613657
450
        0
451
        0
460
0.0
461
0.0
452
        1
462
1.0
453
        2
463
0.0
 63
     5
421
      255
463
1.0
 63
     7
421
 16777215
470
LINEAR
  0
LINE
  5
12642
102
{ACAD_REACTORS
330
12641
102
}
330
1263F
100
AcDbEntity
  8
Insert
100
AcDbLine
 10
1.992432317014277
 20
0.0
 30
0.0
 11
0.0
 21
0.0
 31
0.0
  0
LINE
  5
12643
330
1263F
100
AcDbEntity
  8
Insert
100
AcDbLine
 10
0.9864993996167186
 20
-2.572435065288743
 30
0.0
 11
0.9864993996167186
 21
-2.572435065288743
 31
0.0
  0
LINE
  5
12644
102
{ACAD_REACTORS
330
12641
102
}
330
1263F
100
AcDbEntity
  8
Insert
100
AcDbLine
 10
2.746802496850023
 20
-7.162671424904374
 30
0.0
 11
0.0
 21
0.0000000000000568
 31
0.0
  0
ARC
  5
12645
102
{ACAD_REACTORS
330
12641
102
}
330
1263F
100
AcDbEntity
  8
Insert
100
AcDbCircle
 10
5.48070141800008
 20
-5.086938649304784
 30
0.0
 40
3.43261851459844
100
AcDbArc
 50
217.2078515414913
 51
282.2228215129755
  0
LINE
  5
12646
102
{ACAD_REACTORS
330
12641
102
}
330
1263F
100
AcDbEntity
  8
Insert
100
AcDbLine
 10
5.535003139390141
 20
-6.691847744924359
 30
0.0
 11
6.207435139390554
 21
-8.441745344922026
 31
0.0
  0
ARC
  5
12647
102
{ACAD_REACTORS
330
12641
102
}
330
1263F
100
AcDbEntity
  8
Insert
100
AcDbCircle
 10
5.805288684072593
 20
-4.933412491117223
 30
0.0
 40
1.779086512088733
100
AcDbArc
 50
204.5119452602411
 51
261.2615711881503
  0
LINE
  5
12648
102
{ACAD_REACTORS
330
12641
102
}
330
1263F
100
AcDbEntity
  8
Insert
100
AcDbLine
 10
1.992432317014277
 20
0.0
 30
0.0
 11
4.186542710119852
 21
-5.671525144651752
 31
0.0
  0
LINE
  5
12649
102
{ACAD_REACTORS
330
12640
102
}
330
1263F
100
AcDbEntity
  8
Insert
100
AcDbLine
 10
7.680853545307968
 20
0.0000000000000568
 30
0.0
 11
5.683208745309343
 21
0.0000000000000568
 31
0.0
  0
LINE
  5
1264A
330
1263F
100
AcDbEntity
  8
Insert
100
AcDbLine
 10
7.680853545307968
 20
0.0000000000000568
 30
0.0
 11
7.680853545307968
 21
0.0000000000000568
 31
0.0
  0
LINE
  5
1264B
102
{ACAD_REACTORS
330
12640
102
}
330
1263F
100
AcDbEntity
  8
Insert
100
AcDbLine
 10
9.447402396418624
 20
-4.587836307880422
 30
0.0
 11
7.680853545307968
 21
0.0000000000000568
 31
0.0
  0
ARC
  5
1264C
102
{ACAD_REACTORS
330
12640
102
}
330
1263F
100
AcDbEntity
  8
Insert
100
AcDbCircle
 10
6.026986657431507
 20
-4.877017979591244
 30
0.0
 40
3.43261851459844
100
AcDbArc
 50
299.8176530047359
 51
4.832622976185222
  0
LINE
  5
1264D
102
{ACAD_REACTORS
330
12640
102
}
330
1263F
100
AcDbEntity
  8
Insert
100
AcDbLine
 10
7.061394345307462
 20
-6.105302399997015
 30
0.0
 11
7.733826345307875
 21
-7.855199999994681
 31
0.0
  0
ARC
  5
1264E
102
{ACAD_REACTORS
330
12640
102
}
330
1263F
100
AcDbEntity
  8
Insert
100
AcDbCircle
 10
5.683115175334478
 20
-4.980360024977528
 30
0.0
 40
1.779086512088733
100
AcDbArc
 50
320.7789033296084
 51
17.52852925745114
  0
LINE
  5
1264F
102
{ACAD_REACTORS
330
12640
102
}
330
1263F
100
AcDbEntity
  8
Insert
100
AcDbLine
 10
5.683208745309343
 20
0.0000000000000568
 30
0.0
 11
7.379593545308125
 21
-4.444533599996987
 31
0.0
  0
ENDBLK
  5
12651
330
1263F
100
AcDbEntity
  8
0
100
AcDbBlockEnd
  0
BLOCK
  5
12659
330
12656
100
AcDbEntity
  8
0
100
AcDbBlockBegin
  2
A$C28967C54
 70
     0
 10
0.0
 20
0.0
 30
0.0
  3
A$C28967C54
  1

  0
CIRCLE
  5
12657
330
12656
100
AcDbEntity
  8
Insert
100
AcDbCircle
 10
-174.1363917124181
 20
-136.641252874955
 30
0.0
 40
25.0
  0
INSERT
  5
12658
330
12656
100
AcDbEntity
  8
InsertDims
100
AcDbBlockReference
  2
A$C7DA24904
 10
-183.8462217517444
 20
-127.9742909719674
 30
0.0
 41
2.0
 42
2.0
 43
2.0
  0
ENDBLK
  5
1265A
330
12656
100
AcDbEntity
  8
0
100
AcDbBlockEnd
  0
BLOCK
  5
133E1
330
133C8
100
AcDbEntity
  8
0
100
AcDbBlockBegin
  2
A$C17E05194
 70
     0
 10
0.0
 20
0.0
 30
0.0
  3
A$C17E05194
  1

  0
LINE
  5
133C9
330
133C8
100
AcDbEntity
  8
Insert
100
AcDbLine
 10
62.99999999999989
 20
14.14213562373095
 30
0.0
 11
62.99999999999989
 21
-20.00000000000023
 31
0.0
  0
LINE
  5
133CA
330
133C8
100
AcDbEntity
  8
Insert
100
AcDbLine
 10
82.99999999999995
 20
14.14213562373095
 30
0.0
 11
82.99999999999982
 21
-20.00000000000023
 31
0.0
  0
LINE
  5
133CB
330
133C8
100
AcDbEntity
  8
Insert
100
AcDbLine
 10
88.75758622134929
 20
20.00000000000023
 30
0.0
 11
88.75758622134924
 21
-20.00000000000023
 31
0.0
  0
LINE
  5
133CC
330
133C8
100
AcDbEntity
  8
Insert
100
AcDbLine
 10
0.0
 20
20.0
 30
0.0
 11
0.0000000000000568
 21
-20.0
 31
0.0
  0
LINE
  5
133CD
330
133C8
100
AcDbEntity
  8
Insert
100
AcDbLine
 10
91.5
 20
0.25
 30
0.0
 11
91.5
 21
25.0
 31
0.0
  0
LINE
  5
133CE
330
133C8
100
AcDbEntity
  8
Insert
100
AcDbLine
 10
95.0
 20
0.25
 30
0.0
 11
95.0
 21
25.0
 31
0.0
  0
LINE
  5
133CF
330
133C8
100
AcDbEntity
  8
Insert
100
AcDbLine
 10
60.0
 20
0.0
 30
0.0
 11
53.07179676972447
 21
12.0
 31
0.0
  0
LINE
  5
133D0
330
133C8
100
AcDbEntity
  8
Insert
100
AcDbLine
 10
0.0000000000000568
 20
-20.0
 30
0.0
 11
88.75758622134936
 21
-20.00000000000023
 31
0.0
  0
LINE
  5
133D1
330
133C8
100
AcDbEntity
  8
Insert
100
AcDbLine
 10
60.0
 20
0.0
 30
0.0
 11
53.07179676972435
 21
-12.0
 31
0.0
  0
LINE
  5
133D2
330
133C8
100
AcDbEntity
  8
Insert
100
AcDbLine
 10
0.0
 20
-12.0
 30
0.0
 11
53.07179676972435
 21
-12.0
 31
0.0
  0
LINE
  5
133D3
330
133C8
100
AcDbEntity
  8
Insert
  6
HIDDEN2
100
AcDbLine
 10
0.0
 20
-13.19999999999993
 30
0.0
 11
49.77294498181868
 21
-13.20504648462565
 31
0.0
  0
ARC
  5
133D4
330
133C8
100
AcDbEntity
  8
Insert
100
AcDbCircle
 10
3.053832545771399
 20
-2.190304854066539
 30
0.0
 40
48.0
100
AcDbArc
 50
346.7339068011112
 51
347.9572741556838
  0
LINE
  5
133D5
330
133C8
100
AcDbEntity
  8
Insert
100
AcDbLine
 10
91.49999999999995
 20
-24.99999999999989
 30
0.0
 11
88.75758622134924
 21
-20.0
 31
0.0
  0
LINE
  5
133D6
330
133C8
100
AcDbEntity
  8
Insert
100
AcDbLine
 10
95.0
 20
-25.0
 30
0.0
 11
91.5
 21
-25.0
 31
0.0
  0
LINE
  5
133D7
330
133C8
100
AcDbEntity
  8
Insert
100
AcDbLine
 10
95.0
 20
-0.25
 30
0.0
 11
95.0
 21
-25.0
 31
0.0
  0
LINE
  5
133D8
330
133C8
100
AcDbEntity
  8
Insert
100
AcDbLine
 10
91.5
 20
-0.25
 30
0.0
 11
91.5
 21
-25.0
 31
0.0
  0
LINE
  5
133D9
330
133C8
100
AcDbEntity
  8
Insert
100
AcDbLine
 10
0.0
 20
20.0
 30
0.0
 11
88.75758622134929
 21
20.00000000000023
 31
0.0
  0
LINE
  5
133DA
330
133C8
100
AcDbEntity
  8
Insert
  6
HIDDEN2
100
AcDbLine
 10
-0.0000000000000568
 20
13.20000000000004
 30
0.0
 11
49.77613169260678
 21
13.19393805225434
 31
0.0
  0
LINE
  5
133DB
330
133C8
100
AcDbEntity
  8
Insert
100
AcDbLine
 10
-0.0023628325610048
 20
11.99118645398653
 30
0.0
 11
53.07179676972447
 21
12.0
 31
0.0
  0
ARC
  5
133DC
330
133C8
100
AcDbEntity
  8
Insert
100
AcDbCircle
 10
3.050077740798087
 20
2.208680563571533
 30
0.0
 40
48.0
100
AcDbArc
 50
12.00667275049853
 51
13.2299368753184
  0
ELLIPSE
  5
133DD
330
133C8
100
AcDbEntity
  8
Insert
100
AcDbEllipse
 10
72.99999999999989
 20
14.14213562373095
 30
0.0
 11
-10.0
 21
0.0
 31
0.0
210
0.0
220
0.0
230
1.0
 40
0.892766259006521
 41
0.0
 42
3.141592653589793
  0
ELLIPSE
  5
133DE
330
133C8
100
AcDbEntity
  8
Insert
100
AcDbEllipse
 10
72.99999999999994
 20
14.14213562373095
 30
0.0
 11
-10.00000000000005
 21
0.0
 31
0.0
210
0.0
220
0.0
230
1.0
 40
0.5166133873588336
 41
3.141592653589792
 42
6.283185307179586
  0
LINE
  5
133DF
330
133C8
100
AcDbEntity
  8
Insert
100
AcDbLine
 10
91.49999999999995
 20
25.0
 30
0.0
 11
88.75758622134929
 21
20.00000000000023
 31
0.0
  0
LINE
  5
133E0
330
133C8
100
AcDbEntity
  8
Insert
100
AcDbLine
 10
95.0
 20
25.0
 30
0.0
 11
91.5
 21
25.0
 31
0.0
  0
ENDBLK
  5
133E2
330
133C8
100
AcDbEntity
  8
0
100
AcDbBlockEnd
  0
BLOCK
  5
13B5E
330
13B5D
100
AcDbEntity
  8
0
100
AcDbBlockBegin
  2
A$C6D670A69
 70
     0
 10
0.0
 20
0.0
 30
0.0
  3
A$C6D670A69
  1

  0
LINE
  5
13B5F
330
13B5D
100
AcDbEntity
  8
UTB20
100
AcDbLine
 10
5.0
 20
0.0
 30
0.0
 11
10.75
 21
0.0000000000000568
 31
0.0
  0
LINE
  5
13B60
330
13B5D
100
AcDbEntity
  8
UTB20
100
AcDbLine
 10
5.0
 20
0.0
 30
0.0
 11
3.75
 21
1.399999999999977
 31
0.0
  0
LINE
  5
13B61
330
13B5D
100
AcDbEntity
  8
UTB20
100
AcDbLine
 10
0.0
 20
0.0
 30
0.0
 11
1.25
 21
1.399999999999977
 31
0.0
  0
LINE
  5
13B62
330
13B5D
100
AcDbEntity
  8
UTB20
100
AcDbLine
 10
3.75
 20
1.399999999999977
 30
0.0
 11
1.25
 21
1.399999999999977
 31
0.0
  0
ENDBLK
  5
13B63
330
13B5D
100
AcDbEntity
  8
0
100
AcDbBlockEnd
  0
BLOCK
  5
13B99
330
13B97
100
AcDbEntity
  8
0
100
AcDbBlockBegin
  2
A$C051E231E
 70
     0
 10
0.0
 20
0.0
 30
0.0
  3
A$C051E231E
  1

  0
INSERT
  5
13B98
330
13B97
100
AcDbEntity
  8
UTB20
100
AcDbBlockReference
  2
A$C6D670A69
 10
0.0
 20
0.0
 30
0.0
  0
ENDBLK
  5
13B9A
330
13B97
100
AcDbEntity
  8
0
100
AcDbBlockEnd
  0
BLOCK
  5
13BA7
330
13B9E
100
AcDbEntity
  8
0
100
AcDbBlockBegin
  2
A$C650E0C29
 70
     0
 10
0.0
 20
0.0
 30
0.0
  3
A$C650E0C29
  1

  0
INSERT
  5
13B9F
330
13B9E
100
AcDbEntity
  8
MuscleStart
100
AcDbBlockReference
  2
A$C6D670A69
 10
32.25000398655584
 20
0.0000044649423216
 30
0.0
  0
INSERT
  5
13BA0
330
13B9E
100
AcDbEntity
  8
MuscleStart
100
AcDbBlockReference
  2
A$C6D670A69
 10
0.0
 20
0.0
 30
0.0
  0
INSERT
  5
13BA1
330
13B9E
100
AcDbEntity
  8
MuscleStart
100
AcDbBlockReference
  2
A$C6D670A69
 10
21.50000199327792
 20
0.0000022324711608
 30
0.0
  0
INSERT
  5
13BA2
330
13B9E
100
AcDbEntity
  8
MuscleStart
100
AcDbBlockReference
  2
A$C6D670A69
 10
10.75
 20
0.0
 30
0.0
  0
INSERT
  5
13BA3
330
13B9E
100
AcDbEntity
  8
MuscleStart
100
AcDbBlockReference
  2
A$C6D670A69
 10
64.50000996638959
 20
0.0000111623558041
 30
0.0
  0
INSERT
  5
13BA4
330
13B9E
100
AcDbEntity
  8
MuscleStart
100
AcDbBlockReference
  2
A$C6D670A69
 10
53.75000797311168
 20
0.0000089298846433
 30
0.0
  0
INSERT
  5
13BA5
330
13B9E
100
AcDbEntity
  8
MuscleStart
100
AcDbBlockReference
  2
A$C6D670A69
 10
43.00000597983376
 20
0.0000066974134825
 30
0.0
  0
INSERT
  5
13BA6
330
13B9E
100
AcDbEntity
  8
MuscleStart
100
AcDbBlockReference
  2
A$C6D670A69
 10
75.2500099663896
 20
0.0000111623558041
 30
0.0
  0
ENDBLK
  5
13BA8
330
13B9E
100
AcDbEntity
  8
0
100
AcDbBlockEnd
  0
BLOCK
  5
13BF5
330
13BD4
100
AcDbEntity
  8
0
100
AcDbBlockBegin
  2
A$C3C7212E3
 70
     0
 10
0.0
 20
0.0
 30
0.0
  3
A$C3C7212E3
  1

  0
LINE
  5
13BD5
330
13BD4
100
AcDbEntity
  8
MuscleStart
100
AcDbLine
 10
80.2500099663896
 20
0.0000111623558041
 30
0.0
 11
86.00000996638959
 21
0.0000111623558041
 31
0.0
  0
LINE
  5
13BD6
330
13BD4
100
AcDbEntity
  8
MuscleStart
100
AcDbLine
 10
15.75
 20
0.0
 30
0.0
 11
21.5
 21
0.0
 31
0.0
  0
LINE
  5
13BD7
330
13BD4
100
AcDbEntity
  8
MuscleStart
100
AcDbLine
 10
3.75
 20
1.399999999999977
 30
0.0
 11
1.25
 21
1.399999999999977
 31
0.0
  0
LINE
  5
13BD8
330
13BD4
100
AcDbEntity
  8
MuscleStart
100
AcDbLine
 10
0.0
 20
0.0
 30
0.0
 11
1.25
 21
1.399999999999977
 31
0.0
  0
LINE
  5
13BD9
330
13BD4
100
AcDbEntity
  8
MuscleStart
100
AcDbLine
 10
5.0
 20
0.0
 30
0.0
 11
3.75
 21
1.399999999999977
 31
0.0
  0
LINE
  5
13BDA
330
13BD4
100
AcDbEntity
  8
MuscleStart
100
AcDbLine
 10
5.0
 20
0.0
 30
0.0
 11
10.75
 21
0.0
 31
0.0
  0
LINE
  5
13BDB
330
13BD4
100
AcDbEntity
  8
MuscleStart
100
AcDbLine
 10
14.5
 20
1.399999999999977
 30
0.0
 11
12.0
 21
1.399999999999977
 31
0.0
  0
LINE
  5
13BDC
330
13BD4
100
AcDbEntity
  8
MuscleStart
100
AcDbLine
 10
10.75
 20
0.0
 30
0.0
 11
12.0
 21
1.399999999999977
 31
0.0
  0
LINE
  5
13BDD
330
13BD4
100
AcDbEntity
  8
MuscleStart
100
AcDbLine
 10
15.75
 20
0.0
 30
0.0
 11
14.5
 21
1.399999999999977
 31
0.0
  0
LINE
  5
13BDE
330
13BD4
100
AcDbEntity
  8
MuscleStart
100
AcDbLine
 10
48.00000597983376
 20
0.0000066974134825
 30
0.0
 11
53.75000597983376
 21
0.0000066974134825
 31
0.0
  0
LINE
  5
13BDF
330
13BD4
100
AcDbEntity
  8
MuscleStart
100
AcDbLine
 10
36.00000398655584
 20
1.400004464942298
 30
0.0
 11
33.50000398655584
 21
1.400004464942298
 31
0.0
  0
LINE
  5
13BE0
330
13BD4
100
AcDbEntity
  8
MuscleStart
100
AcDbLine
 10
32.25000398655584
 20
0.0000044649423216
 30
0.0
 11
33.50000398655584
 21
1.400004464942298
 31
0.0
  0
LINE
  5
13BE1
330
13BD4
100
AcDbEntity
  8
MuscleStart
100
AcDbLine
 10
37.25000398655584
 20
0.0000044649423216
 30
0.0
 11
36.00000398655584
 21
1.400004464942298
 31
0.0
  0
LINE
  5
13BE2
330
13BD4
100
AcDbEntity
  8
MuscleStart
100
AcDbLine
 10
37.25000398655584
 20
0.0000044649423216
 30
0.0
 11
43.00000398655583
 21
0.0000044649423216
 31
0.0
  0
LINE
  5
13BE3
330
13BD4
100
AcDbEntity
  8
MuscleStart
100
AcDbLine
 10
25.25000199327792
 20
1.400002232471138
 30
0.0
 11
22.75000199327792
 21
1.400002232471138
 31
0.0
  0
LINE
  5
13BE4
330
13BD4
100
AcDbEntity
  8
MuscleStart
100
AcDbLine
 10
21.50000199327792
 20
0.0000022324711608
 30
0.0
 11
22.75000199327792
 21
1.400002232471138
 31
0.0
  0
LINE
  5
13BE5
330
13BD4
100
AcDbEntity
  8
MuscleStart
100
AcDbLine
 10
26.50000199327792
 20
0.0000022324711608
 30
0.0
 11
25.25000199327792
 21
1.400002232471138
 31
0.0
  0
LINE
  5
13BE6
330
13BD4
100
AcDbEntity
  8
MuscleStart
100
AcDbLine
 10
26.50000199327792
 20
0.0000022324711608
 30
0.0
 11
32.25000199327792
 21
0.0000022324711608
 31
0.0
  0
LINE
  5
13BE7
330
13BD4
100
AcDbEntity
  8
MuscleStart
100
AcDbLine
 10
46.75000597983376
 20
1.400006697413459
 30
0.0
 11
44.25000597983376
 21
1.400006697413459
 31
0.0
  0
LINE
  5
13BE8
330
13BD4
100
AcDbEntity
  8
MuscleStart
100
AcDbLine
 10
43.00000597983376
 20
0.0000066974134825
 30
0.0
 11
44.25000597983376
 21
1.400006697413459
 31
0.0
  0
LINE
  5
13BE9
330
13BD4
100
AcDbEntity
  8
MuscleStart
100
AcDbLine
 10
48.00000597983376
 20
0.0000066974134825
 30
0.0
 11
46.75000597983376
 21
1.400006697413459
 31
0.0
  0
LINE
  5
13BEA
330
13BD4
100
AcDbEntity
  8
MuscleStart
100
AcDbLine
 10
68.25000996638959
 20
1.400011162355781
 30
0.0
 11
65.75000996638959
 21
1.400011162355781
 31
0.0
  0
LINE
  5
13BEB
330
13BD4
100
AcDbEntity
  8
MuscleStart
100
AcDbLine
 10
64.50000996638959
 20
0.0000111623558041
 30
0.0
 11
65.75000996638959
 21
1.400011162355781
 31
0.0
  0
LINE
  5
13BEC
330
13BD4
100
AcDbEntity
  8
MuscleStart
100
AcDbLine
 10
69.50000996638959
 20
0.0000111623558041
 30
0.0
 11
68.25000996638959
 21
1.400011162355781
 31
0.0
  0
LINE
  5
13BED
330
13BD4
100
AcDbEntity
  8
MuscleStart
100
AcDbLine
 10
69.50000996638959
 20
0.0000111623558041
 30
0.0
 11
75.2500099663896
 21
0.0000111623558041
 31
0.0
  0
LINE
  5
13BEE
330
13BD4
100
AcDbEntity
  8
MuscleStart
100
AcDbLine
 10
57.50000797311168
 20
1.40000892988462
 30
0.0
 11
55.00000797311168
 21
1.40000892988462
 31
0.0
  0
LINE
  5
13BEF
330
13BD4
100
AcDbEntity
  8
MuscleStart
100
AcDbLine
 10
53.75000797311168
 20
0.0000089298846433
 30
0.0
 11
55.00000797311168
 21
1.40000892988462
 31
0.0
  0
LINE
  5
13BF0
330
13BD4
100
AcDbEntity
  8
MuscleStart
100
AcDbLine
 10
58.75000797311168
 20
0.0000089298846433
 30
0.0
 11
57.50000797311168
 21
1.40000892988462
 31
0.0
  0
LINE
  5
13BF1
330
13BD4
100
AcDbEntity
  8
MuscleStart
100
AcDbLine
 10
58.75000797311168
 20
0.0000089298846433
 30
0.0
 11
64.50000797311168
 21
0.0000089298846433
 31
0.0
  0
LINE
  5
13BF2
330
13BD4
100
AcDbEntity
  8
MuscleStart
100
AcDbLine
 10
79.0000099663896
 20
1.400011162355781
 30
0.0
 11
76.5000099663896
 21
1.400011162355781
 31
0.0
  0
LINE
  5
13BF3
330
13BD4
100
AcDbEntity
  8
MuscleStart
100
AcDbLine
 10
75.2500099663896
 20
0.0000111623558041
 30
0.0
 11
76.5000099663896
 21
1.400011162355781
 31
0.0
  0
LINE
  5
13BF4
330
13BD4
100
AcDbEntity
  8
MuscleStart
100
AcDbLine
 10
80.2500099663896
 20
0.0000111623558041
 30
0.0
 11
79.0000099663896
 21
1.400011162355781
 31
0.0
  0
ENDBLK
  5
13BF6
330
13BD4
100
AcDbEntity
  8
0
100
AcDbBlockEnd
  0
BLOCK
  5
13E9A
330
13E92
100
AcDbEntity
  8
0
100
AcDbBlockBegin
  2
A$C2C446AB3
 70
     0
 10
0.0
 20
0.0
 30
0.0
  3
A$C2C446AB3
  1

  0
LINE
  5
13E93
330
13E92
100
AcDbEntity
  8
BORDER_ITEM_LIST_A1
  6
Continuous
 62
     2
100
AcDbLine
 10
33.32505026495903
 20
80.44836540803828
 30
0.0
 11
33.32505026495903
 21
0.4624578898229288
 31
0.0
  0
LINE
  5
13E94
330
13E92
100
AcDbEntity
  8
BORDER_ITEM_LIST_A1
  6
Continuous
 62
     2
100
AcDbLine
 10
30.77969506920647
 20
80.44836540803828
 30
0.0
 11
30.77969506920647
 21
-0.000000893169215
 31
0.0
  0
MTEXT
  5
13E95
330
13E92
100
AcDbEntity
  8
BORDER_ITEM_LIST_A1
100
AcDbMText
 10
4.517328329271776
 20
8.617117034622083
 30
0.0
 40
5.0
 41
28.84335121835363
 46
0.0
 71
     1
 72
     5
  1
{\fArial|b1|i0|c0|p34;M24}
 73
     1
 44
1.0
  0
MTEXT
  5
13E96
330
13E92
100
AcDbEntity
  8
BORDER_ITEM_LIST_A1
100
AcDbMText
 10
4.517328329271776
 20
20.46650789486364
 30
0.0
 40
5.0
 41
28.84335121835363
 46
0.0
 71
     1
 72
     5
  1
{\fArial|b1|i0|c0|p34;M20}
 73
     1
 44
1.0
  0
MTEXT
  5
13E97
330
13E92
100
AcDbEntity
  8
BORDER_ITEM_LIST_A1
100
AcDbMText
 10
0.9448200905336534
 20
79.46675801131409
 30
0.0
 40
5.0
 41
28.84335121835363
 46
0.0
 71
     1
 72
     5
  1
{\fArial|b1|i0|c0|p34;Standard\PISO Metric Tap}
 73
     1
 44
1.0
  0
MTEXT
  5
13E98
330
13E92
100
AcDbEntity
  8
BORDER_ITEM_LIST_A1
100
AcDbMText
 10
4.517328329271776
 20
32.3158987551052
 30
0.0
 40
5.0
 41
28.84335121835363
 46
0.0
 71
     1
 72
     5
  1
{\fArial|b1|i0|c0|p34;M16}
 73
     1
 44
1.0
  0
MTEXT
  5
13E99
330
13E92
100
AcDbEntity
  8
BORDER_ITEM_LIST_A1
100
AcDbMText
 10
4.517328329271776
 20
44.16528961534658
 30
0.0
 40
5.0
 41
28.84335121835363
 46
0.0
 71
     1
 72
     5
  1
{\fArial|b1|i0|c0|p34;M12}
 73
     1
 44
1.0
  0
ENDBLK
  5
13E9B
330
13E92
100
AcDbEntity
  8
0
100
AcDbBlockEnd
  0
BLOCK
  5
15657
330
15655
100
AcDbEntity
  8
0
100
AcDbBlockBegin
  2
A$C7C5C0D6E
 70
     0
 10
0.0
 20
0.0
 30
0.0
  3
A$C7C5C0D6E
  1

  0
LINE
  5
15656
330
15655
100
AcDbEntity
  8
Construction
  6
CENTER
100
AcDbLine
 10
0.0
 20
-26.41166797946449
 30
0.0
 11
0.0
 21
26.41166797946449
 31
0.0
  0
ENDBLK
  5
15658
330
15655
100
AcDbEntity
  8
0
100
AcDbBlockEnd
  0
BLOCK
  5
1565B
330
15659
100
AcDbEntity
  8
0
100
AcDbBlockBegin
  2
A$C76E56FEB
 70
     0
 10
0.0
 20
0.0
 30
0.0
  3
A$C76E56FEB
  1

  0
LINE
  5
1565A
330
15659
100
AcDbEntity
  8
Construction
  6
CENTER
100
AcDbLine
 10
0.0
 20
-26.41166797946449
 30
0.0
 11
0.0
 21
26.41166797946449
 31
0.0
  0
ENDBLK
  5
1565C
330
15659
100
AcDbEntity
  8
0
100
AcDbBlockEnd
  0
BLOCK
  5
1565F
330
1565D
100
AcDbEntity
  8
0
100
AcDbBlockBegin
  2
A$C024639DF
 70
     0
 10
0.0
 20
0.0
 30
0.0
  3
A$C024639DF
  1

  0
LINE
  5
1565E
330
1565D
100
AcDbEntity
  8
Construction
  6
CENTER
100
AcDbLine
 10
0.0
 20
-26.41166797946449
 30
0.0
 11
0.0
 21
26.41166797946449
 31
0.0
  0
ENDBLK
  5
15660
330
1565D
100
AcDbEntity
  8
0
100
AcDbBlockEnd
  0
BLOCK
  5
156F9
330
156F1
100
AcDbEntity
  8
0
100
AcDbBlockBegin
  2
A$C406A5D29
 70
     0
 10
0.0
 20
0.0
 30
0.0
  3
A$C406A5D29
  1

  0
LINE
  5
156F2
330
156F1
100
AcDbEntity
  8
Insert
100
AcDbLine
 10
8.005873509294815
 20
10.00658855689482
 30
0.0
 11
7.952597002891707
 21
-9.993411443105287
 31
0.0
  0
LINE
  5
156F3
330
156F1
100
AcDbEntity
  8
Insert
100
AcDbLine
 10
14.00587350929481
 20
-24.99341144310518
 30
0.0
 11
14.00587350929481
 21
25.00658855689483
 31
0.0
  0
LINE
  5
156F4
330
156F1
100
AcDbEntity
  8
Insert
100
AcDbLine
 10
17.50587350929481
 20
-24.99341144310518
 30
0.0
 11
17.50587350929481
 21
25.00658855689477
 31
0.0
  0
LINE
  5
156F5
330
156F1
100
AcDbEntity
  8
Insert
100
AcDbLine
 10
14.00587350929481
 20
-24.99341144310518
 30
0.0
 11
7.952579263104325
 21
-10.00007095915004
 31
0.0
  0
LINE
  5
156F6
330
156F1
100
AcDbEntity
  8
Insert
100
AcDbLine
 10
17.50587350929481
 20
-24.99341144310518
 30
0.0
 11
14.00587350929481
 21
-24.99341144310518
 31
0.0
  0
LINE
  5
156F7
330
156F1
100
AcDbEntity
  8
Insert
100
AcDbLine
 10
14.00587350929481
 20
25.00658855689477
 30
0.0
 11
8.005873509294815
 21
10.00658855689482
 31
0.0
  0
LINE
  5
156F8
330
156F1
100
AcDbEntity
  8
Insert
100
AcDbLine
 10
17.50587350929481
 20
25.00658855689483
 30
0.0
 11
14.00587350929481
 21
25.00658855689483
 31
0.0
  0
ENDBLK
  5
156FA
330
156F1
100
AcDbEntity
  8
0
100
AcDbBlockEnd
  0
BLOCK
  5
1743E
330
1743D
100
AcDbEntity
  8
0
100
AcDbBlockBegin
  2
ANcon Contact Detail
 70
     0
 10
0.0
 20
0.0
 30
0.0
  3
ANcon Contact Detail
  1

  0
MTEXT
  5
17571
330
1743D
100
AcDbEntity
  8
ANCON-TEXT
100
AcDbMText
 10
-46.79776227536058
 20
18.31020521152732
 30
0.0
 40
40.44367786450478
 41
1063.501843112164
 46
0.0
 71
     1
 72
     5
  1
{\fArial|b0|i0|c0|p34;Leviat \PTel:  1300 304 320\PEmail: technical.au@leviat.com\PWeb: ancon.com.au / Leviat.com}
 73
     1
 44
1.0
101
Embedded Object
 70
     1
 10
1.0
 20
0.0
 30
0.0
 11
-46.79776227536058
 21
18.31020521152732
 31
0.0
 40
1063.501843112164
 41
0.0
 42
818.4465151475194
 43
244.951852495865
 71
     2
 72
     1
 44
1063.501843112164
 45
5.055459733063098
 73
     0
 74
     0
 46
0.0
  0
ENDBLK
  5
17443
330
1743D
100
AcDbEntity
  8
0
100
AcDbBlockEnd
  0
ENDSEC
  0
SECTION
  2
ENTITIES
  0
MTEXT
  5
186E
330
18
100
AcDbEntity
  8
Defpoint
100
AcDbMText
 10
-221.9280480420825
 20
367.1109073896205
 30
0.0
 40
3.5
 41
84.03029999999999
 46
0.0
 71
     1
 72
     5
  1

 73
     1
 44
1.0
  0
TEXT
  5
2E81
330
18
100
AcDbEntity
  8
BORDER_ITEM_LIST_A1
  6
Continuous
 62
     4
100
AcDbText
 10
750.028236
 20
562.947718
 30
0.0
 40
3.5
  1

 41
0.75
100
AcDbText
  0
TEXT
  5
2E82
330
18
100
AcDbEntity
  8
BORDER_ITEM_LIST_A1
  6
Continuous
 62
     4
100
AcDbText
 10
773.5282360000001
 20
562.947718
 30
0.0
 40
3.5
  1

 41
0.75
100
AcDbText
  0
MTEXT
  5
C60E
330
18
100
AcDbEntity
  8
BORDER_A1
100
AcDbMText
 10
802.5795049999999
 20
91.92826296152997
 30
0.0
 40
15.0
 41
40.0
 46
0.0
 71
     5
 72
     5
  1

 73
     1
 44
1.0
  0
LINE
  5
149C7
330
18
100
AcDbEntity
  8
Construction
  6
CENTER
100
AcDbLine
 10
276.9317217051794
 20
1033.938591767707
 30
0.0
 11
169.721812986857
 21
1033.938591767707
 31
0.0
  0
LINE
  5
149E4
330
18
100
AcDbEntity
  8
Insert
100
AcDbLine
 10
311.957952242703
 20
1047.938591767707
 30
0.0
 11
348.0629729609745
 21
1047.938591767707
 31
0.0
  0
LINE
  5
149E5
330
18
100
AcDbEntity
  8
Insert
100
AcDbLine
 10
311.9579522427029
 20
1019.938591767707
 30
0.0
 11
348.0629729609748
 21
1019.938591767707
 31
0.0
  0
CIRCLE
  5
149E6
330
18
100
AcDbEntity
  8
Insert
100
AcDbCircle
 10
227.9317217051794
 20
1033.938591767707
 30
0.0
 40
10.0
  0
LINE
  5
149EC
330
18
100
AcDbEntity
  8
Construction
  6
ACAD_ISO02W100
100
AcDbLine
 10
227.9317217051794
 20
1033.938591767707
 30
0.0
 11
276.9317217051794
 21
1033.938591767707
 31
0.0
  0
LINE
  5
149EF
330
18
100
AcDbEntity
  8
Insert
100
AcDbLine
 10
348.0629729609745
 20
1047.938591767707
 30
0.0
 11
348.0629729609748
 21
1019.938591767707
 31
0.0
  0
CIRCLE
  5
16A76
330
18
100
AcDbEntity
  8
Insert
100
AcDbCircle
 10
227.9317217051794
 20
1033.938591767707
 30
0.0
 40
14.0
  0
LINE
  5
16AF7
330
18
100
AcDbEntity
  8
Construction
  6
CENTER
100
AcDbLine
 10
227.9317217051794
 20
1008.938591767707
 30
0.0
 11
227.9317217051794
 21
1456.305650689586
 31
0.0
  0
LINE
  5
1733A
330
18
100
AcDbEntity
  8
Insert
100
AcDbLine
 10
1275.190232173592
 20
1422.670149998922
 30
0.0
 11
1317.819367294018
 21
1422.657818791578
 31
0.0
  0
LINE
  5
1733B
330
18
100
AcDbEntity
  8
Insert
100
AcDbLine
 10
1317.8194001422
 20
1422.670149998922
 30
0.0
 11
1317.766123635797
 21
1402.670149998922
 31
0.0
  0
LINE
  5
1733C
330
18
100
AcDbEntity
  8
Insert
100
AcDbLine
 10
1275.190232173592
 20
1422.670149998922
 30
0.0
 11
1275.190232173592
 21
1402.670149998922
 31
0.0
  0
LINE
  5
1733D
330
18
100
AcDbEntity
  8
Insert
100
AcDbLine
 10
1275.190232173592
 20
1402.670149998922
 30
0.0
 11
1317.766090787614
 21
1402.657818791578
 31
0.0
  0
CIRCLE
  5
1733E
330
18
100
AcDbEntity
  8
Insert
100
AcDbCircle
 10
1311.190232173592
 20
1412.670149998922
 30
0.0
 40
5.5
  0
LINE
  5
1733F
330
18
100
AcDbEntity
  8
Insert
  6
HIDDEN
100
AcDbLine
 10
1199.916406351397
 20
1407.165196638428
 30
0.0
 11
1211.53535639002
 21
1407.165196638428
 31
0.0
  0
LINE
  5
17340
330
18
100
AcDbEntity
  8
Insert
  6
HIDDEN
100
AcDbLine
 10
1199.916406351397
 20
1418.165196638428
 30
0.0
 11
1211.53535639002
 21
1418.165196638428
 31
0.0
  0
LINE
  5
17345
330
18
100
AcDbEntity
  8
Insert
100
AcDbLine
 10
1322.190232173592
 20
1395.170149998922
 30
0.0
 11
1322.190232173592
 21
1430.170149998922
 31
0.0
  0
LINE
  5
17346
330
18
100
AcDbEntity
  8
Construction
  6
CENTER
100
AcDbLine
 10
1205.725881370708
 20
1365.96549885158
 30
0.0
 11
1205.725881370708
 21
1447.06367867023
 31
0.0
  0
CIRCLE
  5
17347
330
18
100
AcDbEntity
  8
Insert
100
AcDbCircle
 10
1205.725881370708
 20
1412.665196638428
 30
0.0
 40
17.5
  0
LINE
  5
17348
330
18
100
AcDbEntity
  8
Construction
  6
ACAD_ISO02W100
100
AcDbLine
 10
1205.725881370708
 20
1412.665196638428
 30
0.0
 11
1254.725881370708
 21
1412.665196638428
 31
0.0
  0
LINE
  5
17349
330
18
100
AcDbEntity
  8
Construction
  6
CENTER
100
AcDbLine
 10
1254.725881370708
 20
1412.665196638428
 30
0.0
 11
1147.515972652386
 21
1412.665196638428
 31
0.0
  0
LINE
  5
1734A
330
18
100
AcDbEntity
  8
Insert
100
AcDbLine
 10
1322.215951866337
 20
1430.170149998922
 30
0.0
 11
1317.8194001422
 21
1422.670149998922
 31
0.0
  0
LINE
  5
1734B
330
18
100
AcDbEntity
  8
Insert
100
AcDbLine
 10
1322.190232173592
 20
1395.170149998922
 30
0.0
 11
1317.766123635797
 21
1402.670149998922
 31
0.0
  0
LINE
  5
1734C
330
18
100
AcDbEntity
  8
Insert
100
AcDbLine
 10
1322.215951866337
 20
1430.170149998922
 30
0.0
 11
1325.190232173592
 21
1430.170149998922
 31
0.0
  0
LINE
  5
1734D
330
18
100
AcDbEntity
  8
Insert
100
AcDbLine
 10
1322.190232173592
 20
1395.170149998922
 30
0.0
 11
1325.190232173592
 21
1395.170149998922
 31
0.0
  0
LINE
  5
1734E
330
18
100
AcDbEntity
  8
Insert
100
AcDbLine
 10
1325.190232173592
 20
1395.170149998922
 30
0.0
 11
1325.190232173592
 21
1430.170149998922
 31
0.0
  0
LINE
  5
1734F
330
18
100
AcDbEntity
  8
InsertDims
100
AcDbLine
 10
1300.190232173591
 20
1418.662341607668
 30
0.0
 11
1300.19023217359
 21
1406.656252039556
 31
0.0
  0
LINE
  5
17350
330
18
100
AcDbEntity
  8
Insert
100
AcDbLine
 10
1275.190232173591
 20
1406.667231704928
 30
0.0
 11
1300.19023217359
 21
1406.667105214865
 31
0.0
  0
LINE
  5
17351
330
18
100
AcDbEntity
  8
Insert
100
AcDbLine
 10
1275.190232173591
 20
1418.667231704928
 30
0.0
 11
1300.190232173591
 21
1418.651488432359
 31
0.0
  0
LINE
  5
17352
330
18
100
AcDbEntity
  8
Insert
100
AcDbLine
 10
1300.19023217359
 20
1406.667105214865
 30
0.0
 11
1300.190232173591
 21
1418.651488432359
 31
0.0
  0
LINE
  5
17353
330
18
100
AcDbEntity
  8
Insert
100
AcDbLine
 10
1300.190232173591
 20
1418.662341607668
 30
0.0
 11
1299.970201114225
 21
1419.156280005768
 31
0.0
  0
LINE
  5
17358
330
18
100
AcDbEntity
  8
Insert
100
AcDbLine
 10
1550.371479218153
 20
1422.670149998922
 30
0.0
 11
1593.000614338578
 21
1422.657818791578
 31
0.0
  0
LINE
  5
17359
330
18
100
AcDbEntity
  8
Insert
100
AcDbLine
 10
1593.00064718676
 20
1422.670149998922
 30
0.0
 11
1592.947370680357
 21
1402.670149998922
 31
0.0
  0
LINE
  5
1735A
330
18
100
AcDbEntity
  8
Insert
100
AcDbLine
 10
1550.371479218153
 20
1422.670149998922
 30
0.0
 11
1550.371479218153
 21
1402.670149998922
 31
0.0
  0
LINE
  5
1735B
330
18
100
AcDbEntity
  8
Insert
100
AcDbLine
 10
1550.371479218153
 20
1402.670149998922
 30
0.0
 11
1592.947337832174
 21
1402.657818791578
 31
0.0
  0
CIRCLE
  5
1735C
330
18
100
AcDbEntity
  8
Insert
100
AcDbCircle
 10
1586.371479218153
 20
1412.670149998922
 30
0.0
 40
5.5
  0
LINE
  5
17363
330
18
100
AcDbEntity
  8
Insert
100
AcDbLine
 10
1597.371479218153
 20
1395.170149998922
 30
0.0
 11
1597.371479218153
 21
1430.170149998922
 31
0.0
  0
LINE
  5
17364
330
18
100
AcDbEntity
  8
Construction
  6
CENTER
100
AcDbLine
 10
1480.907128415269
 20
1365.96549885158
 30
0.0
 11
1480.907128415269
 21
1447.06367867023
 31
0.0
  0
CIRCLE
  5
17365
330
18
100
AcDbEntity
  8
Insert
100
AcDbCircle
 10
1480.907128415269
 20
1412.665196638428
 30
0.0
 40
17.5
  0
LINE
  5
17366
330
18
100
AcDbEntity
  8
Construction
  6
ACAD_ISO02W100
100
AcDbLine
 10
1480.907128415269
 20
1412.665196638428
 30
0.0
 11
1529.907128415269
 21
1412.665196638428
 31
0.0
  0
LINE
  5
17367
330
18
100
AcDbEntity
  8
Construction
  6
CENTER
100
AcDbLine
 10
1529.907128415269
 20
1412.665196638428
 30
0.0
 11
1422.697219696946
 21
1412.665196638428
 31
0.0
  0
LINE
  5
17368
330
18
100
AcDbEntity
  8
Insert
100
AcDbLine
 10
1597.397198910897
 20
1430.170149998922
 30
0.0
 11
1593.00064718676
 21
1422.670149998922
 31
0.0
  0
LINE
  5
17369
330
18
100
AcDbEntity
  8
Insert
100
AcDbLine
 10
1597.371479218153
 20
1395.170149998922
 30
0.0
 11
1592.947370680357
 21
1402.670149998922
 31
0.0
  0
LINE
  5
1736A
330
18
100
AcDbEntity
  8
Insert
100
AcDbLine
 10
1597.397198910897
 20
1430.170149998922
 30
0.0
 11
1600.371479218152
 21
1430.170149998922
 31
0.0
  0
LINE
  5
1736B
330
18
100
AcDbEntity
  8
Insert
100
AcDbLine
 10
1597.371479218153
 20
1395.170149998922
 30
0.0
 11
1600.371479218152
 21
1395.170149998922
 31
0.0
  0
LINE
  5
1736C
330
18
100
AcDbEntity
  8
Insert
100
AcDbLine
 10
1600.371479218152
 20
1395.170149998922
 30
0.0
 11
1600.371479218152
 21
1430.170149998922
 31
0.0
  0
LINE
  5
1736D
330
18
100
AcDbEntity
  8
InsertDims
100
AcDbLine
 10
1575.371479218152
 20
1418.662341607668
 30
0.0
 11
1575.371479218151
 21
1406.656252039556
 31
0.0
  0
LINE
  5
1736E
330
18
100
AcDbEntity
  8
Insert
100
AcDbLine
 10
1550.371479218151
 20
1406.667231704928
 30
0.0
 11
1575.371479218151
 21
1406.667105214865
 31
0.0
  0
LINE
  5
1736F
330
18
100
AcDbEntity
  8
Insert
100
AcDbLine
 10
1550.371479218151
 20
1418.667231704928
 30
0.0
 11
1575.371479218152
 21
1418.651488432359
 31
0.0
  0
LINE
  5
17370
330
18
100
AcDbEntity
  8
Insert
100
AcDbLine
 10
1575.371479218151
 20
1406.667105214865
 30
0.0
 11
1575.371479218152
 21
1418.651488432359
 31
0.0
  0
LINE
  5
17371
330
18
100
AcDbEntity
  8
Insert
100
AcDbLine
 10
1575.371479218152
 20
1418.662341607668
 30
0.0
 11
1575.151448158785
 21
1419.156280005768
 31
0.0
  0
CIRCLE
  5
17384
330
18
100
AcDbEntity
  8
Insert
100
AcDbCircle
 10
1205.725881370708
 20
1412.665196638428
 30
0.0
 40
8.0
  0
LINE
  5
17396
330
18
100
AcDbEntity
  8
Insert
  6
HIDDEN
100
AcDbLine
 10
1475.097653395958
 20
1407.165196638428
 30
0.0
 11
1486.71660343458
 21
1407.165196638428
 31
0.0
  0
LINE
  5
17397
330
18
100
AcDbEntity
  8
Insert
  6
HIDDEN
100
AcDbLine
 10
1475.097653395957
 20
1418.165196638428
 30
0.0
 11
1486.71660343458
 21
1418.165196638428
 31
0.0
  0
CIRCLE
  5
17398
330
18
100
AcDbEntity
  8
Insert
100
AcDbCircle
 10
1480.907128415269
 20
1412.665196638428
 30
0.0
 40
8.0
  0
CIRCLE
  5
1739B
330
18
100
AcDbEntity
  8
Insert
100
AcDbCircle
 10
1205.725881370708
 20
1412.665196638428
 30
0.0
 40
5.5
  0
LINE
  5
1739C
330
18
100
AcDbEntity
  8
Construction
  6
CENTER
100
AcDbLine
 10
1529.907128415269
 20
1412.665196638428
 30
0.0
 11
1422.697219696946
 21
1412.665196638428
 31
0.0
  0
CIRCLE
  5
1739D
330
18
100
AcDbEntity
  8
Insert
100
AcDbCircle
 10
1480.907128415269
 20
1412.665196638428
 30
0.0
 40
5.5
  0
INSERT
  5
17447
330
18
100
AcDbEntity
  8
InsertDims
100
AcDbBlockReference
  2
ANcon Contact Detail
 10
1699.999430034916
 20
1366.178200856768
 30
0.0
 41
0.1663886238274912
 42
0.1663886238274912
 43
16.63886238274911
  0
INSERT
  5
1744C
330
18
100
AcDbEntity
  8
InsertDims
100
AcDbBlockReference
  2
ANcon Contact Detail
 10
442.191250550019
 20
956.5762299541288
 30
0.0
 41
0.1663886238274912
 42
0.1663886238274912
 43
16.63886238274911
  0
LWPOLYLINE
  5
1748F
330
18
100
AcDbEntity
  8
Insert
100
AcDbPolyline
 90
        6
 70
     1
 43
0.0
 10
249.5823567997904
 20
1046.438591767707
 10
227.9317217051794
 20
1058.938591767707
 10
206.2810866105683
 20
1046.438591767707
 10
206.2810866105683
 20
1021.438591767707
 10
227.9317217051794
 20
1008.938591767707
 10
249.5823567997904
 20
1021.438591767707
  0
CIRCLE
  5
174EA
330
18
100
AcDbEntity
  8
Insert
100
AcDbCircle
 10
227.9317217051794
 20
1033.938591767707
 30
0.0
 40
14.0
  0
LINE
  5
174EB
330
18
100
AcDbEntity
  8
InsertDims
100
AcDbLine
 10
227.9317217051794
 20
1033.938591767707
 30
0.0
 11
227.9317217051794
 21
1054.082384392454
 31
0.0
  0
LINE
  5
174EC
330
18
100
AcDbEntity
  8
InsertDims
100
AcDbLine
 10
227.9317217051794
 20
1054.082384392454
 30
0.0
 11
227.9317217051794
 21
1014.36661773664
 31
0.0
  0
LINE
  5
174EF
330
18
100
AcDbEntity
  8
Insert
100
AcDbLine
 10
356.957952242703
 20
1008.938591767707
 30
0.0
 11
353.4929522427029
 21
1008.938591767707
 31
0.0
  0
LINE
  5
174F0
330
18
100
AcDbEntity
  8
Insert
100
AcDbLine
 10
353.4929522427029
 20
1008.938591767707
 30
0.0
 11
348.0629729609748
 21
1019.938591767707
 31
0.0
  0
LINE
  5
174F1
330
18
100
AcDbEntity
  8
Insert
100
AcDbLine
 10
353.4929522427029
 20
1033.441091767707
 30
0.0
 11
353.4929522427029
 21
1008.938591767707
 31
0.0
  0
LINE
  5
174F2
330
18
100
AcDbEntity
  8
Insert
100
AcDbLine
 10
356.957952242703
 20
1033.441091767707
 30
0.0
 11
356.957952242703
 21
1008.938591767707
 31
0.0
  0
LINE
  5
174F3
330
18
100
AcDbEntity
  8
Insert
100
AcDbLine
 10
353.4929522427029
 20
1058.438591767707
 30
0.0
 11
348.0629729609745
 21
1047.938591767707
 31
0.0
  0
LINE
  5
174F4
330
18
100
AcDbEntity
  8
Insert
100
AcDbLine
 10
356.957952242703
 20
1058.438591767707
 30
0.0
 11
353.4929522427029
 21
1058.438591767707
 31
0.0
  0
LINE
  5
174F5
330
18
100
AcDbEntity
  8
Insert
100
AcDbLine
 10
353.4929522427029
 20
1033.936091767707
 30
0.0
 11
353.4929522427029
 21
1058.438591767707
 31
0.0
  0
LINE
  5
174F6
330
18
100
AcDbEntity
  8
Insert
100
AcDbLine
 10
356.957952242703
 20
1033.936091767707
 30
0.0
 11
356.957952242703
 21
1058.438591767707
 31
0.0
  0
LINE
  5
174FA
330
18
100
AcDbEntity
  8
Insert
100
AcDbLine
 10
311.9579522427029
 20
1023.938591767707
 30
0.0
 11
348.0629729609748
 21
1023.938591767707
 31
0.0
  0
LINE
  5
174FB
330
18
100
AcDbEntity
  8
Insert
100
AcDbLine
 10
311.9579522427029
 20
1043.938591767707
 30
0.0
 11
348.0629729609748
 21
1043.938591767707
 31
0.0
  0
LINE
  5
174FC
330
18
100
AcDbEntity
  8
Insert
100
AcDbLine
 10
311.9579522427029
 20
1047.938591767707
 30
0.0
 11
311.9579522427029
 21
1019.938591767707
 31
0.0
  0
LINE
  5
174FF
330
18
100
AcDbEntity
  8
Construction
  6
CENTER
100
AcDbLine
 10
276.9317217051794
 20
1236.320066701553
 30
0.0
 11
169.721812986857
 21
1236.320066701553
 31
0.0
  0
LINE
  5
17500
330
18
100
AcDbEntity
  8
Insert
100
AcDbLine
 10
311.957952242703
 20
1250.320066701553
 30
0.0
 11
348.0629729609745
 21
1250.320066701554
 31
0.0
  0
LINE
  5
17501
330
18
100
AcDbEntity
  8
Insert
100
AcDbLine
 10
311.9579522427029
 20
1222.320066701553
 30
0.0
 11
348.0629729609748
 21
1222.320066701554
 31
0.0
  0
LINE
  5
17503
330
18
100
AcDbEntity
  8
Construction
  6
ACAD_ISO02W100
100
AcDbLine
 10
227.9317217051794
 20
1236.320066701553
 30
0.0
 11
276.9317217051794
 21
1236.320066701553
 31
0.0
  0
LINE
  5
17504
330
18
100
AcDbEntity
  8
Insert
100
AcDbLine
 10
356.957952242703
 20
1211.320066701553
 30
0.0
 11
353.4929522427029
 21
1211.320066701553
 31
0.0
  0
LINE
  5
17505
330
18
100
AcDbEntity
  8
Insert
100
AcDbLine
 10
353.4929522427029
 20
1211.320066701553
 30
0.0
 11
348.0629729609748
 21
1222.320066701553
 31
0.0
  0
LINE
  5
17506
330
18
100
AcDbEntity
  8
Insert
100
AcDbLine
 10
353.4929522427029
 20
1235.822566701553
 30
0.0
 11
353.4929522427029
 21
1211.320066701553
 31
0.0
  0
LINE
  5
17507
330
18
100
AcDbEntity
  8
Insert
100
AcDbLine
 10
356.957952242703
 20
1235.822566701553
 30
0.0
 11
356.957952242703
 21
1211.320066701553
 31
0.0
  0
LINE
  5
17508
330
18
100
AcDbEntity
  8
Insert
100
AcDbLine
 10
353.4929522427029
 20
1260.820066701553
 30
0.0
 11
348.0629729609745
 21
1250.320066701553
 31
0.0
  0
LINE
  5
17509
330
18
100
AcDbEntity
  8
Insert
100
AcDbLine
 10
356.957952242703
 20
1260.820066701553
 30
0.0
 11
353.4929522427029
 21
1260.820066701553
 31
0.0
  0
LINE
  5
1750A
330
18
100
AcDbEntity
  8
Insert
100
AcDbLine
 10
353.4929522427029
 20
1236.317566701553
 30
0.0
 11
353.4929522427029
 21
1260.820066701553
 31
0.0
  0
LINE
  5
1750B
330
18
100
AcDbEntity
  8
Insert
100
AcDbLine
 10
356.957952242703
 20
1236.317566701553
 30
0.0
 11
356.957952242703
 21
1260.820066701553
 31
0.0
  0
LINE
  5
1750C
330
18
100
AcDbEntity
  8
Insert
100
AcDbLine
 10
348.0629729609745
 20
1250.320066701553
 30
0.0
 11
348.0629729609748
 21
1222.320066701553
 31
0.0
  0
CIRCLE
  5
1750D
330
18
100
AcDbEntity
  8
Insert
100
AcDbCircle
 10
227.9317217051794
 20
1236.320066701553
 30
0.0
 40
14.0
  0
LWPOLYLINE
  5
1750E
330
18
100
AcDbEntity
  8
Insert
100
AcDbPolyline
 90
        6
 70
     1
 43
0.0
 10
249.5823567997904
 20
1248.820066701553
 10
227.9317217051794
 20
1261.320066701553
 10
206.2810866105683
 20
1248.820066701553
 10
206.2810866105683
 20
1223.820066701553
 10
227.9317217051794
 20
1211.320066701553
 10
249.5823567997904
 20
1223.820066701553
  0
CIRCLE
  5
1750F
330
18
100
AcDbEntity
  8
Insert
100
AcDbCircle
 10
227.9317217051794
 20
1236.320066701553
 30
0.0
 40
14.0
  0
LINE
  5
17510
330
18
100
AcDbEntity
  8
InsertDims
100
AcDbLine
 10
227.9317217051794
 20
1236.320066701553
 30
0.0
 11
227.9317217051794
 21
1256.463859326301
 31
0.0
  0
LINE
  5
17511
330
18
100
AcDbEntity
  8
InsertDims
100
AcDbLine
 10
227.9317217051794
 20
1256.463859326301
 30
0.0
 11
227.9317217051794
 21
1216.748092670487
 31
0.0
  0
LINE
  5
17513
330
18
100
AcDbEntity
  8
Insert
100
AcDbLine
 10
311.9579522427029
 20
1228.320066701553
 30
0.0
 11
348.0629729609748
 21
1228.320066701553
 31
0.0
  0
LINE
  5
17514
330
18
100
AcDbEntity
  8
Insert
100
AcDbLine
 10
311.9579522427029
 20
1244.320066701553
 30
0.0
 11
348.0629729609748
 21
1244.320066701553
 31
0.0
  0
LINE
  5
17515
330
18
100
AcDbEntity
  8
Insert
100
AcDbLine
 10
311.9579522427029
 20
1250.320066701554
 30
0.0
 11
311.9579522427029
 21
1222.320066701554
 31
0.0
  0
LINE
  5
17516
330
18
100
AcDbEntity
  8
Construction
  6
CENTER
100
AcDbLine
 10
276.9317217051794
 20
1426.133384715569
 30
0.0
 11
169.721812986857
 21
1426.133384715569
 31
0.0
  0
LINE
  5
17517
330
18
100
AcDbEntity
  8
Insert
100
AcDbLine
 10
311.957952242703
 20
1440.133384715569
 30
0.0
 11
348.0629729609745
 21
1440.133384715569
 31
0.0
  0
LINE
  5
17518
330
18
100
AcDbEntity
  8
Insert
100
AcDbLine
 10
311.9579522427029
 20
1412.133384715569
 30
0.0
 11
348.0629729609748
 21
1412.133384715569
 31
0.0
  0
LINE
  5
1751A
330
18
100
AcDbEntity
  8
Construction
  6
ACAD_ISO02W100
100
AcDbLine
 10
227.9317217051794
 20
1426.133384715569
 30
0.0
 11
276.9317217051794
 21
1426.133384715569
 31
0.0
  0
LINE
  5
1751B
330
18
100
AcDbEntity
  8
Insert
100
AcDbLine
 10
356.957952242703
 20
1401.133384715569
 30
0.0
 11
353.4929522427029
 21
1401.133384715569
 31
0.0
  0
LINE
  5
1751C
330
18
100
AcDbEntity
  8
Insert
100
AcDbLine
 10
353.4929522427029
 20
1401.133384715569
 30
0.0
 11
348.0629729609748
 21
1412.133384715569
 31
0.0
  0
LINE
  5
1751D
330
18
100
AcDbEntity
  8
Insert
100
AcDbLine
 10
353.4929522427029
 20
1425.635884715569
 30
0.0
 11
353.4929522427029
 21
1401.133384715569
 31
0.0
  0
LINE
  5
1751E
330
18
100
AcDbEntity
  8
Insert
100
AcDbLine
 10
356.957952242703
 20
1425.635884715569
 30
0.0
 11
356.957952242703
 21
1401.133384715569
 31
0.0
  0
LINE
  5
1751F
330
18
100
AcDbEntity
  8
Insert
100
AcDbLine
 10
353.4929522427029
 20
1450.633384715569
 30
0.0
 11
348.0629729609745
 21
1440.133384715569
 31
0.0
  0
LINE
  5
17520
330
18
100
AcDbEntity
  8
Insert
100
AcDbLine
 10
356.957952242703
 20
1450.633384715569
 30
0.0
 11
353.4929522427029
 21
1450.633384715569
 31
0.0
  0
LINE
  5
17521
330
18
100
AcDbEntity
  8
Insert
100
AcDbLine
 10
353.4929522427029
 20
1426.130884715569
 30
0.0
 11
353.4929522427029
 21
1450.633384715569
 31
0.0
  0
LINE
  5
17522
330
18
100
AcDbEntity
  8
Insert
100
AcDbLine
 10
356.957952242703
 20
1426.130884715569
 30
0.0
 11
356.957952242703
 21
1450.633384715569
 31
0.0
  0
LINE
  5
17523
330
18
100
AcDbEntity
  8
Insert
100
AcDbLine
 10
348.0629729609745
 20
1440.133384715569
 30
0.0
 11
348.0629729609748
 21
1412.133384715569
 31
0.0
  0
CIRCLE
  5
17524
330
18
100
AcDbEntity
  8
Insert
100
AcDbCircle
 10
227.9317217051794
 20
1426.133384715569
 30
0.0
 40
14.0
  0
LWPOLYLINE
  5
17525
330
18
100
AcDbEntity
  8
Insert
100
AcDbPolyline
 90
        6
 70
     1
 43
0.0
 10
249.5823567997904
 20
1438.633384715569
 10
227.9317217051794
 20
1451.133384715569
 10
206.2810866105683
 20
1438.633384715569
 10
206.2810866105683
 20
1413.633384715569
 10
227.9317217051794
 20
1401.133384715569
 10
249.5823567997904
 20
1413.633384715569
  0
CIRCLE
  5
17526
330
18
100
AcDbEntity
  8
Insert
100
AcDbCircle
 10
227.9317217051794
 20
1426.133384715569
 30
0.0
 40
14.0
  0
LINE
  5
17527
330
18
100
AcDbEntity
  8
InsertDims
100
AcDbLine
 10
227.9317217051794
 20
1426.133384715569
 30
0.0
 11
227.9317217051794
 21
1446.277177340316
 31
0.0
  0
LINE
  5
17528
330
18
100
AcDbEntity
  8
InsertDims
100
AcDbLine
 10
227.9317217051794
 20
1446.277177340316
 30
0.0
 11
227.9317217051794
 21
1406.561410684502
 31
0.0
  0
LINE
  5
1752A
330
18
100
AcDbEntity
  8
Insert
100
AcDbLine
 10
311.9579522427029
 20
1420.133384715569
 30
0.0
 11
348.0629729609748
 21
1420.133384715569
 31
0.0
  0
LINE
  5
1752B
330
18
100
AcDbEntity
  8
Insert
100
AcDbLine
 10
311.9579522427029
 20
1432.133384715569
 30
0.0
 11
348.0629729609748
 21
1432.133384715569
 31
0.0
  0
LINE
  5
1752C
330
18
100
AcDbEntity
  8
Insert
100
AcDbLine
 10
311.9579522427029
 20
1440.133384715569
 30
0.0
 11
311.9579522427029
 21
1412.133384715569
 31
0.0
  0
CIRCLE
  5
1752D
330
18
100
AcDbEntity
  8
Insert
100
AcDbCircle
 10
227.9317217051794
 20
1236.320066701553
 30
0.0
 40
8.0
  0
CIRCLE
  5
17536
330
18
100
AcDbEntity
  8
Insert
100
AcDbCircle
 10
227.9317217051794
 20
1426.133384715569
 30
0.0
 40
6.0
  0
INSERT
  5
17539
330
18
100
AcDbEntity
  8
InsertDims
100
AcDbBlockReference
  2
ANcon Contact Detail
 10
442.191250550019
 20
1170.478315411463
 30
0.0
 41
0.1663886238274912
 42
0.1663886238274912
 43
16.63886238274911
  0
INSERT
  5
1753C
330
18
100
AcDbEntity
  8
InsertDims
100
AcDbBlockReference
  2
ANcon Contact Detail
 10
441.9962622954267
 20
1365.83223591569
 30
0.0
 41
0.1663886238274912
 42
0.1663886238274912
 43
16.63886238274911
  0
LWPOLYLINE
  5
17590
330
18
100
AcDbEntity
  8
Dimensions Table
100
AcDbPolyline
 90
        4
 70
     1
 43
0.0
 10
123.9488859664416
 20
1481.531921848769
 10
584.454045961309
 20
1481.531921848769
 10
584.454045961309
 20
1319.06513609374
 10
123.9488859664416
 20
1319.06513609374
  0
LWPOLYLINE
  5
17591
330
18
100
AcDbEntity
  8
Dimensions Table
100
AcDbPolyline
 90
        4
 70
     1
 43
0.0
 10
123.9488859664416
 20
1284.465725975634
 10
584.454045961309
 20
1284.465725975634
 10
584.454045961309
 20
1121.998940220606
 10
123.9488859664416
 20
1121.998940220606
  0
LWPOLYLINE
  5
17592
330
18
100
AcDbEntity
  8
Dimensions Table
100
AcDbPolyline
 90
        4
 70
     1
 43
0.0
 10
123.9488859664416
 20
1078.373595111778
 10
584.454045961309
 20
1078.373595111778
 10
584.454045961309
 20
915.9068093567498
 10
123.9488859664416
 20
915.9068093567498
  0
LWPOLYLINE
  5
17593
330
18
100
AcDbEntity
  8
Dimensions Table
100
AcDbPolyline
 90
        4
 70
     1
 43
0.0
 10
1134.148930349293
 20
1481.531921848769
 10
1855.607019973438
 20
1481.531921848769
 10
1855.607019973438
 20
1319.06513609374
 10
1134.148930349293
 20
1319.06513609374
  0
MTEXT
  5
1759D
330
18
100
AcDbEntity
  8
InsertDims
100
AcDbMText
 10
222.9083544042069
 20
1392.149309643203
 30
0.0
 40
5.0
 41
228.6511412453456
 46
0.0
 71
     1
 72
     5
  1
{\fArial|b0|i0|c0|p34;Short QwikFoot Ferrule M12x45\P15mm Crosshole\P\PProduct Ordering Codes:  \PHot Dip Galvanised 50 micron:  FF1245G }
 73
     1
 44
1.0
  0
MTEXT
  5
1759E
330
18
100
AcDbEntity
  8
InsertDims
100
AcDbMText
 10
1204.283111029707
 20
1363.937809922509
 30
0.0
 40
5.0
 41
228.6511412453456
 46
0.0
 71
     1
 72
     5
  1
{\fArial|b0|i0|c0|p34;QwikFoot Ferrule M10x50 \Pwith 35mm foot &11mm Crosshole\P\PProduct Ordering Codes:  \PZinc Plated Gold Passivated:  FF1050ZH }
 73
     1
 44
1.0
  0
MTEXT
  5
1759F
330
18
100
AcDbEntity
  8
InsertDims
100
AcDbMText
 10
1478.054874801762
 20
1365.802210966182
 30
0.0
 40
5.0
 41
228.6511412453456
 46
0.0
 71
     1
 72
     5
  1
{\fArial|b0|i0|c0|p34;QwikFoot Ferrule M10x50 \Pwith 35mm foot &11mm Crosshole\P\PProduct Ordering Codes:  \PHot Dip Galvanised 50 micron:  FF1050G }
 73
     1
 44
1.0
  0
MTEXT
  5
175A0
330
18
100
AcDbEntity
  8
InsertDims
100
AcDbMText
 10
222.9083544042069
 20
1204.801396198646
 30
0.0
 40
5.0
 41
228.6511412453456
 46
0.0
 71
     1
 72
     5
  1
{\fArial|b0|i0|c0|p34;Short QwikFoot Ferrule M16x45\P15mm Crosshole\P\PProduct Ordering Codes:  \PHot Dip Galvanised 50 micron:  FF1645G }
 73
     1
 44
1.0
  0
MTEXT
  5
175A1
330
18
100
AcDbEntity
  8
InsertDims
100
AcDbMText
 10
222.9083544042069
 20
1000.885405954482
 30
0.0
 40
5.0
 41
228.6511412453456
 46
0.0
 71
     1
 72
     5
  1
{\fArial|b0|i0|c0|p34;Short QwikFoot Ferrule M20x45\P15mm Crosshole\P\PProduct Ordering Codes:  \PHot Dip Galvanised 50 micron:  FF2045G }
 73
     1
 44
1.0
  0
VIEWPORT
  5
17421
102
{ACAD_XDICTIONARY
360
17422
102
}
330
1741A
100
AcDbEntity
 67
     1
  8
0
100
AcDbViewport
 10
181.3825095593122
 20
168.744131202568
 30
0.0
 40
1083.224821910203
 41
541.6124109551016
 68
     2
 69
     1
 12
181.3825095593122
 22
168.744131202568
 13
0.0
 23
0.0
 14
10.0
 24
10.0
 15
10.0
 25
10.0
 16
0.0
 26
0.0
 36
1.0
 17
0.0
 27
0.0
 37
0.0
 42
50.0
 43
0.0
 44
0.0
 45
541.6124109551016
 50
0.0
 51
0.0
 72
   100
 90
   557088
  1

281
     0
 71
     1
 74
     0
110
0.0
120
0.0
130
0.0
111
1.0
121
0.0
131
0.0
112
0.0
122
1.0
132
0.0
 79
     0
146
0.0
170
     0
 61
     5
348
15818
292
     1
282
     1
141
0.0
142
0.0
 63
   250
421
  3355443
  0
VIEWPORT
  5
17425
102
{ACAD_XDICTIONARY
360
17426
102
}
330
1741A
100
AcDbEntity
 67
     1
  8
InsertDims
100
AcDbViewport
 10
212.7250152826309
 20
136.5250030755996
 30
0.0
 40
340.3600244522095
 41
218.4400049209595
 68
     1
 69
     2
 12
1617.50942280534
 22
918.700091478183
 13
0.0
 23
0.0
 14
10.0
 24
10.0
 15
10.0
 25
10.0
 16
0.0
 26
0.0
 36
1.0
 17
0.0
 27
0.0
 37
0.0
 42
50.0
 43
0.0
 44
0.0
 45
2913.241422993581
 50
0.0
 51
0.0
 72
   100
 90
   819232
  1

281
     0
 71
     1
 74
     0
110
0.0
120
0.0
130
0.0
111
1.0
121
0.0
131
0.0
112
0.0
122
1.0
132
0.0
 79
     0
146
0.0
170
     0
 61
     5
348
15818
292
     1
282
     1
141
0.0
142
0.0
 63
   250
421
  3355443
  0
ENDSEC
  0
SECTION
  2
OBJECTS
  0
DICTIONARY
  5
C
330
0
100
AcDbDictionary
281
     1
  3
ACAD_CIP_PREVIOUS_PRODUCT_INFO
350
169C5
  3
ACAD_COLOR
350
D64E
  3
ACAD_DETAILVIEWSTYLE
350
169B7
  3
ACAD_GROUP
350
D
  3
ACAD_LAYOUT
350
26A7
  3
ACAD_MATERIAL
350
D64D
  3
ACAD_MLEADERSTYLE
350
169B3
  3
ACAD_MLINESTYLE
350
1B
  3
ACAD_PLOTSETTINGS
350
26A8
  3
ACAD_PLOTSTYLENAME
350
26A5
  3
ACAD_SCALELIST
350
169A1
  3
ACAD_SECTIONVIEWSTYLE
350
169B5
  3
ACAD_TABLESTYLE
350
15823
  3
ACAD_VISUALSTYLE
350
15812
  3
ACDB_RECOMPOSE_DATA
350
175A4
  3
ACDBVARIABLEDICTIONARY
350
1633
  3
ASE_INDEX_DICTIONARY
350
D4ED
  0
DICTIONARY
  5
12626
330
2
100
AcDbDictionary
280
     1
281
     1
  3
ACAD_LAYERFILTERS
360
16289
  3
ACAD_LAYERSTATES
360
12627
  3
ACLYDICTIONARY
360
16288
  0
DICTIONARY
  5
17458
330
E
100
AcDbDictionary
280
     1
281
     1
  3
ADSK_XREC_LAYER_RECONCILED
360
17459
  0
DICTIONARY
  5
1745A
330
1600
100
AcDbDictionary
280
     1
281
     1
  3
ADSK_XREC_LAYER_RECONCILED
360
1745B
  0
DICTIONARY
  5
1745C
330
2D49
100
AcDbDictionary
280
     1
281
     1
  3
ADSK_XREC_LAYER_RECONCILED
360
1745D
  0
DICTIONARY
  5
1745E
330
2D4A
100
AcDbDictionary
280
     1
281
     1
  3
ADSK_XREC_LAYER_RECONCILED
360
1745F
  0
DICTIONARY
  5
17460
330
2D4B
100
AcDbDictionary
280
     1
281
     1
  3
ADSK_XREC_LAYER_RECONCILED
360
17461
  0
DICTIONARY
  5
17462
330
D7C2
100
AcDbDictionary
280
     1
281
     1
  3
ADSK_XREC_LAYER_RECONCILED
360
17463
  0
DICTIONARY
  5
17464
330
D7C3
100
AcDbDictionary
280
     1
281
     1
  3
ADSK_XREC_LAYER_RECONCILED
360
17465
  0
DICTIONARY
  5
17466
330
D806
100
AcDbDictionary
280
     1
281
     1
  3
ADSK_XREC_LAYER_RECONCILED
360
17467
  0
DICTIONARY
  5
17468
330
13B64
100
AcDbDictionary
280
     1
281
     1
  3
ADSK_XREC_LAYER_RECONCILED
360
17469
  0
DICTIONARY
  5
1746A
330
13B65
100
AcDbDictionary
280
     1
281
     1
  3
ADSK_XREC_LAYER_RECONCILED
360
1746B
  0
DICTIONARY
  5
1746C
330
13B9C
100
AcDbDictionary
280
     1
281
     1
  3
ADSK_XREC_LAYER_RECONCILED
360
1746D
  0
DICTIONARY
  5
1746E
330
13C06
100
AcDbDictionary
280
     1
281
     1
  3
ADSK_XREC_LAYER_RECONCILED
360
1746F
  0
DICTIONARY
  5
17470
330
13EED
100
AcDbDictionary
280
     1
281
     1
  3
ADSK_XREC_LAYER_RECONCILED
360
17471
  0
DICTIONARY
  5
16089
330
16088
100
AcDbDictionary
280
     1
281
     1
  3
ADSK_XREC_LAYER_RECONCILED
360
1608A
  0
DICTIONARY
  5
17441
330
17440
100
AcDbDictionary
280
     1
281
     1
  3
ADSK_XREC_LAYER_RECONCILED
360
17442
  0
DICTIONARY
  5
16BD7
330
18
100
AcDbDictionary
280
     1
281
     1
  3
ACAD_SORTENTS
360
16BD8
  0
DICTIONARY
  5
17573
330
1743D
100
AcDbDictionary
280
     1
281
     1
  0
DICTIONARY
  5
17422
330
17421
100
AcDbDictionary
280
     1
281
     1
  3
ASDK_XREC_ANNOTATION_SCALE_INFO
360
17423
  0
DICTIONARY
  5
17426
330
17425
100
AcDbDictionary
280
     1
281
     1
  3
ASDK_XREC_ANNOTATION_SCALE_INFO
360
17427
  0
XRECORD
  5
169C5
102
{ACAD_REACTORS
330
C
102
}
330
C
100
AcDbXrecord
280
     1
300
ACDLT
300
2020
300

  0
DICTIONARY
  5
D64E
102
{ACAD_REACTORS
330
C
102
}
330
C
100
AcDbDictionary
281
     1
  0
DICTIONARY
  5
169B7
102
{ACAD_REACTORS
330
C
102
}
330
C
100
AcDbDictionary
281
     1
  3
Metric50
350
169B8
  0
DICTIONARY
  5
D
102
{ACAD_REACTORS
330
C
102
}
330
C
100
AcDbDictionary
281
     1
  0
DICTIONARY
  5
26A7
102
{ACAD_REACTORS
330
C
102
}
330
C
100
AcDbDictionary
281
     1
  3
Layout1
350
1741B
  3
Model
350
26A9
  0
DICTIONARY
  5
D64D
102
{ACAD_REACTORS
330
C
102
}
330
C
100
AcDbDictionary
281
     1
  3
ByBlock
350
15811
  3
ByLayer
350
15810
  3
Global
350
12623
  0
DICTIONARY
  5
169B3
102
{ACAD_REACTORS
330
C
102
}
330
C
100
AcDbDictionary
281
     1
  3
Standard
350
169B4
  0
DICTIONARY
  5
1B
102
{ACAD_REACTORS
330
C
102
}
330
C
100
AcDbDictionary
281
     1
  3
STANDARD
350
1C
  0
DICTIONARY
  5
26A8
102
{ACAD_REACTORS
330
C
102
}
330
C
100
AcDbDictionary
281
     1
  0
ACDBDICTIONARYWDFLT
  5
26A5
102
{ACAD_REACTORS
330
C
102
}
330
C
100
AcDbDictionary
281
     1
  3
Normal
350
26A6
100
AcDbDictionaryWithDefault
340
26A6
  0
DICTIONARY
  5
169A1
102
{ACAD_REACTORS
330
C
102
}
330
C
100
AcDbDictionary
281
     1
  3
A0
350
169A2
  3
A1
350
169A3
  3
A2
350
169A4
  3
A3
350
169A5
  3
A4
350
169A6
  3
A5
350
169A7
  3
A6
350
169A8
  3
A7
350
169A9
  3
A8
350
169AA
  3
A9
350
169AB
  3
B0
350
169AC
  3
B1
350
169AD
  3
B2
350
169AE
  3
B3
350
169AF
  3
B4
350
169B0
  3
B5
350
169B1
  3
B6
350
169B2
  0
DICTIONARY
  5
169B5
102
{ACAD_REACTORS
330
C
102
}
330
C
100
AcDbDictionary
281
     1
  3
Metric50
350
169B6
  0
DICTIONARY
  5
15823
102
{ACAD_REACTORS
330
C
102
}
330
C
100
AcDbDictionary
281
     1
  3
Standard
350
15824
  0
DICTIONARY
  5
15812
102
{ACAD_REACTORS
330
C
102
}
330
C
100
AcDbDictionary
281
     1
  3
2dWireframe
350
15818
  3
3D Hidden
350
1581A
  3
3dWireframe
350
15819
  3
Basic
350
15817
  3
Brighten
350
1581E
  3
ColorChange
350
15822
  3
Conceptual
350
1581B
  3
Dim
350
1581D
  3
EdgeColorOff
350
169A0
  3
Facepattern
350
15821
  3
Flat
350
15813
  3
FlatWithEdges
350
15814
  3
Gouraud
350
15815
  3
GouraudWithEdges
350
15816
  3
Hidden
350
16998
  3
JitterOff
350
1699E
  3
Linepattern
350
15820
  3
OverhangOff
350
1699F
  3
Realistic
350
1581C
  3
Shaded
350
1699D
  3
Shaded with edges
350
1699C
  3
Shades of Gray
350
16999
  3
Sketchy
350
1699A
  3
Thicken
350
1581F
  3
Wireframe
350
16997
  3
X-Ray
350
1699B
  0
XRECORD
  5
175A4
102
{ACAD_REACTORS
330
C
102
}
330
C
100
AcDbXrecord
280
     1
 90
        1
330
15824
  0
DICTIONARY
  5
1633
102
{ACAD_REACTORS
330
C
102
}
330
C
100
AcDbDictionary
281
     1
  3
CANNOSCALE
350
1755F
  3
CMLEADERSTYLE
350
1755B
  3
CTABLESTYLE
350
15FDD
  3
CVIEWDETAILSTYLE
350
1755C
  3
CVIEWSECTIONSTYLE
350
1755D
  3
DIMASSOC
350
B5DA
  3
LAYEREVAL
350
17561
  3
LAYERNOTIFY
350
17562
  3
LIGHTINGUNITS
350
17560
  3
MSLTSCALE
350
1755E
  3
SORTENTS
350
1634
  0
DICTIONARY
  5
D4ED
102
{ACAD_REACTORS
330
C
102
}
330
C
100
AcDbDictionary
281
     1
  3
ASEBlockHierarchyIndexRecord
350
D4EF
1001
DCO15
1040
1553252747.725
  0
DICTIONARY
  5
16289
102
{ACAD_REACTORS
330
12626
102
}
330
12626
100
AcDbDictionary
281
     1
  0
DICTIONARY
  5
12627
102
{ACAD_REACTORS
330
12626
102
}
330
12626
100
AcDbDictionary
281
     1
  0
DICTIONARY
  5
16288
102
{ACAD_REACTORS
330
12626
102
}
330
12626
100
AcDbDictionary
281
     1
1001
ACAD
1000
<All
  0
XRECORD
  5
17459
102
{ACAD_REACTORS
330
17458
102
}
330
17458
100
AcDbXrecord
280
     1
290
     1
  0
XRECORD
  5
1745B
102
{ACAD_REACTORS
330
1745A
102
}
330
1745A
100
AcDbXrecord
280
     1
290
     1
  0
XRECORD
  5
1745D
102
{ACAD_REACTORS
330
1745C
102
}
330
1745C
100
AcDbXrecord
280
     1
290
     1
  0
XRECORD
  5
1745F
102
{ACAD_REACTORS
330
1745E
102
}
330
1745E
100
AcDbXrecord
280
     1
290
     1
  0
XRECORD
  5
17461
102
{ACAD_REACTORS
330
17460
102
}
330
17460
100
AcDbXrecord
280
     1
290
     1
  0
XRECORD
  5
17463
102
{ACAD_REACTORS
330
17462
102
}
330
17462
100
AcDbXrecord
280
     1
290
     1
  0
XRECORD
  5
17465
102
{ACAD_REACTORS
330
17464
102
}
330
17464
100
AcDbXrecord
280
     1
290
     1
  0
XRECORD
  5
17467
102
{ACAD_REACTORS
330
17466
102
}
330
17466
100
AcDbXrecord
280
     1
290
     1
  0
XRECORD
  5
17469
102
{ACAD_REACTORS
330
17468
102
}
330
17468
100
AcDbXrecord
280
     1
290
     1
  0
XRECORD
  5
1746B
102
{ACAD_REACTORS
330
1746A
102
}
330
1746A
100
AcDbXrecord
280
     1
290
     1
  0
XRECORD
  5
1746D
102
{ACAD_REACTORS
330
1746C
102
}
330
1746C
100
AcDbXrecord
280
     1
290
     1
  0
XRECORD
  5
1746F
102
{ACAD_REACTORS
330
1746E
102
}
330
1746E
100
AcDbXrecord
280
     1
290
     1
  0
XRECORD
  5
17471
102
{ACAD_REACTORS
330
17470
102
}
330
17470
100
AcDbXrecord
280
     1
290
     1
  0
XRECORD
  5
1608A
102
{ACAD_REACTORS
330
16089
102
}
330
16089
100
AcDbXrecord
280
     1
290
     1
  0
XRECORD
  5
17442
102
{ACAD_REACTORS
330
17441
102
}
330
17441
100
AcDbXrecord
280
     1
290
     1
  0
SORTENTSTABLE
  5
16BD8
102
{ACAD_REACTORS
330
16BD7
102
}
330
16BD7
100
AcDbSortentsTable
330
18
331
149C7
  5
14A06
331
149E4
  5
14A0B
331
149E5
  5
14A0C
331
149E6
  5
14A0D
331
149EC
  5
14A13
331
149EF
  5
14B28
331
16A76
  5
16B15
331
16AF7
  5
16B1B
331
1733A
  5
17346
331
1733B
  5
17347
331
1733C
  5
17348
331
1733D
  5
17349
331
1733E
  5
1734A
331
1733F
  5
1734B
331
17340
  5
1734C
331
17345
  5
1734D
331
17346
  5
1734E
331
17347
  5
1734F
331
17348
  5
17350
331
17349
  5
17351
331
1734A
  5
17352
331
1734B
  5
17353
331
1734C
  5
17354
331
1734D
  5
17355
331
1734E
  5
17356
331
1734F
  5
17357
331
17350
  5
17358
331
17351
  5
17359
331
17352
  5
1735A
331
17353
  5
1735B
331
17358
  5
17366
331
17359
  5
17367
331
1735A
  5
17368
331
1735B
  5
17369
331
1735C
  5
1736A
331
17363
  5
1736B
331
17364
  5
1736C
331
17365
  5
1736D
331
17366
  5
1736E
331
17367
  5
1736F
331
17368
  5
17370
331
17369
  5
17371
331
1736A
  5
17372
331
1736B
  5
17373
331
1736C
  5
17374
331
1736D
  5
17375
331
1736E
  5
17384
331
1736F
  5
17396
331
17370
  5
17397
331
17371
  5
17398
331
17384
  5
1744C
331
17396
  5
17482
331
17397
  5
1748F
331
17398
  5
174CE
331
1739B
  5
174CF
331
1739C
  5
174D0
331
1739D
  5
174D1
331
17447
  5
174D2
331
1744C
  5
174E0
331
1748F
  5
174EA
331
174EA
  5
174F2
331
174EB
  5
174F3
331
174EC
  5
174F4
331
174EF
  5
14A16
331
174F0
  5
14A1A
331
174F1
  5
14A1F
331
174F2
  5
14A20
331
174F3
  5
14A22
331
174F4
  5
14B24
331
174F5
  5
14B25
331
174F6
  5
14B27
  0
XRECORD
  5
17423
102
{ACAD_REACTORS
330
17422
102
}
330
17422
100
AcDbXrecord
280
     1
 90
        1
340
169A2
  0
XRECORD
  5
17427
102
{ACAD_REACTORS
330
17426
102
}
330
17426
100
AcDbXrecord
280
     1
 90
        1
340
169A2
  0
ACDBDETAILVIEWSTYLE
  5
169B8
102
{ACAD_REACTORS
330
169B7
102
}
330
169B7
100
AcDbModelDocViewStyle
 70
     0
  3
Metric50
290
     1
300
Metric50
 90
        0
100
AcDbDetailViewStyle
 70
     0
 71
     0
 90
        3
 71
     1
340
F
 62
   256
 40
5.0
340
0
 62
   256
 40
5.0
300

 40
0.0
280
     1
 71
     2
340
14
 90
       25
 62
   256
 71
     3
340
F
 62
   256
 40
5.0
 90
        0
 40
15.0
 90
        1
300
%<\AcVar ViewDetailId>% (%<\AcVar ViewScale \f "%sn">%)
 71
     4
340
14
 90
       25
 62
   256
340
14
 90
       25
 62
   256
280
     0
  0
LAYOUT
  5
1741B
102
{ACAD_REACTORS
330
26A7
102
}
330
26A7
100
AcDbPlotSettings
  1

  2
Bluebeam PDF
  4
Tabloid
  6

 40
3.174999952316284
 41
3.174999952316284
 42
3.17498779296875
 43
3.17498779296875
 44
279.3999938964844
 45
431.8000183105469
 46
0.0
 47
0.0
 48
0.0
 49
0.0
140
0.0
141
0.0
142
1.0
143
1.0
 70
   688
 72
     1
 73
     1
 74
     5
  7

 75
    16
147
1.0
 76
     0
 77
     2
 78
   300
148
0.0
149
0.0
100
AcDbLayout
  1
Layout1
 70
     1
 71
     1
 10
-3.17498779296875
 20
-3.174999952316284
 11
428.6250305175781
 21
276.2249939441681
 12
0.0
 22
0.0
 32
0.0
 14
42.54500305652618
 24
27.30500061511992
 34
0.0
 15
382.9050275087356
 25
245.7450055360794
 35
0.0
146
0.0
 13
0.0
 23
0.0
 33
0.0
 16
1.0
 26
0.0
 36
0.0
 17
0.0
 27
1.0
 37
0.0
 76
     0
330
1741A
331
17425
1001
ACAD_PSEXT
1000
Bluebeam PDF
1000
BluebeamPSDriver
1000
BLUEBEAMPDFPORT
1000

1070
     0
  0
LAYOUT
  5
26A9
102
{ACAD_REACTORS
330
26A7
102
}
330
26A7
100
AcDbPlotSettings
  1

  2
Adobe PDF
  4
A3
  6

 40
3.174999952316284
 41
3.174999952316284
 42
3.17498779296875
 43
3.17498779296875
 44
297.0318298339844
 45
420.1583251953125
 46
0.0
 47
6.429999999999999
 48
30.0
 49
7.0
140
830.0
141
587.0
142
1.0
143
1.995308670924885
 70
 11956
 72
     1
 73
     1
 74
     4
  7
monochrome.ctb
 75
     0
147
0.5011755898081023
 76
     0
 77
     2
 78
   300
148
-30.0
149
-7.0
100
AcDbLayout
  1
Model
 70
     1
 71
     0
 10
0.0
 20
0.0
 11
12.0
 21
9.0
 12
0.0
 22
0.0
 32
0.0
 14
0.0
 24
0.0
 34
0.0
 15
0.0
 25
0.0
 35
0.0
146
0.0
 13
0.0
 23
0.0
 33
0.0
 16
1.0
 26
0.0
 36
0.0
 17
0.0
 27
1.0
 37
0.0
 76
     0
330
18
331
1580E
  0
MATERIAL
  5
15811
102
{ACAD_REACTORS
330
D64D
102
}
330
D64D
100
AcDbMaterial
  1
ByBlock
 73
     1
 78
     1
172
     1
176
     1
270
     1
274
     1
 94
       63
  0
MATERIAL
  5
15810
102
{ACAD_REACTORS
330
D64D
102
}
330
D64D
100
AcDbMaterial
  1
ByLayer
 73
     1
 78
     1
172
     1
176
     1
270
     1
274
     1
 94
       63
  0
MATERIAL
  5
12623
102
{ACAD_REACTORS
330
D64D
102
}
330
D64D
100
AcDbMaterial
  1
Global
 73
     1
 78
     1
172
     1
176
     1
270
     1
274
     1
 94
       63
  0
MLEADERSTYLE
  5
169B4
102
{ACAD_REACTORS
330
169B3
102
}
330
169B3
100
AcDbMLeaderStyle
179
     2
170
     2
171
     1
172
     0
 90
        2
 40
0.0
 41
0.0
173
     1
 91
-1056964608
340
12
 92
       -2
290
     1
 42
2.0
291
     1
 43
0.36
  3
Standard
 44
4.0
300

342
F
174
     1
178
     6
175
     1
176
     0
 93
-1056964608
 45
4.0
292
     0
297
     0
 46
4.0
 94
-1056964608
 47
1.0
 49
1.0
140
1.0
293
     1
141
0.0
294
     1
177
     0
142
1.0
295
     1
296
     0
143
0.125
271
     0
272
     9
273
     9
298
     1
  0
MLINESTYLE
  5
1C
102
{ACAD_REACTORS
330
1B
102
}
330
1B
100
AcDbMlineStyle
  2
STANDARD
 70
     0
  3

 62
   256
 51
90.0
 52
90.0
 71
     2
 49
0.5
 62
   256
  6
BYLAYER
 49
-0.5
 62
   256
  6
BYLAYER
  0
ACDBPLACEHOLDER
  5
26A6
102
{ACAD_REACTORS
330
26A5
102
}
330
26A5
  0
SCALE
  5
169A2
102
{ACAD_REACTORS
330
169A1
102
}
330
169A1
100
AcDbScale
 70
     0
300
1:1
140
1.0
141
1.0
290
     1
  0
SCALE
  5
169A3
102
{ACAD_REACTORS
330
169A1
102
}
330
169A1
100
AcDbScale
 70
     0
300
1:2
140
1.0
141
2.0
290
     0
  0
SCALE
  5
169A4
102
{ACAD_REACTORS
330
169A1
102
}
330
169A1
100
AcDbScale
 70
     0
300
1:4
140
1.0
141
4.0
290
     0
  0
SCALE
  5
169A5
102
{ACAD_REACTORS
330
169A1
102
}
330
169A1
100
AcDbScale
 70
     0
300
1:5
140
1.0
141
5.0
290
     0
  0
SCALE
  5
169A6
102
{ACAD_REACTORS
330
169A1
102
}
330
169A1
100
AcDbScale
 70
     0
300
1:8
140
1.0
141
8.0
290
     0
  0
SCALE
  5
169A7
102
{ACAD_REACTORS
330
169A1
102
}
330
169A1
100
AcDbScale
 70
     0
300
1:10
140
1.0
141
10.0
290
     0
  0
SCALE
  5
169A8
102
{ACAD_REACTORS
330
169A1
102
}
330
169A1
100
AcDbScale
 70
     0
300
1:16
140
1.0
141
16.0
290
     0
  0
SCALE
  5
169A9
102
{ACAD_REACTORS
330
169A1
102
}
330
169A1
100
AcDbScale
 70
     0
300
1:20
140
1.0
141
20.0
290
     0
  0
SCALE
  5
169AA
102
{ACAD_REACTORS
330
169A1
102
}
330
169A1
100
AcDbScale
 70
     0
300
1:30
140
1.0
141
30.0
290
     0
  0
SCALE
  5
169AB
102
{ACAD_REACTORS
330
169A1
102
}
330
169A1
100
AcDbScale
 70
     0
300
1:40
140
1.0
141
40.0
290
     0
  0
SCALE
  5
169AC
102
{ACAD_REACTORS
330
169A1
102
}
330
169A1
100
AcDbScale
 70
     0
300
1:50
140
1.0
141
50.0
290
     0
  0
SCALE
  5
169AD
102
{ACAD_REACTORS
330
169A1
102
}
330
169A1
100
AcDbScale
 70
     0
300
1:100
140
1.0
141
100.0
290
     0
  0
SCALE
  5
169AE
102
{ACAD_REACTORS
330
169A1
102
}
330
169A1
100
AcDbScale
 70
     0
300
2:1
140
2.0
141
1.0
290
     0
  0
SCALE
  5
169AF
102
{ACAD_REACTORS
330
169A1
102
}
330
169A1
100
AcDbScale
 70
     0
300
4:1
140
4.0
141
1.0
290
     0
  0
SCALE
  5
169B0
102
{ACAD_REACTORS
330
169A1
102
}
330
169A1
100
AcDbScale
 70
     0
300
8:1
140
8.0
141
1.0
290
     0
  0
SCALE
  5
169B1
102
{ACAD_REACTORS
330
169A1
102
}
330
169A1
100
AcDbScale
 70
     0
300
10:1
140
10.0
141
1.0
290
     0
  0
SCALE
  5
169B2
102
{ACAD_REACTORS
330
169A1
102
}
330
169A1
100
AcDbScale
 70
     0
300
100:1
140
100.0
141
1.0
290
     0
  0
ACDBSECTIONVIEWSTYLE
  5
169B6
102
{ACAD_REACTORS
330
169B5
102
}
330
169B5
100
AcDbModelDocViewStyle
 70
     0
  3
Metric50
290
     1
300
Metric50
 90
        0
100
AcDbSectionViewStyle
 70
     0
 71
     0
 90
      102
 71
     1
340
F
 62
   256
 40
5.0
340
0
340
0
 62
   256
 40
5.0
300
I, O, Q, S, X, Z
 40
10.0
 90
        0
 40
2.5
 90
        0
 71
     2
340
14
 90
       25
 62
   256
340
14
 90
       50
 62
   256
 40
5.0
 40
2.5
 40
5.0
 71
     3
340
F
 62
   256
 40
5.0
 90
        0
 40
15.0
 90
        1
300
%<\AcVar ViewSectionStartId>%-%<\AcVar ViewSectionEndId>% (%<\AcVar ViewScale \f "%sn">%)
 71
     4
 62
   256
 62
   257
300
ANSI31
 40
1.0
 90
        0
290
     0
290
     0
 90
        6
 40
0.0
 40
1.570796326794896
 40
0.2617993877991494
 40
1.308996938995747
 40
-0.2617993877991494
 40
1.832595714594046
  0
TABLESTYLE
  5
15824
102
{ACAD_XDICTIONARY
360
175A2
102
}
102
{ACAD_REACTORS
330
15823
102
}
330
15823
100
AcDbTableStyle
280
     0
  3
Standard
 70
     0
 71
     0
 40
1.5
 41
1.5
280
     0
281
     0
  7
STANDARD
140
4.5
170
     2
 62
     0
 63
     7
283
     0
 90
      512
 91
        0
  1

274
    -2
284
     1
 64
     0
275
    -2
285
     1
 65
     0
276
    -2
286
     1
 66
     0
277
    -2
287
     1
 67
     0
278
    -2
288
     1
 68
     0
279
    -2
289
     1
 69
     0
  7
STANDARD
140
6.0
170
     5
 62
     0
 63
     7
283
     0
 90
      512
 91
        0
  1

274
    -2
284
     1
 64
     0
275
    -2
285
     1
 65
     0
276
    -2
286
     1
 66
     0
277
    -2
287
     1
 67
     0
278
    -2
288
     1
 68
     0
279
    -2
289
     1
 69
     0
  7
STANDARD
140
4.5
170
     5
 62
     0
 63
     7
283
     0
 90
      512
 91
        0
  1

274
    -2
284
     1
 64
     0
275
    -2
285
     1
 65
     0
276
    -2
286
     1
 66
     0
277
    -2
287
     1
 67
     0
278
    -2
288
     1
 68
     0
279
    -2
289
     1
 69
     0
  0
VISUALSTYLE
  5
15818
102
{ACAD_REACTORS
330
15812
102
}
330
15812
100
AcDbVisualStyle
  2
2dWireframe
 70
     4
177
     3
291
     0
 70
    58
 90
        0
176
     1
 90
        2
176
     1
 90
        0
176
     1
 90
        0
176
     1
 40
0.6
176
     1
 40
30.0
176
     1
 62
     7
420
 16777215
176
     1
 90
        1
176
     1
 90
        4
176
     1
 62
     7
176
     1
 62
   257
176
     1
 90
        1
176
     1
 90
        1
176
     1
 40
1.0
176
     1
 90
        0
176
     1
 62
   257
176
     1
 40
1.0
176
     1
 90
        1
176
     1
 90
        6
176
     1
 90
        2
176
     1
 62
     7
176
     1
 90
        5
176
     1
 90
        0
176
     1
 90
        0
176
     1
290
     0
176
     1
 90
        1
176
     1
 40
0.0
176
     1
 90
        0
176
     1
290
     1
176
     1
290
     1
176
     1
290
     0
176
     1
290
     0
176
     1
290
     0
176
     1
290
     0
176
     1
290
     0
176
     1
290
     0
176
     1
290
     0
176
     1
 90
       50
176
     1
 40
0.0
176
     1
 40
1.0
176
     1
 90
        0
176
     1
 62
    18
420
        0
176
     1
 90
       50
176
     1
 90
        3
176
     1
 62
     5
420
      255
176
     1
290
     0
176
     1
 90
       50
176
     1
 90
       50
176
     1
 90
       50
176
     1
290
     0
176
     1
 90
       50
176
     1
 62
   256
176
     0
 40
1.0
176
     0
 90
        2
176
     1
  1
strokes_ogs.tif
176
     1
290
     0
176
     1
 40
1.0
176
     1
 40
1.0
176
     1
  0
VISUALSTYLE
  5
1581A
102
{ACAD_REACTORS
330
15812
102
}
330
15812
100
AcDbVisualStyle
  2
3D Hidden
 70
     6
177
     3
291
     0
 70
    58
 90
        1
176
     1
 90
        2
176
     1
 90
        2
176
     1
 90
        0
176
     1
 40
0.6
176
     1
 40
30.0
176
     1
 62
     7
420
 16777215
176
     1
 90
        2
176
     1
 90
        2
176
     1
 62
     7
176
     1
 62
   257
176
     1
 90
        2
176
     1
 90
        1
176
     1
 40
40.0
176
     1
 90
        0
176
     1
 62
   257
176
     1
 40
1.0
176
     1
 90
        1
176
     1
 90
        6
176
     1
 90
        2
176
     1
 62
     7
176
     1
 90
        3
176
     1
 90
        0
176
     1
 90
        0
176
     1
290
     0
176
     1
 90
        1
176
     1
 40
0.0
176
     1
 90
        0
176
     1
290
     0
176
     1
290
     1
176
     1
290
     1
176
     1
290
     0
176
     1
290
     0
176
     1
290
     0
176
     1
290
     0
176
     1
290
     0
176
     1
290
     0
176
     1
 90
       50
176
     1
 40
0.0
176
     1
 40
1.0
176
     1
 90
        0
176
     1
 62
    18
420
        0
176
     1
 90
       50
176
     1
 90
        3
176
     1
 62
     5
420
      255
176
     1
290
     0
176
     1
 90
       50
176
     1
 90
       50
176
     1
 90
       50
176
     1
290
     0
176
     1
 90
       50
176
     1
 62
   256
176
     0
 40
1.0
176
     0
 90
        2
176
     1
  1
strokes_ogs.tif
176
     1
290
     0
176
     1
 40
1.0
176
     1
 40
1.0
176
     1
  0
VISUALSTYLE
  5
15819
102
{ACAD_REACTORS
330
15812
102
}
330
15812
100
AcDbVisualStyle
  2
3dWireframe
 70
     5
177
     3
291
     0
 70
    58
 90
        0
176
     1
 90
        2
176
     1
 90
        0
176
     1
 90
        0
176
     1
 40
0.6
176
     1
 40
30.0
176
     1
 62
     7
420
 16777215
176
     1
 90
        1
176
     1
 90
        4
176
     1
 62
     7
176
     1
 62
   257
176
     1
 90
        1
176
     1
 90
        1
176
     1
 40
1.0
176
     1
 90
        0
176
     1
 62
   257
176
     1
 40
1.0
176
     1
 90
        1
176
     1
 90
        6
176
     1
 90
        2
176
     1
 62
     7
176
     1
 90
        5
176
     1
 90
        0
176
     1
 90
        0
176
     1
290
     0
176
     1
 90
        1
176
     1
 40
0.0
176
     1
 90
        0
176
     1
290
     0
176
     1
290
     1
176
     1
290
     1
176
     1
290
     0
176
     1
290
     0
176
     1
290
     0
176
     1
290
     0
176
     1
290
     0
176
     1
290
     0
176
     1
 90
       50
176
     1
 40
0.0
176
     1
 40
1.0
176
     1
 90
        0
176
     1
 62
    18
420
        0
176
     1
 90
       50
176
     1
 90
        3
176
     1
 62
     5
420
      255
176
     1
290
     0
176
     1
 90
       50
176
     1
 90
       50
176
     1
 90
       50
176
     1
290
     0
176
     1
 90
       50
176
     1
 62
   256
176
     0
 40
1.0
176
     0
 90
        2
176
     1
  1
strokes_ogs.tif
176
     1
290
     0
176
     1
 40
1.0
176
     1
 40
1.0
176
     1
  0
VISUALSTYLE
  5
15817
102
{ACAD_REACTORS
330
15812
102
}
330
15812
100
AcDbVisualStyle
  2
Basic
 70
     7
177
     3
291
     1
 70
    58
 90
        1
176
     1
 90
        0
176
     1
 90
        1
176
     1
 90
        0
176
     1
 40
0.6
176
     1
 40
30.0
176
     1
 62
     7
420
 16777215
176
     1
 90
        0
176
     1
 90
        4
176
     1
 62
     7
176
     1
 62
   257
176
     1
 90
        1
176
     1
 90
        1
176
     1
 40
1.0
176
     1
 90
        8
176
     1
 62
     7
176
     1
 40
1.0
176
     1
 90
        1
176
     1
 90
        6
176
     1
 90
        2
176
     1
 62
     7
176
     1
 90
        5
176
     1
 90
        0
176
     1
 90
        0
176
     1
290
     0
176
     1
 90
        1
176
     1
 40
0.0
176
     1
 90
        0
176
     1
290
     0
176
     1
290
     1
176
     1
290
     1
176
     1
290
     0
176
     1
290
     0
176
     1
290
     0
176
     1
290
     0
176
     1
290
     0
176
     1
290
     0
176
     1
 90
       50
176
     1
 40
0.0
176
     1
 40
1.0
176
     1
 90
        0
176
     1
 62
    18
420
        0
176
     1
 90
       50
176
     1
 90
        3
176
     1
 62
     5
420
      255
176
     1
290
     0
176
     1
 90
       50
176
     1
 90
       50
176
     1
 90
       50
176
     1
290
     0
176
     1
 90
       50
176
     1
 62
   256
176
     0
 40
1.0
176
     0
 90
        2
176
     1
  1
strokes_ogs.tif
176
     1
290
     0
176
     1
 40
1.0
176
     1
 40
1.0
176
     1
  0
VISUALSTYLE
  5
1581E
102
{ACAD_REACTORS
330
15812
102
}
330
15812
100
AcDbVisualStyle
  2
Brighten
 70
    12
177
     3
291
     1
 70
    58
 90
        2
176
     1
 90
        2
176
     1
 90
        0
176
     1
 90
        0
176
     1
 40
0.6
176
     1
 40
30.0
176
     1
 62
     7
420
 16777215
176
     1
 90
        1
176
     1
 90
        4
176
     1
 62
     7
176
     1
 62
   257
176
     1
 90
        1
176
     1
 90
        1
176
     1
 40
1.0
176
     1
 90
        8
176
     1
 62
     7
176
     1
 40
1.0
176
     1
 90
        1
176
     1
 90
        6
176
     1
 90
        2
176
     1
 62
     7
176
     1
 90
        5
176
     1
 90
        0
176
     1
 90
        0
176
     1
290
     0
176
     1
 90
        1
176
     1
 40
50.0
176
     1
 90
        0
176
     1
290
     0
176
     1
290
     1
176
     1
290
     1
176
     1
290
     0
176
     1
290
     0
176
     1
290
     0
176
     1
290
     0
176
     1
290
     0
176
     1
290
     0
176
     1
 90
       50
176
     1
 40
0.0
176
     1
 40
1.0
176
     1
 90
        0
176
     1
 62
    18
420
        0
176
     1
 90
       50
176
     1
 90
        3
176
     1
 62
     5
420
      255
176
     1
290
     0
176
     1
 90
       50
176
     1
 90
       50
176
     1
 90
       50
176
     1
290
     0
176
     1
 90
       50
176
     1
 62
   256
176
     0
 40
1.0
176
     0
 90
        2
176
     1
  1
strokes_ogs.tif
176
     1
290
     0
176
     1
 40
1.0
176
     1
 40
1.0
176
     1
  0
VISUALSTYLE
  5
15822
102
{ACAD_REACTORS
330
15812
102
}
330
15812
100
AcDbVisualStyle
  2
ColorChange
 70
    16
177
     3
291
     1
 70
    58
 90
        2
176
     1
 90
        2
176
     1
 90
        3
176
     1
 90
        0
176
     1
 40
0.6
176
     1
 40
30.0
176
     1
 62
     8
420
  8421504
176
     1
 90
        1
176
     1
 90
        4
176
     1
 62
     7
176
     1
 62
   257
176
     1
 90
        1
176
     1
 90
        1
176
     1
 40
1.0
176
     1
 90
        8
176
     1
 62
     8
420
  8421504
176
     1
 40
1.0
176
     1
 90
        1
176
     1
 90
        6
176
     1
 90
        2
176
     1
 62
     7
176
     1
 90
        5
176
     1
 90
        0
176
     1
 90
        0
176
     1
290
     0
176
     1
 90
        1
176
     1
 40
0.0
176
     1
 90
        0
176
     1
290
     0
176
     1
290
     1
176
     1
290
     1
176
     1
290
     0
176
     1
290
     0
176
     1
290
     0
176
     1
290
     0
176
     1
290
     0
176
     1
290
     0
176
     1
 90
       50
176
     1
 40
0.0
176
     1
 40
1.0
176
     1
 90
        0
176
     1
 62
    18
420
        0
176
     1
 90
       50
176
     1
 90
        3
176
     1
 62
     5
420
      255
176
     1
290
     0
176
     1
 90
       50
176
     1
 90
       50
176
     1
 90
       50
176
     1
290
     0
176
     1
 90
       50
176
     1
 62
   256
176
     0
 40
1.0
176
     0
 90
        2
176
     1
  1
strokes_ogs.tif
176
     1
290
     0
176
     1
 40
1.0
176
     1
 40
1.0
176
     1
  0
VISUALSTYLE
  5
1581B
102
{ACAD_REACTORS
330
15812
102
}
330
15812
100
AcDbVisualStyle
  2
Conceptual
 70
     9
177
     3
291
     0
 70
    58
 90
        3
176
     1
 90
        2
176
     1
 90
        0
176
     1
 90
        0
176
     1
 40
0.6
176
     1
 40
30.0
176
     1
 62
     7
420
 16777215
176
     1
 90
        2
176
     1
 90
        2
176
     1
 62
     7
176
     1
 62
   257
176
     1
 90
        1
176
     1
 90
        1
176
     1
 40
40.0
176
     1
 90
        8
176
     1
 62
     7
176
     1
 40
1.0
176
     1
 90
        1
176
     1
 90
        6
176
     1
 90
        2
176
     1
 62
     7
176
     1
 90
        3
176
     1
 90
        0
176
     1
 90
        0
176
     1
290
     0
176
     1
 90
        1
176
     1
 40
0.0
176
     1
 90
        0
176
     1
290
     0
176
     1
290
     1
176
     1
290
     1
176
     1
290
     0
176
     1
290
     0
176
     1
290
     0
176
     1
290
     0
176
     1
290
     0
176
     1
290
     0
176
     1
 90
       50
176
     1
 40
0.0
176
     1
 40
1.0
176
     1
 90
        0
176
     1
 62
    18
420
        0
176
     1
 90
       50
176
     1
 90
        3
176
     1
 62
     5
420
      255
176
     1
290
     0
176
     1
 90
       50
176
     1
 90
       50
176
     1
 90
       50
176
     1
290
     0
176
     1
 90
       50
176
     1
 62
   256
176
     0
 40
1.0
176
     0
 90
        2
176
     1
  1
strokes_ogs.tif
176
     1
290
     0
176
     1
 40
1.0
176
     1
 40
1.0
176
     1
  0
VISUALSTYLE
  5
1581D
102
{ACAD_REACTORS
330
15812
102
}
330
15812
100
AcDbVisualStyle
  2
Dim
 70
    11
177
     3
291
     1
 70
    58
 90
        2
176
     1
 90
        2
176
     1
 90
        0
176
     1
 90
        0
176
     1
 40
0.6
176
     1
 40
30.0
176
     1
 62
     7
420
 16777215
176
     1
 90
        1
176
     1
 90
        4
176
     1
 62
     7
176
     1
 62
   257
176
     1
 90
        1
176
     1
 90
        1
176
     1
 40
1.0
176
     1
 90
        8
176
     1
 62
     7
176
     1
 40
1.0
176
     1
 90
        1
176
     1
 90
        6
176
     1
 90
        2
176
     1
 62
     7
176
     1
 90
        5
176
     1
 90
        0
176
     1
 90
        0
176
     1
290
     0
176
     1
 90
        1
176
     1
 40
-50.0
176
     1
 90
        0
176
     1
290
     0
176
     1
290
     1
176
     1
290
     1
176
     1
290
     0
176
     1
290
     0
176
     1
290
     0
176
     1
290
     0
176
     1
290
     0
176
     1
290
     0
176
     1
 90
       50
176
     1
 40
0.0
176
     1
 40
1.0
176
     1
 90
        0
176
     1
 62
    18
420
        0
176
     1
 90
       50
176
     1
 90
        3
176
     1
 62
     5
420
      255
176
     1
290
     0
176
     1
 90
       50
176
     1
 90
       50
176
     1
 90
       50
176
     1
290
     0
176
     1
 90
       50
176
     1
 62
   256
176
     0
 40
1.0
176
     0
 90
        2
176
     1
  1
strokes_ogs.tif
176
     1
290
     0
176
     1
 40
1.0
176
     1
 40
1.0
176
     1
  0
VISUALSTYLE
  5
169A0
102
{ACAD_REACTORS
330
15812
102
}
330
15812
100
AcDbVisualStyle
  2
EdgeColorOff
 70
    22
177
     3
291
     1
 70
    58
 90
        2
176
     0
 90
        2
176
     0
 90
        0
176
     0
 90
        0
176
     0
 40
0.6
176
     0
 40
30.0
176
     0
 62
     7
420
 16777215
176
     0
 90
        1
176
     0
 90
        4
176
     0
 62
     7
176
     0
 62
   257
176
     0
 90
        1
176
     0
 90
        1
176
     0
 40
1.0
176
     0
 90
        8
176
     2
 62
     7
176
     0
 40
1.0
176
     0
 90
        1
176
     0
 90
        6
176
     0
 90
        2
176
     0
 62
     7
176
     0
 90
        5
176
     0
 90
        0
176
     0
 90
        0
176
     0
290
     0
176
     0
 90
        1
176
     0
 40
0.0
176
     0
 90
        0
176
     0
290
     0
176
     0
290
     1
176
     0
290
     1
176
     0
290
     0
176
     0
290
     0
176
     0
290
     0
176
     0
290
     0
176
     0
290
     0
176
     0
290
     0
176
     0
 90
       50
176
     0
 40
0.0
176
     0
 40
1.0
176
     0
 90
        0
176
     0
 62
    18
420
        0
176
     0
 90
       50
176
     0
 90
        3
176
     0
 62
     5
420
      255
176
     0
290
     0
176
     0
 90
       50
176
     0
 90
       50
176
     0
 90
       50
176
     0
290
     0
176
     0
 90
       50
176
     0
 62
   256
176
     0
 40
1.0
176
     0
 90
        2
176
     0
  1
strokes_ogs.tif
176
     0
290
     0
176
     0
 40
1.0
176
     0
 40
1.0
176
     0
  0
VISUALSTYLE
  5
15821
102
{ACAD_REACTORS
330
15812
102
}
330
15812
100
AcDbVisualStyle
  2
Facepattern
 70
    15
177
     3
291
     1
 70
    58
 90
        2
176
     1
 90
        2
176
     1
 90
        0
176
     1
 90
        0
176
     1
 40
0.6
176
     1
 40
30.0
176
     1
 62
     7
420
 16777215
176
     1
 90
        1
176
     1
 90
        4
176
     1
 62
     7
176
     1
 62
   257
176
     1
 90
        1
176
     1
 90
        1
176
     1
 40
1.0
176
     1
 90
        8
176
     1
 62
     7
176
     1
 40
1.0
176
     1
 90
        1
176
     1
 90
        6
176
     1
 90
        2
176
     1
 62
     7
176
     1
 90
        5
176
     1
 90
        0
176
     1
 90
        0
176
     1
290
     0
176
     1
 90
        1
176
     1
 40
0.0
176
     1
 90
        0
176
     1
290
     0
176
     1
290
     1
176
     1
290
     1
176
     1
290
     0
176
     1
290
     0
176
     1
290
     0
176
     1
290
     0
176
     1
290
     0
176
     1
290
     0
176
     1
 90
       50
176
     1
 40
0.0
176
     1
 40
1.0
176
     1
 90
        0
176
     1
 62
    18
420
        0
176
     1
 90
       50
176
     1
 90
        3
176
     1
 62
     5
420
      255
176
     1
290
     0
176
     1
 90
       50
176
     1
 90
       50
176
     1
 90
       50
176
     1
290
     0
176
     1
 90
       50
176
     1
 62
   256
176
     0
 40
1.0
176
     0
 90
        2
176
     1
  1
strokes_ogs.tif
176
     1
290
     0
176
     1
 40
1.0
176
     1
 40
1.0
176
     1
  0
VISUALSTYLE
  5
15813
102
{ACAD_REACTORS
330
15812
102
}
330
15812
100
AcDbVisualStyle
  2
Flat
 70
     0
177
     3
291
     1
 70
    58
 90
        2
176
     1
 90
        1
176
     1
 90
        1
176
     1
 90
        2
176
     1
 40
0.6
176
     1
 40
30.0
176
     1
 62
     7
420
 16777215
176
     1
 90
        0
176
     1
 90
        4
176
     1
 62
     7
176
     1
 62
   257
176
     1
 90
        1
176
     1
 90
        1
176
     1
 40
1.0
176
     1
 90
        8
176
     1
 62
     7
176
     1
 40
1.0
176
     1
 90
        1
176
     1
 90
        6
176
     1
 90
        2
176
     1
 62
     7
176
     1
 90
        5
176
     1
 90
        0
176
     1
 90
        0
176
     1
290
     0
176
     1
 90
       13
176
     1
 40
0.0
176
     1
 90
        0
176
     1
290
     0
176
     1
290
     1
176
     1
290
     1
176
     1
290
     0
176
     1
290
     0
176
     1
290
     0
176
     1
290
     0
176
     1
290
     0
176
     1
290
     0
176
     1
 90
       50
176
     1
 40
0.0
176
     1
 40
1.0
176
     1
 90
        0
176
     1
 62
    18
420
        0
176
     1
 90
       50
176
     1
 90
        3
176
     1
 62
     5
420
      255
176
     1
290
     0
176
     1
 90
       50
176
     1
 90
       50
176
     1
 90
       50
176
     1
290
     0
176
     1
 90
       50
176
     1
 62
   256
176
     0
 40
1.0
176
     0
 90
        2
176
     1
  1
strokes_ogs.tif
176
     1
290
     0
176
     1
 40
1.0
176
     1
 40
1.0
176
     1
  0
VISUALSTYLE
  5
15814
102
{ACAD_REACTORS
330
15812
102
}
330
15812
100
AcDbVisualStyle
  2
FlatWithEdges
 70
     1
177
     3
291
     1
 70
    58
 90
        2
176
     1
 90
        1
176
     1
 90
        1
176
     1
 90
        2
176
     1
 40
0.6
176
     1
 40
30.0
176
     1
 62
     7
420
 16777215
176
     1
 90
        1
176
     1
 90
        4
176
     1
 62
     7
176
     1
 62
   257
176
     1
 90
        1
176
     1
 90
        1
176
     1
 40
1.0
176
     1
 90
        0
176
     1
 62
   257
176
     1
 40
1.0
176
     1
 90
        1
176
     1
 90
        6
176
     1
 90
        2
176
     1
 62
     7
176
     1
 90
        5
176
     1
 90
        0
176
     1
 90
        0
176
     1
290
     0
176
     1
 90
       13
176
     1
 40
0.0
176
     1
 90
        0
176
     1
290
     0
176
     1
290
     1
176
     1
290
     1
176
     1
290
     0
176
     1
290
     0
176
     1
290
     0
176
     1
290
     0
176
     1
290
     0
176
     1
290
     0
176
     1
 90
       50
176
     1
 40
0.0
176
     1
 40
1.0
176
     1
 90
        0
176
     1
 62
    18
420
        0
176
     1
 90
       50
176
     1
 90
        3
176
     1
 62
     5
420
      255
176
     1
290
     0
176
     1
 90
       50
176
     1
 90
       50
176
     1
 90
       50
176
     1
290
     0
176
     1
 90
       50
176
     1
 62
   256
176
     0
 40
1.0
176
     0
 90
        2
176
     1
  1
strokes_ogs.tif
176
     1
290
     0
176
     1
 40
1.0
176
     1
 40
1.0
176
     1
  0
VISUALSTYLE
  5
15815
102
{ACAD_REACTORS
330
15812
102
}
330
15812
100
AcDbVisualStyle
  2
Gouraud
 70
     2
177
     3
291
     1
 70
    58
 90
        2
176
     1
 90
        2
176
     1
 90
        1
176
     1
 90
        2
176
     1
 40
0.6
176
     1
 40
30.0
176
     1
 62
     7
420
 16777215
176
     1
 90
        0
176
     1
 90
        4
176
     1
 62
     7
176
     1
 62
   257
176
     1
 90
        1
176
     1
 90
        1
176
     1
 40
1.0
176
     1
 90
        0
176
     1
 62
     7
176
     1
 40
1.0
176
     1
 90
        1
176
     1
 90
        6
176
     1
 90
        2
176
     1
 62
     7
176
     1
 90
        5
176
     1
 90
        0
176
     1
 90
        0
176
     1
290
     0
176
     1
 90
       13
176
     1
 40
0.0
176
     1
 90
        0
176
     1
290
     0
176
     1
290
     1
176
     1
290
     1
176
     1
290
     0
176
     1
290
     0
176
     1
290
     0
176
     1
290
     0
176
     1
290
     0
176
     1
290
     0
176
     1
 90
       50
176
     1
 40
0.0
176
     1
 40
1.0
176
     1
 90
        0
176
     1
 62
    18
420
        0
176
     1
 90
       50
176
     1
 90
        3
176
     1
 62
     5
420
      255
176
     1
290
     0
176
     1
 90
       50
176
     1
 90
       50
176
     1
 90
       50
176
     1
290
     0
176
     1
 90
       50
176
     1
 62
   256
176
     0
 40
1.0
176
     0
 90
        2
176
     1
  1
strokes_ogs.tif
176
     1
290
     0
176
     1
 40
1.0
176
     1
 40
1.0
176
     1
  0
VISUALSTYLE
  5
15816
102
{ACAD_REACTORS
330
15812
102
}
330
15812
100
AcDbVisualStyle
  2
GouraudWithEdges
 70
     3
177
     3
291
     1
 70
    58
 90
        2
176
     1
 90
        2
176
     1
 90
        1
176
     1
 90
        2
176
     1
 40
0.6
176
     1
 40
30.0
176
     1
 62
     7
420
 16777215
176
     1
 90
        1
176
     1
 90
        4
176
     1
 62
     7
176
     1
 62
   257
176
     1
 90
        1
176
     1
 90
        1
176
     1
 40
1.0
176
     1
 90
        0
176
     1
 62
   257
176
     1
 40
1.0
176
     1
 90
        1
176
     1
 90
        6
176
     1
 90
        2
176
     1
 62
     7
176
     1
 90
        5
176
     1
 90
        0
176
     1
 90
        0
176
     1
290
     0
176
     1
 90
       13
176
     1
 40
0.0
176
     1
 90
        0
176
     1
290
     0
176
     1
290
     1
176
     1
290
     1
176
     1
290
     0
176
     1
290
     0
176
     1
290
     0
176
     1
290
     0
176
     1
290
     0
176
     1
290
     0
176
     1
 90
       50
176
     1
 40
0.0
176
     1
 40
1.0
176
     1
 90
        0
176
     1
 62
    18
420
        0
176
     1
 90
       50
176
     1
 90
        3
176
     1
 62
     5
420
      255
176
     1
290
     0
176
     1
 90
       50
176
     1
 90
       50
176
     1
 90
       50
176
     1
290
     0
176
     1
 90
       50
176
     1
 62
   256
176
     0
 40
1.0
176
     0
 90
        2
176
     1
  1
strokes_ogs.tif
176
     1
290
     0
176
     1
 40
1.0
176
     1
 40
1.0
176
     1
  0
VISUALSTYLE
  5
16998
102
{ACAD_REACTORS
330
15812
102
}
330
15812
100
AcDbVisualStyle
  2
Hidden
 70
     6
177
     3
291
     0
 70
    58
 90
        1
176
     1
 90
        2
176
     1
 90
        2
176
     1
 90
        0
176
     1
 40
0.6
176
     1
 40
30.0
176
     1
 62
     7
420
 16777215
176
     1
 90
        2
176
     1
 90
        2
176
     1
 62
     7
176
     1
 62
   257
176
     1
 90
        2
176
     1
 90
        1
176
     1
 40
40.0
176
     1
 90
        0
176
     1
 62
   257
176
     1
 40
1.0
176
     1
 90
        1
176
     1
 90
        6
176
     1
 90
        2
176
     1
 62
     7
176
     1
 90
        3
176
     1
 90
        0
176
     1
 90
        0
176
     1
290
     0
176
     1
 90
        1
176
     1
 40
0.0
176
     1
 90
        0
176
     1
290
     0
176
     1
290
     1
176
     1
290
     1
176
     1
290
     0
176
     1
290
     0
176
     1
290
     0
176
     1
290
     0
176
     1
290
     0
176
     1
290
     0
176
     1
 90
       50
176
     1
 40
0.0
176
     1
 40
1.0
176
     1
 90
        0
176
     1
 62
    18
420
        0
176
     1
 90
       50
176
     1
 90
        3
176
     1
 62
     5
420
      255
176
     1
290
     0
176
     1
 90
       50
176
     1
 90
       50
176
     1
 90
       50
176
     1
290
     0
176
     1
 90
       50
176
     1
 62
   256
176
     0
 40
1.0
176
     0
 90
        2
176
     1
  1
strokes_ogs.tif
176
     1
290
     0
176
     1
 40
1.0
176
     1
 40
1.0
176
     1
  0
VISUALSTYLE
  5
1699E
102
{ACAD_REACTORS
330
15812
102
}
330
15812
100
AcDbVisualStyle
  2
JitterOff
 70
    20
177
     3
291
     1
 70
    58
 90
        2
176
     0
 90
        2
176
     0
 90
        0
176
     0
 90
        0
176
     0
 40
0.6
176
     0
 40
30.0
176
     0
 62
     7
420
 16777215
176
     0
 90
        1
176
     0
 90
        4
176
     0
 62
     7
176
     0
 62
   257
176
     0
 90
        1
176
     0
 90
        1
176
     0
 40
1.0
176
     0
 90
       10
176
     2
 62
     7
176
     0
 40
1.0
176
     0
 90
        1
176
     0
 90
        6
176
     0
 90
        2
176
     0
 62
     7
176
     0
 90
        5
176
     0
 90
        0
176
     0
 90
        0
176
     0
290
     0
176
     0
 90
        1
176
     0
 40
0.0
176
     0
 90
        0
176
     0
290
     0
176
     0
290
     1
176
     0
290
     1
176
     0
290
     0
176
     0
290
     0
176
     0
290
     0
176
     0
290
     0
176
     0
290
     0
176
     0
290
     0
176
     0
 90
       50
176
     0
 40
0.0
176
     0
 40
1.0
176
     0
 90
        0
176
     0
 62
    18
420
        0
176
     0
 90
       50
176
     0
 90
        3
176
     0
 62
     5
420
      255
176
     0
290
     0
176
     0
 90
       50
176
     0
 90
       50
176
     0
 90
       50
176
     0
290
     0
176
     0
 90
       50
176
     0
 62
   256
176
     0
 40
1.0
176
     0
 90
        2
176
     0
  1
strokes_ogs.tif
176
     0
290
     0
176
     0
 40
1.0
176
     0
 40
1.0
176
     0
  0
VISUALSTYLE
  5
15820
102
{ACAD_REACTORS
330
15812
102
}
330
15812
100
AcDbVisualStyle
  2
Linepattern
 70
    14
177
     3
291
     1
 70
    58
 90
        2
176
     1
 90
        2
176
     1
 90
        0
176
     1
 90
        0
176
     1
 40
0.6
176
     1
 40
30.0
176
     1
 62
     7
420
 16777215
176
     1
 90
        1
176
     1
 90
        4
176
     1
 62
     7
176
     1
 62
   257
176
     1
 90
        7
176
     1
 90
        7
176
     1
 40
1.0
176
     1
 90
        8
176
     1
 62
     7
176
     1
 40
1.0
176
     1
 90
        1
176
     1
 90
        6
176
     1
 90
        2
176
     1
 62
     7
176
     1
 90
        5
176
     1
 90
        0
176
     1
 90
        0
176
     1
290
     0
176
     1
 90
        1
176
     1
 40
0.0
176
     1
 90
        0
176
     1
290
     0
176
     1
290
     1
176
     1
290
     1
176
     1
290
     0
176
     1
290
     0
176
     1
290
     0
176
     1
290
     0
176
     1
290
     0
176
     1
290
     0
176
     1
 90
       50
176
     1
 40
0.0
176
     1
 40
1.0
176
     1
 90
        0
176
     1
 62
    18
420
        0
176
     1
 90
       50
176
     1
 90
        3
176
     1
 62
     5
420
      255
176
     1
290
     0
176
     1
 90
       50
176
     1
 90
       50
176
     1
 90
       50
176
     1
290
     0
176
     1
 90
       50
176
     1
 62
   256
176
     0
 40
1.0
176
     0
 90
        2
176
     1
  1
strokes_ogs.tif
176
     1
290
     0
176
     1
 40
1.0
176
     1
 40
1.0
176
     1
  0
VISUALSTYLE
  5
1699F
102
{ACAD_REACTORS
330
15812
102
}
330
15812
100
AcDbVisualStyle
  2
OverhangOff
 70
    21
177
     3
291
     1
 70
    58
 90
        2
176
     0
 90
        2
176
     0
 90
        0
176
     0
 90
        0
176
     0
 40
0.6
176
     0
 40
30.0
176
     0
 62
     7
420
 16777215
176
     0
 90
        1
176
     0
 90
        4
176
     0
 62
     7
176
     0
 62
   257
176
     0
 90
        1
176
     0
 90
        1
176
     0
 40
1.0
176
     0
 90
        9
176
     2
 62
     7
176
     0
 40
1.0
176
     0
 90
        1
176
     0
 90
        6
176
     0
 90
        2
176
     0
 62
     7
176
     0
 90
        5
176
     0
 90
        0
176
     0
 90
        0
176
     0
290
     0
176
     0
 90
        1
176
     0
 40
0.0
176
     0
 90
        0
176
     0
290
     0
176
     0
290
     1
176
     0
290
     1
176
     0
290
     0
176
     0
290
     0
176
     0
290
     0
176
     0
290
     0
176
     0
290
     0
176
     0
290
     0
176
     0
 90
       50
176
     0
 40
0.0
176
     0
 40
1.0
176
     0
 90
        0
176
     0
 62
    18
420
        0
176
     0
 90
       50
176
     0
 90
        3
176
     0
 62
     5
420
      255
176
     0
290
     0
176
     0
 90
       50
176
     0
 90
       50
176
     0
 90
       50
176
     0
290
     0
176
     0
 90
       50
176
     0
 62
   256
176
     0
 40
1.0
176
     0
 90
        2
176
     0
  1
strokes_ogs.tif
176
     0
290
     0
176
     0
 40
1.0
176
     0
 40
1.0
176
     0
  0
VISUALSTYLE
  5
1581C
102
{ACAD_REACTORS
330
15812
102
}
330
15812
100
AcDbVisualStyle
  2
Realistic
 70
     8
177
     3
291
     0
 70
    58
 90
        2
176
     1
 90
        2
176
     1
 90
        0
176
     1
 90
        0
176
     1
 40
0.6
176
     1
 40
30.0
176
     1
 62
     7
420
 16777215
176
     1
 90
        1
176
     1
 90
        0
176
     1
 62
     7
176
     1
 62
   257
176
     1
 90
        1
176
     1
 90
        1
176
     1
 40
1.0
176
     1
 90
        8
176
     1
 62
     8
420
  7895160
176
     1
 40
1.0
176
     1
 90
        1
176
     1
 90
        6
176
     1
 90
        2
176
     1
 62
     7
176
     1
 90
        5
176
     1
 90
        0
176
     1
 90
        0
176
     1
290
     0
176
     1
 90
       13
176
     1
 40
0.0
176
     1
 90
        0
176
     1
290
     0
176
     1
290
     1
176
     1
290
     1
176
     1
290
     0
176
     1
290
     0
176
     1
290
     0
176
     1
290
     0
176
     1
290
     0
176
     1
290
     0
176
     1
 90
       50
176
     1
 40
0.0
176
     1
 40
1.0
176
     1
 90
        0
176
     1
 62
    18
420
        0
176
     1
 90
       50
176
     1
 90
        3
176
     1
 62
     5
420
      255
176
     1
290
     0
176
     1
 90
       50
176
     1
 90
       50
176
     1
 90
       50
176
     1
290
     0
176
     1
 90
       50
176
     1
 62
   256
176
     0
 40
1.0
176
     0
 90
        2
176
     1
  1
strokes_ogs.tif
176
     1
290
     0
176
     1
 40
1.0
176
     1
 40
1.0
176
     1
  0
VISUALSTYLE
  5
1699D
102
{ACAD_REACTORS
330
15812
102
}
330
15812
100
AcDbVisualStyle
  2
Shaded
 70
    27
177
     3
291
     0
 70
    58
 90
        2
176
     1
 90
        2
176
     1
 90
        1
176
     1
 90
        2
176
     1
 40
0.6
176
     1
 40
30.0
176
     1
 62
     7
420
 16777215
176
     1
 90
        0
176
     1
 90
        4
176
     1
 62
     7
176
     1
 62
   257
176
     1
 90
        1
176
     1
 90
        1
176
     1
 40
1.0
176
     1
 90
        8
176
     1
 62
   257
176
     1
 40
1.0
176
     1
 90
        1
176
     1
 90
        6
176
     1
 90
        2
176
     1
 62
     8
420
  7895160
176
     1
 90
        3
176
     1
 90
        0
176
     1
 90
        0
176
     1
290
     0
176
     1
 90
        5
176
     1
 40
0.0
176
     1
 90
        0
176
     1
290
     0
176
     1
290
     1
176
     1
290
     1
176
     1
290
     0
176
     1
290
     0
176
     1
290
     0
176
     1
290
     0
176
     1
290
     0
176
     1
290
     0
176
     1
 90
       50
176
     1
 40
0.0
176
     1
 40
1.0
176
     1
 90
        0
176
     1
 62
    18
420
        0
176
     1
 90
       50
176
     1
 90
        3
176
     1
 62
     5
420
      255
176
     1
290
     0
176
     1
 90
       50
176
     1
 90
       50
176
     1
 90
       50
176
     1
290
     0
176
     1
 90
       50
176
     1
 62
   256
176
     0
 40
1.0
176
     0
 90
        2
176
     1
  1
strokes_ogs.tif
176
     1
290
     0
176
     1
 40
1.0
176
     1
 40
1.0
176
     1
  0
VISUALSTYLE
  5
1699C
102
{ACAD_REACTORS
330
15812
102
}
330
15812
100
AcDbVisualStyle
  2
Shaded with edges
 70
    26
177
     3
291
     0
 70
    58
 90
        2
176
     1
 90
        2
176
     1
 90
        1
176
     1
 90
        2
176
     1
 40
0.6
176
     1
 40
30.0
176
     1
 62
     7
420
 16777215
176
     1
 90
        1
176
     1
 90
        2
176
     1
 62
     7
176
     1
 62
   257
176
     1
 90
        2
176
     1
 90
        1
176
     1
 40
1.0
176
     1
 90
        8
176
     1
 62
   257
176
     1
 40
1.0
176
     1
 90
        1
176
     1
 90
        6
176
     1
 90
        2
176
     1
 62
     7
176
     1
 90
        3
176
     1
 90
        0
176
     1
 90
        0
176
     1
290
     0
176
     1
 90
        5
176
     1
 40
0.0
176
     1
 90
        0
176
     1
290
     0
176
     1
290
     1
176
     1
290
     1
176
     1
290
     0
176
     1
290
     0
176
     1
290
     0
176
     1
290
     0
176
     1
290
     0
176
     1
290
     0
176
     1
 90
       50
176
     1
 40
0.0
176
     1
 40
1.0
176
     1
 90
        0
176
     1
 62
    18
420
        0
176
     1
 90
       50
176
     1
 90
        3
176
     1
 62
     5
420
      255
176
     1
290
     0
176
     1
 90
       50
176
     1
 90
       50
176
     1
 90
       50
176
     1
290
     0
176
     1
 90
       50
176
     1
 62
   256
176
     0
 40
1.0
176
     0
 90
        2
176
     1
  1
strokes_ogs.tif
176
     1
290
     0
176
     1
 40
1.0
176
     1
 40
1.0
176
     1
  0
VISUALSTYLE
  5
16999
102
{ACAD_REACTORS
330
15812
102
}
330
15812
100
AcDbVisualStyle
  2
Shades of Gray
 70
    23
177
     3
291
     0
 70
    58
 90
        2
176
     1
 90
        2
176
     1
 90
        3
176
     1
 90
        0
176
     1
 40
0.6
176
     1
 40
30.0
176
     1
 62
     7
420
 16777215
176
     1
 90
        2
176
     1
 90
        2
176
     1
 62
     7
176
     1
 62
     7
176
     1
 90
        1
176
     1
 90
        1
176
     1
 40
40.0
176
     1
 90
        8
176
     1
 62
     7
176
     1
 40
1.0
176
     1
 90
        1
176
     1
 90
        6
176
     1
 90
        2
176
     1
 62
     7
176
     1
 90
        3
176
     1
 90
        0
176
     1
 90
        0
176
     1
290
     0
176
     1
 90
        1
176
     1
 40
0.0
176
     1
 90
        0
176
     1
290
     0
176
     1
290
     1
176
     1
290
     1
176
     1
290
     0
176
     1
290
     0
176
     1
290
     0
176
     1
290
     0
176
     1
290
     0
176
     1
290
     0
176
     1
 90
       50
176
     1
 40
0.0
176
     1
 40
1.0
176
     1
 90
        0
176
     1
 62
    18
420
        0
176
     1
 90
       50
176
     1
 90
        3
176
     1
 62
     5
420
      255
176
     1
290
     0
176
     1
 90
       50
176
     1
 90
       50
176
     1
 90
       50
176
     1
290
     0
176
     1
 90
       50
176
     1
 62
   256
176
     0
 40
1.0
176
     0
 90
        2
176
     1
  1
strokes_ogs.tif
176
     1
290
     0
176
     1
 40
1.0
176
     1
 40
1.0
176
     1
  0
VISUALSTYLE
  5
1699A
102
{ACAD_REACTORS
330
15812
102
}
330
15812
100
AcDbVisualStyle
  2
Sketchy
 70
    24
177
     3
291
     0
 70
    58
 90
        1
176
     1
 90
        2
176
     1
 90
        2
176
     1
 90
        0
176
     1
 40
0.6
176
     1
 40
30.0
176
     1
 62
     7
420
 16777215
176
     1
 90
        2
176
     1
 90
        2
176
     1
 62
     7
176
     1
 62
     7
176
     1
 90
        1
176
     1
 90
        1
176
     1
 40
40.0
176
     1
 90
       11
176
     1
 62
     7
176
     1
 40
1.0
176
     1
 90
        1
176
     1
 90
        6
176
     1
 90
        2
176
     1
 62
     7
176
     1
 90
        6
176
     1
 90
        0
176
     1
 90
        0
176
     1
290
     0
176
     1
 90
        1
176
     1
 40
0.0
176
     1
 90
        0
176
     1
290
     0
176
     1
290
     1
176
     1
290
     1
176
     1
290
     0
176
     1
290
     0
176
     1
290
     0
176
     1
290
     0
176
     1
290
     0
176
     1
290
     0
176
     1
 90
       50
176
     1
 40
0.0
176
     1
 40
1.0
176
     1
 90
        0
176
     1
 62
    18
420
        0
176
     1
 90
       50
176
     1
 90
        3
176
     1
 62
     5
420
      255
176
     1
290
     0
176
     1
 90
       50
176
     1
 90
       50
176
     1
 90
       50
176
     1
290
     0
176
     1
 90
       50
176
     1
 62
   256
176
     0
 40
1.0
176
     0
 90
        2
176
     1
  1
strokes_ogs.tif
176
     1
290
     0
176
     1
 40
1.0
176
     1
 40
1.0
176
     1
  0
VISUALSTYLE
  5
1581F
102
{ACAD_REACTORS
330
15812
102
}
330
15812
100
AcDbVisualStyle
  2
Thicken
 70
    13
177
     3
291
     1
 70
    58
 90
        2
176
     1
 90
        2
176
     1
 90
        0
176
     1
 90
        0
176
     1
 40
0.6
176
     1
 40
30.0
176
     1
 62
     7
420
 16777215
176
     1
 90
        1
176
     1
 90
        4
176
     1
 62
     7
176
     1
 62
   257
176
     1
 90
        1
176
     1
 90
        1
176
     1
 40
1.0
176
     1
 90
       12
176
     1
 62
     7
176
     1
 40
1.0
176
     1
 90
        1
176
     1
 90
        6
176
     1
 90
        2
176
     1
 62
     7
176
     1
 90
        5
176
     1
 90
        0
176
     1
 90
        0
176
     1
290
     0
176
     1
 90
        1
176
     1
 40
0.0
176
     1
 90
        0
176
     1
290
     0
176
     1
290
     1
176
     1
290
     1
176
     1
290
     0
176
     1
290
     0
176
     1
290
     0
176
     1
290
     0
176
     1
290
     0
176
     1
290
     0
176
     1
 90
       50
176
     1
 40
0.0
176
     1
 40
1.0
176
     1
 90
        0
176
     1
 62
    18
420
        0
176
     1
 90
       50
176
     1
 90
        3
176
     1
 62
     5
420
      255
176
     1
290
     0
176
     1
 90
       50
176
     1
 90
       50
176
     1
 90
       50
176
     1
290
     0
176
     1
 90
       50
176
     1
 62
   256
176
     0
 40
1.0
176
     0
 90
        2
176
     1
  1
strokes_ogs.tif
176
     1
290
     0
176
     1
 40
1.0
176
     1
 40
1.0
176
     1
  0
VISUALSTYLE
  5
16997
102
{ACAD_REACTORS
330
15812
102
}
330
15812
100
AcDbVisualStyle
  2
Wireframe
 70
     5
177
     3
291
     0
 70
    58
 90
        0
176
     1
 90
        2
176
     1
 90
        0
176
     1
 90
        0
176
     1
 40
0.6
176
     1
 40
30.0
176
     1
 62
     7
420
 16777215
176
     1
 90
        1
176
     1
 90
        4
176
     1
 62
     7
176
     1
 62
   257
176
     1
 90
        1
176
     1
 90
        1
176
     1
 40
1.0
176
     1
 90
        0
176
     1
 62
   257
176
     1
 40
1.0
176
     1
 90
        1
176
     1
 90
        6
176
     1
 90
        2
176
     1
 62
     7
176
     1
 90
        3
176
     1
 90
        0
176
     1
 90
        0
176
     1
290
     0
176
     1
 90
        1
176
     1
 40
0.0
176
     1
 90
        0
176
     1
290
     0
176
     1
290
     1
176
     1
290
     1
176
     1
290
     0
176
     1
290
     0
176
     1
290
     0
176
     1
290
     0
176
     1
290
     0
176
     1
290
     0
176
     1
 90
       50
176
     1
 40
0.0
176
     1
 40
1.0
176
     1
 90
        0
176
     1
 62
    18
420
        0
176
     1
 90
       50
176
     1
 90
        3
176
     1
 62
     5
420
      255
176
     1
290
     0
176
     1
 90
       50
176
     1
 90
       50
176
     1
 90
       50
176
     1
290
     0
176
     1
 90
       50
176
     1
 62
   256
176
     0
 40
1.0
176
     0
 90
        2
176
     1
  1
strokes_ogs.tif
176
     1
290
     0
176
     1
 40
1.0
176
     1
 40
1.0
176
     1
  0
VISUALSTYLE
  5
1699B
102
{ACAD_REACTORS
330
15812
102
}
330
15812
100
AcDbVisualStyle
  2
X-Ray
 70
    25
177
     3
291
     0
 70
    58
 90
        2
176
     1
 90
        2
176
     1
 90
        1
176
     1
 90
        1
176
     1
 40
0.5
176
     1
 40
30.0
176
     1
 62
     7
420
 16777215
176
     1
 90
        1
176
     1
 90
        0
176
     1
 62
     7
176
     1
 62
   257
176
     1
 90
        1
176
     1
 90
        1
176
     1
 40
1.0
176
     1
 90
        8
176
     1
 62
     7
176
     1
 40
1.0
176
     1
 90
        1
176
     1
 90
        6
176
     1
 90
        2
176
     1
 62
     7
176
     1
 90
        3
176
     1
 90
        0
176
     1
 90
        0
176
     1
290
     0
176
     1
 90
       13
176
     1
 40
0.0
176
     1
 90
        0
176
     1
290
     0
176
     1
290
     1
176
     1
290
     1
176
     1
290
     0
176
     1
290
     0
176
     1
290
     0
176
     1
290
     0
176
     1
290
     0
176
     1
290
     0
176
     1
 90
       50
176
     1
 40
0.0
176
     1
 40
1.0
176
     1
 90
        0
176
     1
 62
    18
420
        0
176
     1
 90
       50
176
     1
 90
        3
176
     1
 62
     5
420
      255
176
     1
290
     0
176
     1
 90
       50
176
     1
 90
       50
176
     1
 90
       50
176
     1
290
     0
176
     1
 90
       50
176
     1
 62
   256
176
     0
 40
1.0
176
     0
 90
        2
176
     1
  1
strokes_ogs.tif
176
     1
290
     0
176
     1
 40
1.0
176
     1
 40
1.0
176
     1
  0
DICTIONARYVAR
  5
1755F
102
{ACAD_REACTORS
330
1633
102
}
330
1633
100
DictionaryVariables
280
     0
  1
1:1
  0
DICTIONARYVAR
  5
1755B
102
{ACAD_REACTORS
330
1633
102
}
330
1633
100
DictionaryVariables
280
     0
  1
STANDARD
  0
DICTIONARYVAR
  5
15FDD
102
{ACAD_REACTORS
330
1633
102
}
330
1633
100
DictionaryVariables
280
     0
  1
STANDARD
  0
DICTIONARYVAR
  5
1755C
102
{ACAD_REACTORS
330
1633
102
}
330
1633
100
DictionaryVariables
280
     0
  1
Metric50
  0
DICTIONARYVAR
  5
1755D
102
{ACAD_REACTORS
330
1633
102
}
330
1633
100
DictionaryVariables
280
     0
  1
Metric50
  0
DICTIONARYVAR
  5
B5DA
102
{ACAD_REACTORS
330
1633
102
}
330
1633
100
DictionaryVariables
280
     0
  1
1
  0
DICTIONARYVAR
  5
17561
102
{ACAD_REACTORS
330
1633
102
}
330
1633
100
DictionaryVariables
280
     0
  1
1
  0
DICTIONARYVAR
  5
17562
102
{ACAD_REACTORS
330
1633
102
}
330
1633
100
DictionaryVariables
280
     0
  1
15
  0
DICTIONARYVAR
  5
17560
102
{ACAD_REACTORS
330
1633
102
}
330
1633
100
DictionaryVariables
280
     0
  1
0
  0
DICTIONARYVAR
  5
1755E
102
{ACAD_REACTORS
330
1633
102
}
330
1633
100
DictionaryVariables
280
     0
  1
0
  0
DICTIONARYVAR
  5
1634
102
{ACAD_REACTORS
330
1633
102
}
330
1633
100
DictionaryVariables
280
     0
  1
96
  0
XRECORD
  5
D4EF
102
{ACAD_REACTORS
330
D4ED
102
}
330
D4ED
100
AcDbXrecord
280
     1
  0
DICTIONARY
  5
175A2
330
15824
100
AcDbDictionary
280
     1
281
     1
  3
ACAD_ROUNDTRIP_2008_TABLESTYLE_CELLSTYLEMAP
360
175A3
  0
CELLSTYLEMAP
  5
175A3
102
{ACAD_REACTORS
330
175A2
102
}
330
175A2
100
AcDbCellStyleMap
 90
        3
300
CELLSTYLE
  1
TABLEFORMAT_BEGIN
 90
        5
170
     1
 91
        0
 92
    32768
 62
   257
 93
        1
300
CONTENTFORMAT
  1
CONTENTFORMAT_BEGIN
 90
        0
 91
        0
 92
      512
 93
        0
300

 40
0.0
140
1.0
 94
        5
 62
     0
340
F
144
6.0
309
CONTENTFORMAT_END
171
     1
301
MARGIN
  1
CELLMARGIN_BEGIN
 40
1.5
 40
1.5
 40
1.5
 40
1.5
 40
0.18
 40
0.18
309
CELLMARGIN_END
 94
        6
 95
        1
302
GRIDFORMAT
  1
GRIDFORMAT_BEGIN
 90
        0
 91
        1
 62
     0
 92
       -2
340
0
 93
        0
 40
0.045
309
GRIDFORMAT_END
 95
        2
302
GRIDFORMAT
  1
GRIDFORMAT_BEGIN
 90
        0
 91
        1
 62
     0
 92
       -2
340
0
 93
        0
 40
0.045
309
GRIDFORMAT_END
 95
        4
302
GRIDFORMAT
  1
GRIDFORMAT_BEGIN
 90
        0
 91
        1
 62
     0
 92
       -2
340
0
 93
        0
 40
0.045
309
GRIDFORMAT_END
 95
        8
302
GRIDFORMAT
  1
GRIDFORMAT_BEGIN
 90
        0
 91
        1
 62
     0
 92
       -2
340
0
 93
        0
 40
0.045
309
GRIDFORMAT_END
 95
       16
302
GRIDFORMAT
  1
GRIDFORMAT_BEGIN
 90
        0
 91
        1
 62
     0
 92
       -2
340
0
 93
        0
 40
0.045
309
GRIDFORMAT_END
 95
       32
302
GRIDFORMAT
  1
GRIDFORMAT_BEGIN
 90
        0
 91
        1
 62
     0
 92
       -2
340
0
 93
        0
 40
0.045
309
GRIDFORMAT_END
309
TABLEFORMAT_END
  1
CELLSTYLE_BEGIN
 90
        1
 91
        1
300
_TITLE
309
CELLSTYLE_END
300
CELLSTYLE
  1
TABLEFORMAT_BEGIN
 90
        5
170
     1
 91
        0
 92
        0
 62
   257
 93
        1
300
CONTENTFORMAT
  1
CONTENTFORMAT_BEGIN
 90
        0
 91
        0
 92
      512
 93
        0
300

 40
0.0
140
1.0
 94
        5
 62
     0
340
F
144
4.5
309
CONTENTFORMAT_END
171
     1
301
MARGIN
  1
CELLMARGIN_BEGIN
 40
1.5
 40
1.5
 40
1.5
 40
1.5
 40
0.18
 40
0.18
309
CELLMARGIN_END
 94
        6
 95
        1
302
GRIDFORMAT
  1
GRIDFORMAT_BEGIN
 90
        0
 91
        1
 62
     0
 92
       -2
340
0
 93
        0
 40
0.045
309
GRIDFORMAT_END
 95
        2
302
GRIDFORMAT
  1
GRIDFORMAT_BEGIN
 90
        0
 91
        1
 62
     0
 92
       -2
340
0
 93
        0
 40
0.045
309
GRIDFORMAT_END
 95
        4
302
GRIDFORMAT
  1
GRIDFORMAT_BEGIN
 90
        0
 91
        1
 62
     0
 92
       -2
340
0
 93
        0
 40
0.045
309
GRIDFORMAT_END
 95
        8
302
GRIDFORMAT
  1
GRIDFORMAT_BEGIN
 90
        0
 91
        1
 62
     0
 92
       -2
340
0
 93
        0
 40
0.045
309
GRIDFORMAT_END
 95
       16
302
GRIDFORMAT
  1
GRIDFORMAT_BEGIN
 90
        0
 91
        1
 62
     0
 92
       -2
340
0
 93
        0
 40
0.045
309
GRIDFORMAT_END
 95
       32
302
GRIDFORMAT
  1
GRIDFORMAT_BEGIN
 90
        0
 91
        1
 62
     0
 92
       -2
340
0
 93
        0
 40
0.045
309
GRIDFORMAT_END
309
TABLEFORMAT_END
  1
CELLSTYLE_BEGIN
 90
        2
 91
        1
300
_HEADER
309
CELLSTYLE_END
300
CELLSTYLE
  1
TABLEFORMAT_BEGIN
 90
        5
170
     1
 91
        0
 92
        0
 62
   257
 93
        1
300
CONTENTFORMAT
  1
CONTENTFORMAT_BEGIN
 90
        0
 91
        0
 92
      512
 93
        0
300

 40
0.0
140
1.0
 94
        2
 62
     0
340
F
144
4.5
309
CONTENTFORMAT_END
171
     1
301
MARGIN
  1
CELLMARGIN_BEGIN
 40
1.5
 40
1.5
 40
1.5
 40
1.5
 40
0.18
 40
0.18
309
CELLMARGIN_END
 94
        6
 95
        1
302
GRIDFORMAT
  1
GRIDFORMAT_BEGIN
 90
        0
 91
        1
 62
     0
 92
       -2
340
0
 93
        0
 40
0.045
309
GRIDFORMAT_END
 95
        2
302
GRIDFORMAT
  1
GRIDFORMAT_BEGIN
 90
        0
 91
        1
 62
     0
 92
       -2
340
0
 93
        0
 40
0.045
309
GRIDFORMAT_END
 95
        4
302
GRIDFORMAT
  1
GRIDFORMAT_BEGIN
 90
        0
 91
        1
 62
     0
 92
       -2
340
0
 93
        0
 40
0.045
309
GRIDFORMAT_END
 95
        8
302
GRIDFORMAT
  1
GRIDFORMAT_BEGIN
 90
        0
 91
        1
 62
     0
 92
       -2
340
0
 93
        0
 40
0.045
309
GRIDFORMAT_END
 95
       16
302
GRIDFORMAT
  1
GRIDFORMAT_BEGIN
 90
        0
 91
        1
 62
     0
 92
       -2
340
0
 93
        0
 40
0.045
309
GRIDFORMAT_END
 95
       32
302
GRIDFORMAT
  1
GRIDFORMAT_BEGIN
 90
        0
 91
        1
 62
     0
 92
       -2
340
0
 93
        0
 40
0.045
309
GRIDFORMAT_END
309
TABLEFORMAT_END
  1
CELLSTYLE_BEGIN
 90
        3
 91
        2
300
_DATA
309
CELLSTYLE_END
  0
ENDSEC
  0
SECTION
  2
ACDSDATA
 70
     2
 71
     8
  0
ACDSSCHEMA
 90
        0
  1
AcDb_Thumbnail_Schema
  2
AcDbDs::ID
280
    10
 91
        8
  2
Thumbnail_Data
280
    15
 91
        0
101
ACDSRECORD
 95
        0
 90
        1
  2
AcDbDs::TreatedAsObjectData
280
     1
291
     1
101
ACDSRECORD
 95
        0
 90
        2
  2
AcDbDs::Legacy
280
     1
291
     1
101
ACDSRECORD
  1
AcDbDs::ID
 90
        3
  2
AcDs:Indexable
280
     1
291
     1
101
ACDSRECORD
  1
AcDbDs::ID
 90
        4
  2
AcDbDs::HandleAttribute
280
     7
282
     1
  0
ACDSSCHEMA
 90
        1
  1
AcDbDs::TreatedAsObjectDataSchema
  2
AcDbDs::TreatedAsObjectData
280
     1
 91
        0
  0
ACDSSCHEMA
 90
        2
  1
AcDbDs::LegacySchema
  2
AcDbDs::Legacy
280
     1
 91
        0
  0
ACDSSCHEMA
 90
        3
  1
AcDbDs::IndexedPropertySchema
  2
AcDs:Indexable
280
     1
 91
        0
  0
ACDSSCHEMA
 90
        4
  1
AcDbDs::HandleAttributeSchema
  2
AcDbDs::HandleAttribute
280
     7
 91
        1
284
     1
  0
ACDSRECORD
 90
        0
  2
AcDbDs::ID
280
    10
320
1741B
  2
Thumbnail_Data
280
    15
 94
     1660
310
89504E470D0A1A0A0000000D4948445200000100000000A50803000000840AD3BD00000300504C5445FFFFFFFFFFFFFFFFFF0000000000000000000000000000000000000000000000000000330000660000990000CC0000FF0033000033330033660033990033CC0033FF0066000066330066660066990066CC0066FF0099
310
000099330099660099990099CC0099FF00CC0000CC3300CC6600CC9900CCCC00CCFF00FF0000FF3300FF6600FF9900FFCC00FFFF3300003300333300663300993300CC3300FF3333003333333333663333993333CC3333FF3366003366333366663366993366CC3366FF3399003399333399663399993399CC3399FF33CC00
310
33CC3333CC6633CC9933CCCC33CCFF33FF0033FF3333FF6633FF9933FFCC33FFFF6600006600336600666600996600CC6600FF6633006633336633666633996633CC6633FF6666006666336666666666996666CC6666FF6699006699336699666699996699CC6699FF66CC0066CC3366CC6666CC9966CCCC66CCFF66FF0066
310
FF3366FF6666FF9966FFCC66FFFF9900009900339900669900999900CC9900FF9933009933339933669933999933CC9933FF9966009966339966669966999966CC9966FF9999009999339999669999999999CC9999FF99CC0099CC3399CC6699CC9999CCCC99CCFF99FF0099FF3399FF6699FF9999FFCC99FFFFCC0000CC00
310
33CC0066CC0099CC00CCCC00FFCC3300CC3333CC3366CC3399CC33CCCC33FFCC6600CC6633CC6666CC6699CC66CCCC66FFCC9900CC9933CC9966CC9999CC99CCCC99FFCCCC00CCCC33CCCC66CCCC99CCCCCCCCCCFFCCFF00CCFF33CCFF66CCFF99CCFFCCCCFFFFFF0000FF0033FF0066FF0099FF00CCFF00FFFF3300FF3333
310
FF3366FF3399FF33CCFF33FFFF6600FF6633FF6666FF6699FF66CCFF66FFFF9900FF9933FF9966FF9999FF99CCFF99FFFFCC00FFCC33FFCC66FFCC99FFCCCCFFCCFFFFFF00FFFF33FFFF66FFFF99FFFFCCFFFFFF0000000D0D0D1A1A1A2828283535354343435050505D5D5D6B6B6B787878868686939393A1A1A1AEAEAEBB
310
BBBBC9C9C9D6D6D6E4E4E4F1F1F1FFFFFF000000000000000000000000000000000000000000000000000000000000AD4AB4E4000001884944415478DAEDDA41AAC2301405D02CA7FBDF427692B18BF8AD16F58322145362EE7960C9C089A7DEFB145A2EE1532E2579AE00AD94B64EE2F50E103A00D201F60E280044000000
310
004A10800800000040093ECF32CB1C0698E4362F472300000080B901E24BD016D0010000D802B6802DA003000050820044000000004A108008000000400902100100BD00DA9B730C40BD5FFE9F33005AABB56EAFEBB9D5B69F934A70B06FC0F900CF4F2D7D7E8269C20E7809507B27E11700BA12F40618FE41CBCE00DBDD3B
310
A9CE472CC175972DB505033CC29CFB53F8F6F16F6D960B704A9D2BC1010194E02F97E0B7016A620494E0FE362518FC5F6089FE2FB039DA02B640F616187E0000E85B820044000000004A1080080000004009021001000000284100220000000025084004000000A00401880000000094200011000000801204200200000050
310
820044000000004A1080080000004009021001000000284100A3466096390A30FD004807F854820044000000004A10800800000060EA126CEB94D0AB35B80284CF1FD28D4A6584D2DE970000000049454E44AE4260820D259741CBB47072651A95A2807832C194FD8CB553AE1468869C49FBB6F6AE64346B77D10053A54870
310
5C3FB02E50500C2D1CCF01E0A90687B948A906C83C95BA5718EC56A6DA127BB116482E10CB7C870B74D70FACA12FD52A4C36ABD502DE6A70BB08066F3154946C9E570BECC8039C6A7E3980FA1EDA1CECF6D55CC05D0C955683BF02A06481165583075F02381580D58063CAE10B6B815200BF550C55BA396AB21F094E752F03
310
30B9225E143FCE00600A80B15B15403AAD9AB44BFCE5C0D12E6092A5D4ADBE02647EEF457E5B03C22D34E0C215106EA1013500F45ED90D4CFA7B9EABC5D396EFDF5C7150F7258773A3C0F12BE0100DA804E0780DB8B01C2E1CDE41E92D0016EEF9367703B0B5587F403174FBC6464900E00200000000104100E00200000000
310
104100E00200000000104100E002000000001041A2001A00000010058802440134000000400401800B00000000400401800B00000000400401800B00000000400401800B8CBF03FDF5B615C0E31B00DE0E20278200C00500000000208200C005000000003C5A04E3BFA67CE79130D8027879FB07A7DB3E834A607A0A000000
310
0049454E44AE426082
  0
ACDSRECORD
 90
        0
  2
AcDbDs::ID
280
    10
320
26A9
  2
Thumbnail_Data
280
    15
 94
     2451
310
89504E470D0A1A0A0000000D4948445200000100000000800803000000D36B473800000300504C5445212830FFFFFF2128300000000000000000000000000000000000000000000000000000330000660000990000CC0000FF0033000033330033660033990033CC0033FF0066000066330066660066990066CC0066FF0099
310
000099330099660099990099CC0099FF00CC0000CC3300CC6600CC9900CCCC00CCFF00FF0000FF3300FF6600FF9900FFCC00FFFF3300003300333300663300993300CC3300FF3333003333333333663333993333CC3333FF3366003366333366663366993366CC3366FF3399003399333399663399993399CC3399FF33CC00
310
33CC3333CC6633CC9933CCCC33CCFF33FF0033FF3333FF6633FF9933FFCC33FFFF6600006600336600666600996600CC6600FF6633006633336633666633996633CC6633FF6666006666336666666666996666CC6666FF6699006699336699666699996699CC6699FF66CC0066CC3366CC6666CC9966CCCC66CCFF66FF0066
310
FF3366FF6666FF9966FFCC66FFFF9900009900339900669900999900CC9900FF9933009933339933669933999933CC9933FF9966009966339966669966999966CC9966FF9999009999339999669999999999CC9999FF99CC0099CC3399CC6699CC9999CCCC99CCFF99FF0099FF3399FF6699FF9999FFCC99FFFFCC0000CC00
310
33CC0066CC0099CC00CCCC00FFCC3300CC3333CC3366CC3399CC33CCCC33FFCC6600CC6633CC6666CC6699CC66CCCC66FFCC9900CC9933CC9966CC9999CC99CCCC99FFCCCC00CCCC33CCCC66CCCC99CCCCCCCCCCFFCCFF00CCFF33CCFF66CCFF99CCFFCCCCFFFFFF0000FF0033FF0066FF0099FF00CCFF00FFFF3300FF3333
310
FF3366FF3399FF33CCFF33FFFF6600FF6633FF6666FF6699FF66CCFF66FFFF9900FF9933FF9966FF9999FF99CCFF99FFFFCC00FFCC33FFCC66FFCC99FFCCCCFFCCFFFFFF00FFFF33FFFF66FFFF99FFFFCCFFFFFF0000000D0D0D1A1A1A2828283535354343435050505D5D5D6B6B6B787878868686939393A1A1A1AEAEAEBB
310
BBBBC9C9C9D6D6D6E4E4E4F1F1F1FFFFFF0000000000000000000000000000000000000000000000000000000000002E4550F1000002924944415478DAED9CDD7683201084E771F6FD5F8167E2BE18106985044F4D1B76667AA26273B35F963F19017EAB903F213CAEF2E1F49D6FDABEEB485BF0292443D859F4213585E501
310
C4ACED9CE28931A43F7B1CE3E353FEED17007D06A80D380108B012166706A4A3854EAC440052069464A7AB02251C1B87DFC101B8436098FE61FD01D8628A17A2720860D0F8310130B3BD314C5766B99C4B473359EE5BBD396C2ED71B1E5B5189B216070577006A88FB653DA196E019402C795DAB4293F976A97D186A910CE8
310
64FEF807770420E66C4793F7E00270DB88625100EF8FFFC389447600E3CEBFEDFD08018005C01332EFAB039FC4C0AC8CFCF36808D63C2631D49941275FDC003872FFE728A800184D10B800601F28C11980DA0D1A3815412E0110000110006A5DE9927D2E8C5C08CBEBD2D86C60C1EFE2E81C82E079799CD421426F90786991
310
71EF117A6592729E01324ACA2829A3A48C92324A86274341D700667C82BE8D92F209E2A24F30C827E811809E0942BAA73159DC2879B687D039454F00D05D367607E02EA7E8B29253B4C9774E00777703AC00D807426159A360A9E7ED7B328733CEA6BB82A501B42EB03FB1CA7E1680C6F876BC2D80AB56594D863C1825D135
310
4A5A67BA0026A7A839B7CACA29AA67191A090A80000880C42BF29521F63D44D85787C33E02965778109AACB2FE4D520900B3498ADD25B65904F75E80D32A9B3E566CB2AC5659AE0C501B70B917D02B338E33807E24D8CC0548DF1B3C6683D329A3E701F0277985412E0110000110805BFAD3E537569EB1CB8FB79676FBBEC0
310
D93BE30D00D8AB00BD5D1EEC76F9DBEB80006867E9D5DCE2F904D9E56597E7B4CBBFAA1BEF69045CD8E5CD1B00FC8CB7B981FEEEF35E00E05906343B4BD71603B40D8324499224499224FDB7BE007DBA9808A4E1B0D80000000049454E44AE426082AD058CE4376301F013A4994B574B88A04D79C66AA91849001280042001
310
4800128004206C4BE16464E164F03542C15789055F27187DA5E826DDE01D8593A91B4CDDA065E783EA069F2E105A343570405CDDE0FF2F2907417583312C2039E09051E0C67180C61C0691BAC1D76468B16EF04E0084AF2293F9804332428A3BE806257583BA07C0D40D5E1E80FC680CD93ABA994EDEDD916A02D0BDD1CABE
310
A2135EA61DC65AED302F8A075849DCC8263A73C05416C08B3FE756C3B6772D04A08A1FB42282BA32F4D7DA61389D30A9A8CBF366E9ECBAC5F3AA752934A51F14CA2A395B239DA3406F1BE8AE1DF60EAF5E37A8DA970926FECF4BA2658F4EA4491D38E5289CC3AB5B4A0EFC483ADBE8A68E95CE62A21DAE0038FAAFE524EEC4
310
018D059CCA05722ED065D2FD877476A6B08CE24ED259B48AF9462D096DA5B3B5C0C0B763834EDA61E8543A6B02A94637E6E2637490CEFA28DF2E093800901DE100C579543482F484DC75A34BAEA9D1210EF81804A0B9B881034820CE03A19F12919DB4E1F357E3C00FD2591C219DBDFA2870847476C9E7CF371E0689D87CB4
310
A3ED5800477F7D94A33411B62BE213203C156E99D04AEDE09374D6170B525F5ACC7C9DA4B3DA513AEB2AA471FD044C922033A90093D81B10EFC641A8FAB2310402936177E92CFE0200C486AE88985416855DBF5A3660E80019705B54C30A4D39EDB01592631DF5154BABE564285362D9D2051280042001C8962D5D20680BBE
310
482AF832B9E00B25832F954DF1341880DC7415B9E96A44CD90BE2C0081C5D32F0BA89FD80603605895125A396ABAC1A8E2E9E737B1A380E2E93016901C90A3C0E73820375D8D1A09BE2643299E8E381BCC7C4066840C82F0E269A4787A177E299E4E0012800420014800128004200158166C9DB082C4636B0509DE7F6B0100
310
930A12EDEEF317AC20B1784BEA735790C05C0509D8D6F2EF2A4800CB65E5A7AE20B176F779B088105B76203D5DCBDDE765B680C2172B4890F77B5FF8D9EEF30500341524C0BBCF63270027AD20C1AAA8427C544203C795D0386905896CD93A84C2AB4B6874DC7DBE0F004D0589F9CDE769B3F5C98FBE49824D94FFAD0A12DA
310
5490E0DDE7A71524BAEF3EFF770509B9790589BA8FB2C5FE6D05892AABBE134179F1B74D79FC46CB6394848D21E1A92B48ACA1893D7190D9B58F76AC94405B54A0DBEEF3075590F81C30FADDE7E14B64B80A1268D8B00B00541FC0E6BA6E0776CC5490E0DBC12524DE8F8373BBCFF3A807F5B6D127265E524142FEA820E18C
310
E0820E7E4C058903268D671812B29DB4FD03ECE89DD3490C45E00000000049454E44AE426082
  0
ENDSEC
  0
EOF
