  0
SECTION
  2
HEADER
  9
$ACADVER
  1
AC1032
  9
$ACADMAINTVER
 90
      155
  9
$DWGCODEPAGE
  3
ANSI_1252
  9
$LASTSAVEDBY
  1
falinoori
  9
$REQUIREDVERSIONS
160
                 0
  9
$INSBASE
 10
0.0
 20
0.0
 30
0.0
  9
$EXTMIN
 10
-690.7814611760332
 20
702.0738900298494
 30
0.0
  9
$EXTMAX
 10
4051.761175777739
 20
1657.97657925788
 30
0.0
  9
$LIMMIN
 10
0.0
 20
0.0
  9
$LIMMAX
 10
420.0
 20
297.0
  9
$ORTHOMODE
 70
     0
  9
$REGENMODE
 70
     1
  9
$FILLMODE
 70
     1
  9
$QTEXTMODE
 70
     0
  9
$MIRRTEXT
 70
     1
  9
$LTSCALE
 40
1.0
  9
$ATTMODE
 70
     1
  9
$TEXTSIZE
 40
2.5
  9
$TRACEWID
 40
1.0
  9
$TEXTSTYLE
  7
STANDARD
  9
$CLAYER
  8
ANCON-TEXT
  9
$CELTYPE
  6
BYLAYER
  9
$CECOLOR
 62
   256
  9
$CELTSCALE
 40
1.0
  9
$DISPSILH
 70
     0
  9
$DIMSCALE
 40
1.0
  9
$DIMASZ
 40
5.0
  9
$DIMEXO
 40
2.0
  9
$DIMDLI
 40
3.75
  9
$DIMRND
 40
0.0
  9
$DIMDLE
 40
0.0
  9
$DIMEXE
 40
2.0
  9
$DIMTP
 40
0.0
  9
$DIMTM
 40
0.0
  9
$DIMTXT
 40
5.0
  9
$DIMCEN
 40
2.0
  9
$DIMTSZ
 40
0.0
  9
$DIMTOL
 70
     0
  9
$DIMLIM
 70
     0
  9
$DIMTIH
 70
     0
  9
$DIMTOH
 70
     1
  9
$DIMSE1
 70
     0
  9
$DIMSE2
 70
     0
  9
$DIMTAD
 70
     0
  9
$DIMZIN
 70
    12
  9
$DIMBLK
  1

  9
$DIMASO
 70
     1
  9
$DIMSHO
 70
     1
  9
$DIMPOST
  1

  9
$DIMAPOST
  1

  9
$DIMALT
 70
     0
  9
$DIMALTD
 70
     4
  9
$DIMALTF
 40
0.0394
  9
$DIMLFAC
 40
1.0
  9
$DIMTOFL
 70
     1
  9
$DIMTVP
 40
0.0
  9
$DIMTIX
 70
     0
  9
$DIMSOXD
 70
     0
  9
$DIMSAH
 70
     0
  9
$DIMBLK1
  1

  9
$DIMBLK2
  1

  9
$DIMSTYLE
  2
STANDARD
  9
$DIMCLRD
 70
     3
  9
$DIMCLRE
 70
     3
  9
$DIMCLRT
 70
     2
  9
$DIMTFAC
 40
2.0
  9
$DIMGAP
 40
2.0
  9
$DIMJUST
 70
     0
  9
$DIMSD1
 70
     0
  9
$DIMSD2
 70
     0
  9
$DIMTOLJ
 70
     1
  9
$DIMTZIN
 70
    12
  9
$DIMALTZ
 70
     0
  9
$DIMALTTZ
 70
     0
  9
$DIMUPT
 70
     0
  9
$DIMDEC
 70
     1
  9
$DIMTDEC
 70
     1
  9
$DIMALTU
 70
     8
  9
$DIMALTTD
 70
     4
  9
$DIMTXSTY
  7
STANDARD
  9
$DIMAUNIT
 70
     0
  9
$DIMADEC
 70
     1
  9
$DIMALTRND
 40
0.0
  9
$DIMAZIN
 70
     3
  9
$DIMDSEP
 70
    46
  9
$DIMATFIT
 70
     3
  9
$DIMFRAC
 70
     0
  9
$DIMLDRBLK
  1

  9
$DIMLUNIT
 70
     2
  9
$DIMLWD
 70
    -2
  9
$DIMLWE
 70
    -2
  9
$DIMTMOVE
 70
     0
  9
$DIMFXL
 40
1.0
  9
$DIMFXLON
 70
     0
  9
$DIMJOGANG
 40
0.7853981633974483
  9
$DIMTFILL
 70
     0
  9
$DIMTFILLCLR
 70
     0
  9
$DIMARCSYM
 70
     0
  9
$DIMLTYPE
  6

  9
$DIMLTEX1
  6

  9
$DIMLTEX2
  6

  9
$DIMTXTDIRECTION
 70
     0
  9
$LUNITS
 70
     2
  9
$LUPREC
 70
     4
  9
$SKETCHINC
 40
1.0
  9
$FILLETRAD
 40
1.0
  9
$AUNITS
 70
     0
  9
$AUPREC
 70
     0
  9
$MENU
  1
.
  9
$ELEVATION
 40
0.0
  9
$PELEVATION
 40
0.0
  9
$THICKNESS
 40
0.0
  9
$LIMCHECK
 70
     0
  9
$CHAMFERA
 40
0.0
  9
$CHAMFERB
 40
0.0
  9
$CHAMFERC
 40
20.0
  9
$CHAMFERD
 40
0.0
  9
$SKPOLY
 70
     0
  9
$TDCREATE
 40
2451572.394884260
  9
$TDUCREATE
 40
2451571.936554862
  9
$TDUPDATE
 40
2459585.538553241
  9
$TDUUPDATE
 40
2459585.080219907
  9
$TDINDWG
 40
17.2848157986
  9
$TDUSRTIMER
 40
17.2848157986
  9
$USRTIMER
 70
     1
  9
$ANGBASE
 50
0.0
  9
$ANGDIR
 70
     0
  9
$PDMODE
 70
     0
  9
$PDSIZE
 40
0.0
  9
$PLINEWID
 40
0.0
  9
$SPLFRAME
 70
     0
  9
$SPLINETYPE
 70
     6
  9
$SPLINESEGS
 70
     8
  9
$HANDSEED
  5
174D0
  9
$SURFTAB1
 70
     6
  9
$SURFTAB2
 70
     6
  9
$SURFTYPE
 70
     6
  9
$SURFU
 70
     6
  9
$SURFV
 70
     6
  9
$UCSBASE
  2

  9
$UCSNAME
  2

  9
$UCSORG
 10
0.0
 20
0.0
 30
0.0
  9
$UCSXDIR
 10
1.0
 20
0.0
 30
0.0
  9
$UCSYDIR
 10
0.0
 20
1.0
 30
0.0
  9
$UCSORTHOREF
  2

  9
$UCSORTHOVIEW
 70
     0
  9
$UCSORGTOP
 10
0.0
 20
0.0
 30
0.0
  9
$UCSORGBOTTOM
 10
0.0
 20
0.0
 30
0.0
  9
$UCSORGLEFT
 10
0.0
 20
0.0
 30
0.0
  9
$UCSORGRIGHT
 10
0.0
 20
0.0
 30
0.0
  9
$UCSORGFRONT
 10
0.0
 20
0.0
 30
0.0
  9
$UCSORGBACK
 10
0.0
 20
0.0
 30
0.0
  9
$PUCSBASE
  2

  9
$PUCSNAME
  2

  9
$PUCSORG
 10
0.0
 20
0.0
 30
0.0
  9
$PUCSXDIR
 10
1.0
 20
0.0
 30
0.0
  9
$PUCSYDIR
 10
0.0
 20
1.0
 30
0.0
  9
$PUCSORTHOREF
  2

  9
$PUCSORTHOVIEW
 70
     0
  9
$PUCSORGTOP
 10
0.0
 20
0.0
 30
0.0
  9
$PUCSORGBOTTOM
 10
0.0
 20
0.0
 30
0.0
  9
$PUCSORGLEFT
 10
0.0
 20
0.0
 30
0.0
  9
$PUCSORGRIGHT
 10
0.0
 20
0.0
 30
0.0
  9
$PUCSORGFRONT
 10
0.0
 20
0.0
 30
0.0
  9
$PUCSORGBACK
 10
0.0
 20
0.0
 30
0.0
  9
$USERI1
 70
     0
  9
$USERI2
 70
     0
  9
$USERI3
 70
     0
  9
$USERI4
 70
     0
  9
$USERI5
 70
     0
  9
$USERR1
 40
0.0
  9
$USERR2
 40
0.0
  9
$USERR3
 40
0.0
  9
$USERR4
 40
0.0
  9
$USERR5
 40
0.0
  9
$WORLDVIEW
 70
     1
  9
$SHADEDGE
 70
     3
  9
$SHADEDIF
 70
    70
  9
$TILEMODE
 70
     1
  9
$MAXACTVP
 70
    48
  9
$PINSBASE
 10
0.0
 20
0.0
 30
0.0
  9
$PLIMCHECK
 70
     0
  9
$PEXTMIN
 10
42.54500305652618
 20
27.30500061511992
 30
0.0
  9
$PEXTMAX
 10
382.9050275087356
 20
245.7450055360794
 30
0.0
  9
$PLIMMIN
 10
-3.17498779296875
 20
-3.174999952316284
  9
$PLIMMAX
 10
428.6250305175781
 20
276.2249939441681
  9
$UNITMODE
 70
     0
  9
$VISRETAIN
 70
     1
  9
$PLINEGEN
 70
     0
  9
$PSLTSCALE
 70
     1
  9
$TREEDEPTH
 70
  3020
  9
$CMLSTYLE
  2
STANDARD
  9
$CMLJUST
 70
     0
  9
$CMLSCALE
 40
20.0
  9
$PROXYGRAPHICS
 70
     1
  9
$MEASUREMENT
 70
     1
  9
$CELWEIGHT
370
    -1
  9
$ENDCAPS
280
     0
  9
$JOINSTYLE
280
     0
  9
$LWDISPLAY
290
     0
  9
$INSUNITS
 70
     0
  9
$HYPERLINKBASE
  1

  9
$STYLESHEET
  1
monochrome.ctb
  9
$XEDIT
290
     1
  9
$CEPSNTYPE
380
     0
  9
$PSTYLEMODE
290
     1
  9
$FINGERPRINTGUID
  2
{A577D464-EACF-11D3-8670-00A0C9E08C48}
  9
$VERSIONGUID
  2
{B9946E19-0D07-0A43-A788-C1B1464CB68E}
  9
$EXTNAMES
290
     1
  9
$PSVPSCALE
 40
0.0
  9
$OLESTARTUP
290
     0
  9
$SORTENTS
280
    96
  9
$INDEXCTL
280
     0
  9
$HIDETEXT
280
     0
  9
$XCLIPFRAME
280
     0
  9
$HALOGAP
280
     0
  9
$OBSCOLOR
 70
   257
  9
$OBSLTYPE
280
     0
  9
$INTERSECTIONDISPLAY
280
     0
  9
$INTERSECTIONCOLOR
 70
   257
  9
$DIMASSOC
280
     1
  9
$PROJECTNAME
  1

  9
$CAMERADISPLAY
290
     0
  9
$LENSLENGTH
 40
50.0
  9
$CAMERAHEIGHT
 40
0.0
  9
$STEPSPERSEC
 40
2.0
  9
$STEPSIZE
 40
6.0
  9
$3DDWFPREC
 40
2.0
  9
$PSOLWIDTH
 40
0.25
  9
$PSOLHEIGHT
 40
4.0
  9
$LOFTANG1
 40
1.570796326794896
  9
$LOFTANG2
 40
1.570796326794896
  9
$LOFTMAG1
 40
0.0
  9
$LOFTMAG2
 40
0.0
  9
$LOFTPARAM
 70
     7
  9
$LOFTNORMALS
280
     1
  9
$LATITUDE
 40
37.795
  9
$LONGITUDE
 40
-122.394
  9
$NORTHDIRECTION
 40
0.0
  9
$TIMEZONE
 70
 -8000
  9
$LIGHTGLYPHDISPLAY
280
     1
  9
$TILEMODELIGHTSYNCH
280
     1
  9
$CMATERIAL
347
15810
  9
$SOLIDHIST
280
     1
  9
$SHOWHIST
280
     1
  9
$DWFFRAME
280
     2
  9
$DGNFRAME
280
     0
  9
$REALWORLDSCALE
290
     1
  9
$INTERFERECOLOR
 62
     1
  9
$INTERFEREOBJVS
345
1581C
  9
$INTERFEREVPVS
346
15819
  9
$CSHADOW
280
     0
  9
$SHADOWPLANELOCATION
 40
0.0
  0
ENDSEC
  0
SECTION
  2
CLASSES
  0
CLASS
  1
DICTIONARYVAR
  2
AcDbDictionaryVar
  3
ObjectDBX Classes
 90
        0
 91
       11
280
     0
281
     0
  0
CLASS
  1
ACDBDICTIONARYWDFLT
  2
AcDbDictionaryWithDefault
  3
ObjectDBX Classes
 90
        0
 91
        1
280
     0
281
     0
  0
CLASS
  1
SORTENTSTABLE
  2
AcDbSortentsTable
  3
ObjectDBX Classes
 90
        0
 91
        1
280
     0
281
     0
  0
CLASS
  1
MATERIAL
  2
AcDbMaterial
  3
ObjectDBX Classes
 90
     1153
 91
        3
280
     0
281
     0
  0
CLASS
  1
VISUALSTYLE
  2
AcDbVisualStyle
  3
ObjectDBX Classes
 90
     4095
 91
       26
280
     0
281
     0
  0
CLASS
  1
TABLESTYLE
  2
AcDbTableStyle
  3
ObjectDBX Classes
 90
     4095
 91
        1
280
     0
281
     0
  0
CLASS
  1
DIMASSOC
  2
AcDbDimAssoc
  3
"AcDbDimAssoc|Product Desc:     AcDim ARX App For Dimension|Company:          Autodesk, Inc.|WEB Address:      www.autodesk.com"
 90
        0
 91
        0
280
     0
281
     0
  0
CLASS
  1
SCALE
  2
AcDbScale
  3
ObjectDBX Classes
 90
     1153
 91
       17
280
     0
281
     0
  0
CLASS
  1
MLEADERSTYLE
  2
AcDbMLeaderStyle
  3
ACDB_MLEADERSTYLE_CLASS
 90
     4095
 91
        1
280
     0
281
     0
  0
CLASS
  1
ACDBSECTIONVIEWSTYLE
  2
AcDbSectionViewStyle
  3
ObjectDBX Classes
 90
     1025
 91
        1
280
     0
281
     0
  0
CLASS
  1
ACDBDETAILVIEWSTYLE
  2
AcDbDetailViewStyle
  3
ObjectDBX Classes
 90
     1025
 91
        1
280
     0
281
     0
  0
CLASS
  1
ACAD_EVALUATION_GRAPH
  2
AcDbEvalGraph
  3
ObjectDBX Classes
 90
     1153
 91
        1
280
     0
281
     0
  0
CLASS
  1
ACAECUSTOBJ
  2
AcAeEditorObj
  3
AcAeEditorObj
 90
     1024
 91
        1
280
     0
281
     0
  0
CLASS
  1
ACDB_DYNAMICBLOCKPURGEPREVENTER_VERSION
  2
AcDbDynamicBlockPurgePreventer
  3
ObjectDBX Classes
 90
     1153
 91
        1
280
     0
281
     0
  0
CLASS
  1
CELLSTYLEMAP
  2
AcDbCellStyleMap
  3
ObjectDBX Classes
 90
     1152
 91
        1
280
     0
281
     0
  0
ENDSEC
  0
SECTION
  2
TABLES
  0
TABLE
  2
VPORT
  5
8
330
0
100
AcDbSymbolTable
 70
     1
  0
VPORT
  5
1580E
330
8
100
AcDbSymbolTableRecord
100
AcDbViewportTableRecord
  2
*Active
 70
     0
 10
0.0
 20
0.0
 11
1.0
 21
1.0
 12
2827.908641929583
 22
1404.331526409027
 13
0.0
 23
0.0
 14
10.0
 24
10.0
 15
10.0
 25
10.0
 16
0.0
 26
0.0
 36
1.0
 17
0.0
 27
0.0
 37
0.0
 40
388.9790764198076
 41
2.0
 42
50.0
 43
0.0
 44
0.0
 50
0.0
 51
0.0
 71
     0
 72
   100
 73
     1
 74
     1
 75
     0
 76
     0
 77
     0
 78
     0
281
     0
 65
     1
110
0.0
120
0.0
130
0.0
111
1.0
121
0.0
131
0.0
112
0.0
122
1.0
132
0.0
 79
     0
146
0.0
348
15818
 60
     3
 61
     5
292
     1
282
     1
141
0.0
142
0.0
 63
   250
421
  3355443
1001
ACAD_NAV_VCDISPLAY
1070
     3
  0
ENDTAB
  0
TABLE
  2
LTYPE
  5
5
330
0
100
AcDbSymbolTable
 70
     9
  0
LTYPE
  5
12
330
5
100
AcDbSymbolTableRecord
100
AcDbLinetypeTableRecord
  2
BYBLOCK
 70
     0
  3

 72
    65
 73
     0
 40
0.0
  0
LTYPE
  5
13
330
5
100
AcDbSymbolTableRecord
100
AcDbLinetypeTableRecord
  2
BYLAYER
 70
     0
  3

 72
    65
 73
     0
 40
0.0
  0
LTYPE
  5
14
330
5
100
AcDbSymbolTableRecord
100
AcDbLinetypeTableRecord
  2
CONTINUOUS
 70
     0
  3
Solid line
 72
    65
 73
     0
 40
0.0
  0
LTYPE
  5
42E
330
5
100
AcDbSymbolTableRecord
100
AcDbLinetypeTableRecord
  2
CENTER
 70
     0
  3
Center ____ _ ____ _ ____ _ ____ _ ____ _ ____
 72
    65
 73
     4
 40
50.8
 49
31.75
 74
     0
 49
-6.349999999999999
 74
     0
 49
6.349999999999999
 74
     0
 49
-6.349999999999999
 74
     0
  0
LTYPE
  5
D7C8
330
5
100
AcDbSymbolTableRecord
100
AcDbLinetypeTableRecord
  2
ACAD_ISO02W100
 70
     0
  3
ISO dash __ __ __ __ __ __ __ __ __ __ __ __ __
 72
    65
 73
     2
 40
15.0
 49
12.0
 74
     0
 49
-3.0
 74
     0
  0
LTYPE
  5
D84D
330
5
100
AcDbSymbolTableRecord
100
AcDbLinetypeTableRecord
  2
HIDDEN
 70
     0
  3
Hidden __ __ __ __ __ __ __ __ __ __ __ __ __ _
 72
    65
 73
     2
 40
9.524999999999998
 49
6.349999999999999
 74
     0
 49
-3.174999999999999
 74
     0
  0
LTYPE
  5
D84F
330
5
100
AcDbSymbolTableRecord
100
AcDbLinetypeTableRecord
  2
HIDDEN2
 70
     0
  3
Hidden (.5x) _ _ _ _ _ _ _ _ _ _ _ _ _ _ _ _ _
 72
    65
 73
     2
 40
4.762499999999999
 49
3.174999999999999
 74
     0
 49
-1.587499999999999
 74
     0
  0
LTYPE
  5
16081
330
5
100
AcDbSymbolTableRecord
100
AcDbLinetypeTableRecord
  2
CENTER2
 70
     0
  3
Center (.5x) ___ _ ___ _ ___ _ ___ _ ___ _ ___
 72
    65
 73
     4
 40
28.575
 49
19.05
 74
     0
 49
-3.174999999999999
 74
     0
 49
3.174999999999999
 74
     0
 49
-3.174999999999999
 74
     0
  0
ENDTAB
  0
TABLE
  2
LAYER
  5
2
102
{ACAD_XDICTIONARY
360
12626
102
}
330
0
100
AcDbSymbolTable
 70
    16
  0
LAYER
  5
E
102
{ACAD_XDICTIONARY
360
17458
102
}
330
2
100
AcDbSymbolTableRecord
100
AcDbLayerTableRecord
  2
0
 70
     0
 62
     7
  6
CONTINUOUS
290
     0
370
    -3
390
26A6
347
12623
348
0
  0
LAYER
  5
5B
330
2
100
AcDbSymbolTableRecord
100
AcDbLayerTableRecord
  2
DEFPOINTS
 70
     0
 62
     7
  6
CONTINUOUS
290
     0
370
    -3
390
26A6
347
12623
348
0
  0
LAYER
  5
1600
102
{ACAD_XDICTIONARY
360
1745A
102
}
330
2
100
AcDbSymbolTableRecord
100
AcDbLayerTableRecord
  2
Defpoint
 70
     0
 62
     9
  6
CONTINUOUS
370
    -3
390
26A6
347
12623
348
0
  0
LAYER
  5
2D49
102
{ACAD_XDICTIONARY
360
1745C
102
}
330
2
100
AcDbSymbolTableRecord
100
AcDbLayerTableRecord
  2
BORDER_A1
 70
     0
 62
     3
  6
CONTINUOUS
370
    -3
390
26A6
347
12623
348
0
  0
LAYER
  5
2D4A
102
{ACAD_XDICTIONARY
360
1745E
102
}
330
2
100
AcDbSymbolTableRecord
100
AcDbLayerTableRecord
  2
BORDER_TEXT_A1
 70
     0
 62
     4
  6
CONTINUOUS
370
    -3
390
26A6
347
12623
348
0
  0
LAYER
  5
2D4B
102
{ACAD_XDICTIONARY
360
17460
102
}
330
2
100
AcDbSymbolTableRecord
100
AcDbLayerTableRecord
  2
BORDER_ITEM_LIST_A1
 70
     0
 62
     2
  6
CONTINUOUS
370
    -3
390
26A6
347
12623
348
0
  0
LAYER
  5
D7C2
102
{ACAD_XDICTIONARY
360
17462
102
}
330
2
100
AcDbSymbolTableRecord
100
AcDbLayerTableRecord
  2
Insert
 70
     0
 62
   210
  6
CONTINUOUS
370
    -3
390
26A6
347
12623
348
0
  0
LAYER
  5
D7C3
102
{ACAD_XDICTIONARY
360
17464
102
}
330
2
100
AcDbSymbolTableRecord
100
AcDbLayerTableRecord
  2
InsertDims
 70
     0
 62
     3
  6
CONTINUOUS
370
    -3
390
26A6
347
12623
348
0
  0
LAYER
  5
D806
102
{ACAD_XDICTIONARY
360
17466
102
}
330
2
100
AcDbSymbolTableRecord
100
AcDbLayerTableRecord
  2
Construction
 70
     0
 62
     7
  6
CONTINUOUS
370
    -3
390
26A6
347
12623
348
0
  0
LAYER
  5
13B64
102
{ACAD_XDICTIONARY
360
17468
102
}
330
2
100
AcDbSymbolTableRecord
100
AcDbLayerTableRecord
  2
UTB20
 70
     0
 62
     7
  6
CONTINUOUS
370
    -3
390
26A6
347
12623
348
0
  0
LAYER
  5
13B65
102
{ACAD_XDICTIONARY
360
1746A
102
}
330
2
100
AcDbSymbolTableRecord
100
AcDbLayerTableRecord
  2
MuscleStartDims
 70
     0
 62
   212
  6
CONTINUOUS
370
    -3
390
26A6
347
12623
348
0
  0
LAYER
  5
13B9C
102
{ACAD_XDICTIONARY
360
1746C
102
}
330
2
100
AcDbSymbolTableRecord
100
AcDbLayerTableRecord
  2
MuscleStart
 70
     0
 62
    23
  6
CONTINUOUS
370
    -3
390
26A6
347
12623
348
0
  0
LAYER
  5
13C06
102
{ACAD_XDICTIONARY
360
1746E
102
}
330
2
100
AcDbSymbolTableRecord
100
AcDbLayerTableRecord
  2
Layer1
 70
     0
 62
    23
  6
CONTINUOUS
370
    -3
390
26A6
347
12623
348
0
  0
LAYER
  5
13EED
102
{ACAD_XDICTIONARY
360
17470
102
}
330
2
100
AcDbSymbolTableRecord
100
AcDbLayerTableRecord
  2
Dimensions Table
 70
     0
 62
     7
  6
CONTINUOUS
370
    -3
390
26A6
347
12623
348
0
  0
LAYER
  5
16088
102
{ACAD_XDICTIONARY
360
16089
102
}
330
2
100
AcDbSymbolTableRecord
100
AcDbLayerTableRecord
  2
6文字层
 70
     0
 62
     3
  6
CONTINUOUS
370
    -3
390
26A6
347
12623
348
0
1001
AcadStringInfo
1000
MIFCodePage
1070
     5
  0
LAYER
  5
17440
102
{ACAD_XDICTIONARY
360
17441
102
}
330
2
100
AcDbSymbolTableRecord
100
AcDbLayerTableRecord
  2
ANCON-TEXT
 70
     0
 62
     6
  6
CONTINUOUS
370
    -3
390
26A6
347
12623
348
0
  0
ENDTAB
  0
TABLE
  2
STYLE
  5
3
330
0
100
AcDbSymbolTable
 70
     3
  0
STYLE
  5
F
330
3
100
AcDbSymbolTableRecord
100
AcDbTextStyleTableRecord
  2
STANDARD
 70
     0
 40
0.0
 41
1.0
 50
0.0
 71
     0
 42
2.5
  3
txt
  4

  0
STYLE
  5
16091
330
3
100
AcDbSymbolTableRecord
100
AcDbTextStyleTableRecord
  2
TH_GBDIM
 70
     0
 40
0.0
 41
0.8
 50
0.0
 71
     0
 42
5.0
  3
romans.shx
  4
gbcbig.shx
  0
STYLE
  5
16092
330
3
100
AcDbSymbolTableRecord
100
AcDbTextStyleTableRecord
  2
国标
 70
     0
 40
0.0
 41
0.8
 50
0.0
 71
     0
 42
5.0
  3
gbeitc.shx
  4
gbcbig.shx
1001
AcadStringInfo
1000
MIFCodePage
1070
     5
  0
ENDTAB
  0
TABLE
  2
VIEW
  5
6
330
0
100
AcDbSymbolTable
 70
     0
  0
ENDTAB
  0
TABLE
  2
UCS
  5
7
330
0
100
AcDbSymbolTable
 70
     0
  0
ENDTAB
  0
TABLE
  2
APPID
  5
9
330
0
100
AcDbSymbolTable
 70
    13
  0
APPID
  5
10
330
9
100
AcDbSymbolTableRecord
100
AcDbRegAppTableRecord
  2
ACAD
 70
     0
  0
APPID
  5
D4EE
330
9
100
AcDbSymbolTableRecord
100
AcDbRegAppTableRecord
  2
DCO15
 70
     0
  0
APPID
  5
16096
330
9
100
AcDbSymbolTableRecord
100
AcDbRegAppTableRecord
  2
ACAD_PSEXT
 70
     0
  0
APPID
  5
16097
330
9
100
AcDbSymbolTableRecord
100
AcDbRegAppTableRecord
  2
ACAD_DSTYLE_DIMJOGGED_JOGANGLE_SYMBOL
 70
     0
  0
APPID
  5
16098
330
9
100
AcDbSymbolTableRecord
100
AcDbRegAppTableRecord
  2
ACAD_DSTYLE_DIMJAG
 70
     0
  0
APPID
  5
16099
330
9
100
AcDbSymbolTableRecord
100
AcDbRegAppTableRecord
  2
ACAD_DSTYLE_DIMTALN
 70
     0
  0
APPID
  5
1609A
330
9
100
AcDbSymbolTableRecord
100
AcDbRegAppTableRecord
  2
ACAD_DSTYLE_DIMRADIAL_EXTENSION
 70
     0
  0
APPID
  5
1609B
330
9
100
AcDbSymbolTableRecord
100
AcDbRegAppTableRecord
  2
AcadStringInfo
 70
     0
  0
APPID
  5
169C6
330
9
100
AcDbSymbolTableRecord
100
AcDbRegAppTableRecord
  2
ACAD_NAV_VCDISPLAY
 70
     0
  0
APPID
  5
16A44
330
9
100
AcDbSymbolTableRecord
100
AcDbRegAppTableRecord
  2
ACAD_EXEMPT_FROM_CAD_STANDARDS
 70
     0
  0
APPID
  5
1749B
330
9
100
AcDbSymbolTableRecord
100
AcDbRegAppTableRecord
  2
ACAUTHENVIRON
 70
     0
  0
APPID
  5
174A3
330
9
100
AcDbSymbolTableRecord
100
AcDbRegAppTableRecord
  2
AcDbDynamicBlockTrueName
 70
     0
  0
APPID
  5
174A4
330
9
100
AcDbSymbolTableRecord
100
AcDbRegAppTableRecord
  2
AcDbDynamicBlockGUID
 70
     0
  0
ENDTAB
  0
TABLE
  2
DIMSTYLE
  5
A
330
0
100
AcDbSymbolTable
 70
     5
100
AcDbDimStyleTable
 71
     1
340
1D
  0
DIMSTYLE
105
1D
330
A
100
AcDbSymbolTableRecord
100
AcDbDimStyleTableRecord
  2
STANDARD
 70
     0
 41
5.0
 42
2.0
 43
3.75
 44
2.0
 73
     0
 78
    12
 79
     3
140
5.0
141
2.0
143
0.0394
146
2.0
147
2.0
171
     4
172
     1
176
     3
177
     3
178
     2
179
     1
271
     1
272
     1
273
     8
274
     4
284
    12
340
F
  0
DIMSTYLE
105
16093
330
A
100
AcDbSymbolTableRecord
100
AcDbDimStyleTableRecord
  2
ISO-25
 70
     0
 41
3.0
 42
0.0
 43
3.75
 44
1.25
 73
     0
 74
     0
 77
     1
 78
     8
140
4.0
141
2.5
143
0.03937007874016
147
0.625
171
     3
172
     1
271
     2
272
     2
274
     3
283
     0
284
     8
340
F
  0
DIMSTYLE
105
16094
330
A
100
AcDbSymbolTableRecord
100
AcDbDimStyleTableRecord
  2
国标
 70
     0
 41
2.0
 42
0.0
 43
3.75
 44
1.25
 73
     0
 74
     0
 77
     1
 78
     8
140
4.0
141
2.5
143
0.03937007874016
146
0.7
147
1.0
171
     3
172
     1
176
   256
177
   256
178
   256
271
     2
272
     2
274
     3
284
     8
340
16092
345
13
346
13
347
13
371
    -1
372
    -1
1001
ACAD_DSTYLE_DIMJAG
1070
   388
1040
1.5
1001
ACAD_DSTYLE_DIMTALN
1070
   392
1070
     0
1001
AcadStringInfo
1000
MIFCodePage
1070
     5
  0
DIMSTYLE
105
16095
330
A
100
AcDbSymbolTableRecord
100
AcDbDimStyleTableRecord
  2
TH_GBDIM
 70
     0
 41
2.5
 42
0.0
 43
10.0
 44
2.0
 49
2.0
 50
90.0
 73
     0
 74
     0
 77
     1
140
2.5
141
2.5
146
0.714286
147
1.5
172
     1
176
   130
177
   130
178
     3
271
     2
272
     2
283
     0
340
16091
371
    -1
372
    -1
1001
ACAD_DSTYLE_DIMJOGGED_JOGANGLE_SYMBOL
1070
   384
1040
1.570796326794896
  0
ENDTAB
  0
TABLE
  2
BLOCK_RECORD
  5
1
330
0
100
AcDbSymbolTable
 70
    19
  0
BLOCK_RECORD
  5
18
102
{ACAD_XDICTIONARY
360
16BD7
102
}
330
1
100
AcDbSymbolTableRecord
100
AcDbBlockTableRecord
  2
*MODEL_SPACE
340
26A9
 70
     0
280
     1
281
     0
  0
BLOCK_RECORD
  5
1741A
330
1
100
AcDbSymbolTableRecord
100
AcDbBlockTableRecord
  2
*Paper_Space
340
1741B
 70
     0
280
     1
281
     0
  0
BLOCK_RECORD
  5
12524
330
1
100
AcDbSymbolTableRecord
100
AcDbBlockTableRecord
  2
A$C3FDE73E2
340
0
102
{BLKREFS
331
149EE
331
16B37
331
173AA
331
173D7
331
16A84
331
16A8D
331
16B00
331
16B2E
102
}
 70
     0
280
     1
281
     0
  0
BLOCK_RECORD
  5
1256F
330
1
100
AcDbSymbolTableRecord
100
AcDbBlockTableRecord
  2
A$C03B31D34
340
0
102
{BLKREFS
331
14B5B
102
}
 70
     0
280
     1
281
     0
  0
BLOCK_RECORD
  5
1257A
330
1
100
AcDbSymbolTableRecord
100
AcDbBlockTableRecord
  2
A$C6E774BC7
340
0
 70
     0
280
     1
281
     0
  0
BLOCK_RECORD
  5
12590
330
1
100
AcDbSymbolTableRecord
100
AcDbBlockTableRecord
  2
A$C76981B85
340
0
 70
     0
280
     1
281
     0
  0
BLOCK_RECORD
  5
1263F
330
1
100
AcDbSymbolTableRecord
100
AcDbBlockTableRecord
  2
A$C7DA24904
340
0
102
{BLKREFS
331
12658
102
}
 70
     0
280
     1
281
     0
  0
BLOCK_RECORD
  5
12656
330
1
100
AcDbSymbolTableRecord
100
AcDbBlockTableRecord
  2
A$C28967C54
340
0
 70
     0
280
     1
281
     0
  0
BLOCK_RECORD
  5
133C8
330
1
100
AcDbSymbolTableRecord
100
AcDbBlockTableRecord
  2
A$C17E05194
340
0
 70
     0
280
     1
281
     0
  0
BLOCK_RECORD
  5
13B5D
330
1
100
AcDbSymbolTableRecord
100
AcDbBlockTableRecord
  2
A$C6D670A69
340
0
102
{BLKREFS
331
13B98
331
13B9F
331
13BA0
331
13BA1
331
13BA2
331
13BA3
331
13BA4
331
13BA5
331
13BA6
102
}
 70
     0
280
     1
281
     0
  0
BLOCK_RECORD
  5
13B97
330
1
100
AcDbSymbolTableRecord
100
AcDbBlockTableRecord
  2
A$C051E231E
340
0
 70
     0
280
     1
281
     0
  0
BLOCK_RECORD
  5
13B9E
330
1
100
AcDbSymbolTableRecord
100
AcDbBlockTableRecord
  2
A$C650E0C29
340
0
 70
     0
280
     1
281
     0
  0
BLOCK_RECORD
  5
13BD4
330
1
100
AcDbSymbolTableRecord
100
AcDbBlockTableRecord
  2
A$C3C7212E3
340
0
 70
     0
280
     1
281
     0
  0
BLOCK_RECORD
  5
13E92
330
1
100
AcDbSymbolTableRecord
100
AcDbBlockTableRecord
  2
A$C2C446AB3
340
0
 70
     0
280
     1
281
     0
  0
BLOCK_RECORD
  5
15655
330
1
100
AcDbSymbolTableRecord
100
AcDbBlockTableRecord
  2
A$C7C5C0D6E
340
0
 70
     0
280
     1
281
     0
  0
BLOCK_RECORD
  5
15659
330
1
100
AcDbSymbolTableRecord
100
AcDbBlockTableRecord
  2
A$C76E56FEB
340
0
 70
     0
280
     1
281
     0
  0
BLOCK_RECORD
  5
1565D
330
1
100
AcDbSymbolTableRecord
100
AcDbBlockTableRecord
  2
A$C024639DF
340
0
 70
     0
280
     1
281
     0
  0
BLOCK_RECORD
  5
156F1
330
1
100
AcDbSymbolTableRecord
100
AcDbBlockTableRecord
  2
A$C406A5D29
340
0
102
{BLKREFS
331
156FD
331
156FE
331
17274
331
17275
102
}
 70
     0
280
     1
281
     0
  0
BLOCK_RECORD
  5
1743D
102
{ACAD_XDICTIONARY
360
1749C
102
}
330
1
100
AcDbSymbolTableRecord
100
AcDbBlockTableRecord
  2
ANcon Contact Detail
340
0
310
28000000300000003000000001002000000000000024000001000000010000000000000000000000302821FF302821FF302821FF302821FF302821FF302821FF302821FF302821FF302821FF302821FF302821FF302821FF302821FF302821FF302821FF302821FF302821FF302821FF302821FF302821FF302821FF302821
310
FF302821FF302821FF302821FF302821FF302821FF302821FF302821FF302821FF302821FF302821FF302821FF302821FF302821FF302821FF302821FF302821FF302821FF302821FF302821FF302821FF302821FF302821FF302821FF302821FF302821FF302821FF302821FF302821FF302821FF302821FF302821FF3028
310
21FF302821FF302821FF302821FF302821FF302821FF302821FF302821FF302821FF302821FF302821FF302821FF302821FF302821FF302821FF302821FF302821FF302821FF302821FF302821FF302821FF302821FF302821FF302821FF302821FF302821FF302821FF302821FF302821FF302821FF302821FF302821FF30
310
2821FF302821FF302821FF302821FF302821FF302821FF302821FF302821FF302821FF302821FF302821FF302821FF302821FF302821FF302821FF302821FF302821FF302821FF302821FF302821FF302821FF302821FF302821FF302821FF302821FF302821FF302821FF302821FF302821FF302821FF302821FF302821FF
310
302821FF302821FF302821FF302821FF302821FF302821FF302821FF302821FF302821FF302821FF302821FF302821FF302821FF302821FF302821FF302821FF302821FF302821FF302821FF302821FF302821FF302821FF302821FF302821FF302821FF302821FF302821FF302821FF302821FF302821FF302821FF302821
310
FF302821FF302821FF302821FF302821FF302821FF302821FF302821FF302821FF302821FF302821FF302821FF302821FF302821FF302821FF302821FF302821FF302821FF302821FF302821FF302821FF302821FF302821FF302821FF302821FF302821FF302821FF302821FF302821FF302821FF302821FF302821FF3028
310
21FF302821FF302821FF302821FF302821FF302821FF302821FF302821FF302821FF302821FF302821FF302821FF302821FF302821FF302821FF302821FF302821FF302821FF302821FF302821FF302821FF302821FF302821FF302821FF302821FF302821FF302821FF302821FF302821FF302821FF302821FF302821FF30
310
2821FF302821FF302821FF302821FF302821FF302821FF302821FF302821FF302821FF302821FF302821FF302821FF302821FF302821FF302821FF302821FF302821FF302821FF302821FF302821FF302821FF302821FF302821FF302821FF302821FF302821FF302821FF302821FF302821FF302821FF302821FF302821FF
310
302821FF302821FF302821FF302821FF302821FF302821FF302821FF302821FF302821FF302821FF302821FF302821FF302821FF302821FF302821FF302821FF302821FF302821FF302821FF302821FF302821FF302821FF302821FF302821FF302821FF302821FF302821FF302821FF302821FF302821FF302821FF302821
310
FF302821FF302821FF302821FF302821FF302821FF302821FF302821FF302821FF302821FF302821FF302821FF302821FF302821FF302821FF302821FF302821FF302821FF302821FF302821FF302821FF302821FF302821FF302821FF302821FF302821FF302821FF302821FF302821FF302821FF302821FF302821FF3028
310
21FF302821FF302821FF302821FF302821FF302821FF302821FF302821FF302821FF302821FF302821FF302821FF302821FF302821FF302821FF302821FF302821FF302821FF302821FF302821FF302821FF302821FF302821FF302821FF302821FF302821FF302821FF302821FF302821FF302821FF302821FF302821FF30
310
2821FF302821FF302821FF302821FF302821FF302821FF302821FF302821FF302821FF302821FF302821FF302821FF302821FF302821FF302821FF302821FF302821FF302821FF302821FF302821FF302821FF302821FF302821FF302821FF302821FF302821FF302821FF302821FF302821FF302821FF302821FF302821FF
310
302821FF302821FF302821FF302821FF302821FF302821FF302821FF302821FF302821FF302821FF302821FF302821FF302821FF302821FF302821FF302821FF302821FF302821FF302821FF302821FF302821FF302821FF302821FF302821FF302821FF302821FF302821FF302821FF302821FF302821FF302821FF302821
310
FF302821FF302821FF302821FF302821FF302821FF302821FF302821FF302821FF302821FF302821FF302821FF302821FF302821FF302821FF302821FF302821FF302821FF302821FF302821FF302821FF302821FF302821FF302821FF302821FF302821FF302821FF302821FF302821FF302821FF302821FF302821FF3028
310
21FF302821FF302821FF302821FF302821FF302821FF302821FF302821FF302821FF302821FF302821FF302821FF302821FF302821FF302821FF302821FF302821FF302821FF302821FF302821FF302821FF302821FF302821FF302821FF302821FF302821FF302821FF302821FF302821FF302821FF302821FF302821FF30
310
2821FF302821FF302821FF302821FF302821FF302821FF302821FF302821FF302821FF302821FF302821FF302821FF302821FF302821FF302821FF302821FF302821FF302821FF302821FF302821FF302821FF302821FF302821FF302821FF302821FF302821FF302821FF302821FF302821FF302821FF302821FF302821FF
310
302821FF302821FF302821FF302821FF302821FF302821FF302821FF302821FF302821FF302821FF302821FF302821FF302821FF302821FF302821FF302821FF302821FF302821FF302821FF302821FF302821FF302821FF302821FF302821FF302821FF302821FF302821FF302821FF302821FF302821FF302821FF302821
310
FF302821FF302821FF302821FF302821FF302821FF302821FF302821FF302821FF302821FF302821FF302821FF302821FF302821FF302821FF302821FF302821FF302821FF302821FF302821FF302821FF302821FF302821FF302821FF302821FF302821FF302821FF302821FF302821FF302821FF302821FF302821FF3028
310
21FF302821FF302821FF302821FF302821FF302821FF302821FF302821FF302821FF302821FF302821FF302821FF302821FF302821FF302821FF302821FF302821FF302821FF302821FF302821FF302821FF302821FF302821FF302821FF302821FF302821FF302821FF302821FF302821FF302821FF302821FF302821FF30
310
2821FF302821FF302821FF302821FF302821FF302821FF302821FF302821FF302821FF302821FF302821FF302821FF302821FF302821FF302821FF302821FF302821FF302821FF302821FF302821FF302821FF302821FF302821FF302821FF302821FF302821FF302821FF302821FF302821FF302821FF302821FF302821FF
310
302821FF302821FF302821FF302821FF302821FF302821FF302821FF302821FF302821FF302821FF302821FF302821FF302821FF302821FF302821FF302821FF302821FF302821FF302821FF302821FF302821FF302821FF302821FF302821FF302821FF302821FF302821FF302821FF302821FF302821FF302821FF302821
310
FF302821FF302821FF302821FF302821FF302821FF302821FF302821FF302821FF302821FF302821FF302821FF302821FF302821FF302821FF302821FF302821FF302821FF302821FF302821FF302821FF302821FF302821FF302821FF302821FF302821FF302821FF302821FF302821FF302821FF302821FF302821FF3028
310
21FF302821FF302821FF302821FF302821FF302821FF302821FF302821FF302821FF302821FF302821FF302821FF302821FF302821FF302821FF302821FF302821FF302821FF302821FF302821FF302821FF302821FF302821FF302821FF302821FF302821FF302821FF302821FF302821FF302821FF302821FF302821FF30
310
2821FF302821FF302821FF302821FF302821FF302821FF302821FF302821FF302821FF302821FF302821FF302821FF302821FF302821FF302821FF302821FF302821FF302821FF302821FF302821FF302821FF302821FF302821FF302821FF302821FF302821FF302821FF302821FF302821FF302821FF302821FF302821FF
310
302821FF302821FF302821FF302821FF302821FF302821FF302821FF302821FF302821FF302821FF302821FF302821FF302821FF302821FF302821FF302821FF302821FF302821FF302821FF302821FF302821FF302821FF302821FF302821FF302821FF302821FF302821FF302821FF302821FF302821FF302821FF302821
310
FF302821FF302821FF302821FF302821FF302821FF302821FF302821FF302821FF302821FF302821FF302821FF302821FF302821FF302821FF302821FF302821FF302821FF302821FF302821FF302821FF302821FF302821FF302821FF302821FF302821FF302821FF302821FF302821FF302821FF302821FF302821FF3028
310
21FF302821FF302821FF302821FF302821FF302821FF302821FF302821FF302821FF302821FF302821FF302821FF302821FF302821FF302821FF302821FF302821FF302821FF302821FF302821FF302821FF302821FF302821FF302821FF302821FF302821FF302821FF302821FF302821FF302821FF302821FF302821FF30
310
2821FF302821FF302821FF302821FF302821FF302821FF302821FF302821FF302821FF302821FF302821FF302821FF302821FF302821FF302821FF302821FF302821FF302821FF302821FF302821FF302821FF302821FF302821FF302821FF302821FF302821FF302821FF302821FF302821FF302821FF302821FF302821FF
310
302821FF302821FF302821FF302821FF302821FF302821FF302821FF302821FF302821FF302821FF302821FF302821FF302821FF302821FF302821FF302821FF302821FF302821FF302821FF302821FF302821FF302821FF302821FF302821FF302821FF302821FF302821FF302821FF302821FF302821FF302821FF302821
310
FF302821FF302821FF302821FF302821FFFF00FFFFFF00FFFFFF00FFFFFF00FFFFFF00FFFFFF00FFFFFF00FFFFFF00FFFFFF00FFFFFF00FFFFFF00FFFFFF00FFFFFF00FFFFFF00FFFFFF00FFFFFF00FFFFFF00FFFFFF00FFFFFF00FFFFFF00FFFFFF00FFFFFF00FFFFFF00FFFFFF00FFFFFF00FFFFFF00FFFF302821FF3028
310
21FF302821FF302821FF302821FF302821FF302821FF302821FF302821FF302821FF302821FF302821FF302821FF302821FF302821FF302821FF302821FF302821FF302821FF302821FF302821FFFF00FFFFFF00FFFFFF00FFFFFF00FFFFFF00FFFFFF00FFFFFF00FFFFFF00FFFFFF00FFFFFF00FFFFFF00FFFFFF00FFFFFF
310
00FFFFFF00FFFFFF00FFFFFF00FFFFFF00FFFFFF00FFFFFF00FFFFFF00FFFFFF00FFFFFF00FFFFFF00FFFFFF00FFFFFF00FFFFFF00FFFFFF00FFFF302821FF302821FF302821FF302821FF302821FF302821FF302821FF302821FF302821FF302821FF302821FF302821FF302821FF302821FF302821FF302821FF302821FF
310
302821FF302821FF302821FF302821FFFF00FFFFFF00FFFFFF00FFFFFF00FFFFFF00FFFFFF00FFFFFF00FFFFFF00FFFFFF00FFFFFF00FFFFFF00FFFFFF00FFFFFF00FFFFFF00FFFFFF00FFFFFF00FFFFFF00FFFFFF00FFFFFF00FFFFFF00FFFFFF00FFFFFF00FFFFFF00FFFFFF00FFFFFF00FFFFFF00FFFFFF00FFFFFF00FF
310
FFFF00FFFFFF00FFFFFF00FFFFFF00FFFF302821FF302821FF302821FF302821FF302821FF302821FF302821FF302821FF302821FF302821FF302821FF302821FF302821FF302821FF302821FF302821FFFF00FFFFFF00FFFFFF00FFFFFF00FFFFFF00FFFFFF00FFFFFF00FFFFFF00FFFFFF00FFFFFF00FFFFFF00FFFFFF00
310
FFFFFF00FFFFFF00FFFFFF00FFFFFF00FFFFFF00FFFFFF00FFFFFF00FFFFFF00FFFFFF00FFFFFF00FFFFFF00FFFFFF00FFFFFF00FFFFFF00FFFFFF00FFFFFF00FFFFFF00FFFFFF00FFFFFF00FFFFFF00FFFF302821FF302821FF302821FF302821FF302821FF302821FF302821FF302821FF302821FF302821FF302821FF30
310
2821FF302821FF302821FF302821FF302821FFFF00FFFFFF00FFFFFF00FFFFFF00FFFFFF00FFFFFF00FFFFFF00FFFFFF00FFFFFF00FFFFFF00FFFFFF00FFFFFF00FFFFFF00FFFFFF00FFFFFF00FFFFFF00FFFFFF00FFFFFF00FFFFFF00FFFFFF00FFFFFF00FFFFFF00FFFFFF00FFFFFF00FFFFFF00FFFFFF00FFFFFF00FFFF
310
FF00FFFFFF00FFFFFF00FFFFFF00FFFFFF00FFFF302821FF302821FF302821FF302821FF302821FF302821FF302821FF302821FF302821FF302821FF302821FF302821FF302821FF302821FF302821FF302821FF302821FFFF00FFFFFF00FFFFFF00FFFFFF00FFFF302821FFFF00FFFFFF00FFFFFF00FFFFFF00FFFFFF00FF
310
FFFF00FFFFFF00FFFFFF00FFFFFF00FFFFFF00FFFFFF00FFFFFF00FFFFFF00FFFFFF00FFFF302821FF302821FF302821FF302821FF302821FF302821FF302821FF302821FF302821FF302821FF302821FF302821FF302821FF302821FF302821FF302821FF302821FF302821FF302821FF302821FF302821FF302821FF3028
310
21FF302821FF302821FF302821FF302821FF302821FF302821FFFF00FFFFFF00FFFFFF00FFFFFF00FFFFFF00FFFFFF00FFFFFF00FFFFFF00FFFFFF00FFFFFF00FFFFFF00FFFFFF00FFFFFF00FFFFFF00FFFFFF00FFFFFF00FFFFFF00FFFFFF00FFFFFF00FFFF302821FF302821FF302821FF302821FF302821FF302821FF30
310
2821FF302821FF302821FF302821FF302821FF302821FF302821FF302821FF302821FF302821FF302821FF302821FF302821FF302821FF302821FF302821FF302821FF302821FF302821FF302821FF302821FF302821FFFF00FFFFFF00FFFF302821FFFF00FFFF302821FFFF00FFFFFF00FFFFFF00FFFFFF00FFFFFF00FFFF
310
FF00FFFFFF00FFFFFF00FFFFFF00FFFFFF00FFFFFF00FFFFFF00FFFFFF00FFFFFF00FFFFFF00FFFF302821FF302821FF302821FF302821FF302821FF302821FF302821FF302821FF302821FF302821FF302821FF302821FF302821FF302821FF302821FF302821FF302821FF302821FF302821FF302821FF302821FF302821
310
FF302821FF302821FF302821FF302821FF302821FF302821FFFF00FFFFFF00FFFFFF00FFFFFF00FFFFFF00FFFFFF00FFFFFF00FFFFFF00FFFFFF00FFFFFF00FFFFFF00FFFFFF00FFFFFF00FFFFFF00FFFFFF00FFFFFF00FFFF302821FF302821FF302821FF302821FF302821FF302821FF302821FF302821FF302821FF3028
310
21FF302821FF302821FF302821FF302821FF302821FF302821FF302821FF302821FF302821FF302821FF302821FF302821FF302821FF302821FF302821FF302821FF302821FF302821FF302821FF302821FF302821FF302821FFFF00FFFF302821FFFF00FFFFFF00FFFFFF00FFFFFF00FFFFFF00FFFFFF00FFFFFF00FFFFFF
310
00FFFFFF00FFFFFF00FFFFFF00FFFFFF00FFFFFF00FFFFFF00FFFF302821FF302821FF302821FF302821FF302821FF302821FF302821FF302821FF302821FF302821FF302821FF302821FF302821FF302821FF302821FF302821FF302821FF302821FF302821FF302821FF302821FF302821FF302821FF302821FF302821FF
310
302821FF302821FF302821FF302821FF302821FF302821FF302821FFFF00FFFF302821FF302821FF302821FFFF00FFFF302821FF302821FFFF00FFFFFF00FFFF302821FF302821FF302821FF302821FFFF00FFFFFF00FFFF302821FF302821FF302821FF302821FF302821FF302821FF302821FF302821FF302821FF302821
310
FF302821FF302821FF302821FF302821FF302821FF302821FF302821FF302821FF302821FF302821FF302821FF302821FF302821FF302821FF302821FF302821FF302821FF302821FF302821FF302821FF302821FF302821FF302821FF302821FF302821FF302821FF302821FF302821FF302821FF302821FF302821FF3028
310
21FF302821FF302821FF302821FF302821FF302821FF302821FF302821FF302821FF302821FF302821FF302821FF302821FF302821FF302821FF302821FF302821FF302821FF302821FF302821FF302821FF302821FF302821FF302821FF302821FF302821FF302821FF302821FF302821FF302821FF302821FF302821FF30
310
2821FF302821FF302821FF302821FF302821FF302821FF302821FF302821FF302821FF302821FF302821FF302821FF302821FF302821FF302821FF302821FF302821FF302821FF302821FF302821FF302821FF302821FF302821FF302821FF302821FF302821FF302821FF302821FF302821FF302821FF302821FF302821FF
310
302821FF302821FF302821FF302821FF302821FF302821FF302821FF302821FF302821FF302821FF302821FF302821FF302821FF302821FF302821FF302821FF302821FF302821FF302821FF302821FF302821FF302821FF302821FF302821FF302821FF302821FF302821FF302821FF302821FF302821FF302821FF302821
310
FF302821FF302821FF302821FF302821FF302821FF302821FF302821FF302821FF302821FF302821FF302821FF302821FF302821FF302821FF302821FF302821FF302821FF302821FF302821FF302821FF302821FF302821FF302821FF302821FF302821FF302821FF302821FF302821FF302821FF302821FF302821FF3028
310
21FF302821FF302821FF302821FF302821FF302821FF302821FF302821FF302821FF302821FF302821FF302821FF302821FF302821FF302821FF302821FF302821FF302821FF302821FF302821FF302821FF302821FF302821FF302821FF302821FF302821FF302821FF302821FF302821FF302821FF302821FF302821FF30
310
2821FF302821FF302821FF302821FF302821FF302821FF302821FF302821FF302821FF302821FF302821FF302821FF302821FF302821FF302821FF302821FF302821FF302821FF302821FF302821FF302821FF302821FF302821FF302821FF302821FF302821FF302821FF302821FF302821FF302821FF302821FF302821FF
310
302821FF302821FF302821FF302821FF302821FF302821FF302821FF302821FF302821FF302821FF302821FF302821FF302821FF302821FF302821FF302821FF302821FF302821FF302821FF302821FF302821FF302821FF302821FF302821FF302821FF302821FF302821FF302821FF302821FF302821FF302821FF302821
310
FF302821FF302821FF302821FF302821FF302821FF302821FF302821FF302821FF302821FF302821FF302821FF302821FF302821FF302821FF302821FF302821FF302821FF302821FF302821FF302821FF302821FF302821FF302821FF302821FF302821FF302821FF302821FF302821FF302821FF302821FF302821FF3028
310
21FF302821FF302821FF302821FF302821FF302821FF302821FF302821FF302821FF302821FF302821FF302821FF302821FF302821FF302821FF302821FF302821FF302821FF302821FF302821FF302821FF302821FF302821FF302821FF302821FF302821FF302821FF302821FF302821FF302821FF302821FF302821FF30
310
2821FF302821FF302821FF302821FF302821FF302821FF302821FF302821FF302821FF302821FF302821FF302821FF302821FF302821FF302821FF302821FF302821FF302821FF302821FF302821FF302821FF302821FF302821FF302821FF302821FF302821FF302821FF302821FF302821FF302821FF302821FF302821FF
310
302821FF302821FF302821FF302821FF302821FF302821FF302821FF302821FF302821FF302821FF302821FF302821FF302821FF302821FF302821FF302821FF302821FF302821FF302821FF302821FF302821FF302821FF302821FF302821FF302821FF302821FF302821FF302821FF302821FF302821FF302821FF302821
310
FF302821FF302821FF302821FF302821FF302821FF302821FF302821FF302821FF302821FF302821FF302821FF302821FF302821FF302821FF302821FF302821FF302821FF302821FF302821FF302821FF302821FF302821FF302821FF302821FF302821FF302821FF302821FF302821FF302821FF302821FF302821FF3028
310
21FF302821FF302821FF302821FF302821FF302821FF302821FF302821FF302821FF302821FF302821FF302821FF302821FF302821FF302821FF302821FF302821FF302821FF302821FF302821FF302821FF302821FF302821FF302821FF302821FF302821FF302821FF302821FF302821FF302821FF302821FF302821FF30
310
2821FF302821FF302821FF302821FF302821FF302821FF302821FF302821FF302821FF302821FF302821FF302821FF302821FF302821FF302821FF302821FF302821FF302821FF302821FF302821FF302821FF302821FF302821FF302821FF302821FF302821FF302821FF302821FF302821FF302821FF302821FF302821FF
310
302821FF302821FF302821FF302821FF302821FF302821FF302821FF302821FF302821FF302821FF302821FF302821FF302821FF302821FF302821FF302821FF302821FF302821FF302821FF302821FF302821FF302821FF302821FF302821FF302821FF302821FF302821FF302821FF302821FF302821FF302821FF302821
310
FF302821FF302821FF302821FF302821FF302821FF302821FF302821FF302821FF302821FF302821FF302821FF302821FF302821FF302821FF302821FF302821FF302821FF302821FF302821FF302821FF302821FF302821FF302821FF302821FF302821FF302821FF302821FF302821FF302821FF302821FF302821FF3028
310
21FF302821FF302821FF302821FF302821FF302821FF302821FF302821FF302821FF302821FF302821FF302821FF302821FF302821FF302821FF302821FF302821FF302821FF302821FF302821FF302821FF302821FF302821FF302821FF302821FF302821FF302821FF302821FF302821FF302821FF302821FF302821FF30
310
2821FF302821FF302821FF302821FF302821FF302821FF302821FF302821FF302821FF302821FF302821FF302821FF302821FF302821FF302821FF302821FF302821FF302821FF302821FF302821FF302821FF302821FF302821FF302821FF302821FF302821FF302821FF302821FF302821FF302821FF302821FF302821FF
310
302821FF302821FF302821FF302821FF302821FF302821FF302821FF302821FF302821FF302821FF302821FF302821FF302821FF302821FF302821FF302821FF302821FF302821FF302821FF302821FF302821FF302821FF302821FF302821FF302821FF302821FF302821FF302821FF302821FF302821FF302821FF302821
310
FF302821FF302821FF302821FF302821FF302821FF302821FF302821FF302821FF302821FF302821FF302821FF302821FF302821FF302821FF302821FF302821FF302821FF302821FF302821FF302821FF302821FF302821FF302821FF302821FF302821FF302821FF302821FF302821FF302821FF302821FF302821FF3028
310
21FF302821FF302821FF302821FF302821FF302821FF302821FF302821FF302821FF302821FF302821FF302821FF302821FF302821FF302821FF302821FF302821FF302821FF302821FF302821FF302821FF302821FF302821FF302821FF302821FF302821FF302821FF302821FF302821FF302821FF302821FF302821FF30
310
2821FF302821FF302821FF302821FF302821FF302821FF302821FF302821FF302821FF302821FF302821FF302821FF302821FF302821FF302821FF302821FF302821FF302821FF302821FF302821FF302821FF302821FF302821FF302821FF302821FF302821FF302821FF302821FF302821FF302821FF302821FF302821FF
310
302821FF302821FF302821FF302821FF302821FF302821FF302821FF302821FF302821FF302821FF302821FF302821FF302821FF302821FF302821FF302821FF302821FF302821FF302821FF302821FF302821FF302821FF302821FF302821FF302821FF302821FF302821FF302821FF302821FF302821FF302821FF302821
310
FF302821FF302821FF302821FF302821FF302821FF302821FF302821FF302821FF302821FF302821FF302821FF302821FF302821FF302821FF302821FF302821FF302821FF302821FF302821FF302821FF302821FF302821FF302821FF302821FF302821FF302821FF302821FF302821FF302821FF302821FF302821FF3028
310
21FF302821FF302821FF302821FF302821FF302821FF302821FF302821FF302821FF302821FF302821FF302821FF302821FF302821FF302821FF302821FF302821FF302821FF302821FF302821FF302821FF302821FF302821FF302821FF302821FF302821FF302821FF302821FF302821FF302821FF302821FF302821FF30
310
2821FF302821FF302821FF302821FF302821FF302821FF302821FF302821FF302821FF302821FF302821FF302821FF302821FF302821FF302821FF302821FF302821FF302821FF302821FF302821FF302821FF302821FF302821FF302821FF302821FF302821FF302821FF302821FF302821FF302821FF302821FF302821FF
310
302821FF302821FF302821FF302821FF302821FF302821FF302821FF302821FF302821FF302821FF302821FF302821FF302821FF302821FF302821FF302821FF302821FF302821FF302821FF302821FF302821FF302821FF302821FF302821FF302821FF302821FF302821FF302821FF
102
{BLKREFS
331
17444
331
17445
331
17446
331
17447
331
17448
331
17449
331
1744B
331
1744C
331
1744D
331
1744E
331
1744F
102
}
 70
     1
280
     1
281
     0
1001
AcDbDynamicBlockGUID
1000
{B502A94C-F52C-7947-9940-A43C85234DC8}
  0
ENDTAB
  0
ENDSEC
  0
SECTION
  2
BLOCKS
  0
BLOCK
  5
19
330
18
100
AcDbEntity
  8
0
100
AcDbBlockBegin
  2
*MODEL_SPACE
 70
     0
 10
0.0
 20
0.0
 30
0.0
  3
*MODEL_SPACE
  1

  0
ENDBLK
  5
1A
330
18
100
AcDbEntity
  8
0
100
AcDbBlockEnd
  0
BLOCK
  5
1741C
330
1741A
100
AcDbEntity
 67
     1
  8
0
100
AcDbBlockBegin
  2
*Paper_Space
 70
     0
 10
0.0
 20
0.0
 30
0.0
  3
*Paper_Space
  1

  0
ENDBLK
  5
1741D
330
1741A
100
AcDbEntity
 67
     1
  8
0
100
AcDbBlockEnd
  0
BLOCK
  5
1252D
330
12524
100
AcDbEntity
  8
0
100
AcDbBlockBegin
  2
A$C3FDE73E2
 70
     0
 10
0.0
 20
0.0
 30
0.0
  3
A$C3FDE73E2
  1

  0
LINE
  5
12525
330
12524
100
AcDbEntity
  8
Insert
100
AcDbLine
 10
95.0
 20
-24.99999999999995
 30
0.0
 11
91.5
 21
-24.99999999999995
 31
0.0
  0
LINE
  5
12526
330
12524
100
AcDbEntity
  8
Insert
100
AcDbLine
 10
91.49999999999995
 20
-24.99999999999989
 30
0.0
 11
86.0151724426986
 21
-15.00000000000006
 31
0.0
  0
LINE
  5
12527
330
12524
100
AcDbEntity
  8
Insert
100
AcDbLine
 10
91.5
 20
-0.2499999999999432
 30
0.0
 11
91.5
 21
-24.99999999999995
 31
0.0
  0
LINE
  5
12528
330
12524
100
AcDbEntity
  8
Insert
100
AcDbLine
 10
95.0
 20
-0.2499999999999432
 30
0.0
 11
95.0
 21
-24.99999999999995
 31
0.0
  0
LINE
  5
12529
330
12524
100
AcDbEntity
  8
Insert
100
AcDbLine
 10
91.49999999999995
 20
25.0
 30
0.0
 11
86.0151724426986
 21
15.00000000000017
 31
0.0
  0
LINE
  5
1252A
330
12524
100
AcDbEntity
  8
Insert
100
AcDbLine
 10
95.0
 20
25.00000000000006
 30
0.0
 11
91.5
 21
25.00000000000006
 31
0.0
  0
LINE
  5
1252B
330
12524
100
AcDbEntity
  8
Insert
100
AcDbLine
 10
91.5
 20
0.2500000000000568
 30
0.0
 11
91.5
 21
25.00000000000006
 31
0.0
  0
LINE
  5
1252C
330
12524
100
AcDbEntity
  8
Insert
100
AcDbLine
 10
95.0
 20
0.2500000000000568
 30
0.0
 11
95.0
 21
25.00000000000006
 31
0.0
  0
ENDBLK
  5
1252E
330
12524
100
AcDbEntity
  8
0
100
AcDbBlockEnd
  0
BLOCK
  5
12576
330
1256F
100
AcDbEntity
  8
0
100
AcDbBlockBegin
  2
A$C03B31D34
 70
     0
 10
0.0
 20
0.0
 30
0.0
  3
A$C03B31D34
  1

  0
LINE
  5
12570
330
1256F
100
AcDbEntity
  8
Insert
100
AcDbLine
 10
6.062177826491051
 20
25.0
 30
0.0
 11
-0.0000000000002274
 21
14.00000000000005
 31
0.0
  0
LINE
  5
12571
330
1256F
100
AcDbEntity
  8
Insert
100
AcDbLine
 10
9.562177826491051
 20
25.0
 30
0.0
 11
6.062177826491051
 21
25.0
 31
0.0
  0
LINE
  5
12572
330
1256F
100
AcDbEntity
  8
Insert
100
AcDbLine
 10
6.062177826491051
 20
-25.0
 30
0.0
 11
6.062177826491051
 21
24.99999999999995
 31
0.0
  0
LINE
  5
12573
330
1256F
100
AcDbEntity
  8
Insert
100
AcDbLine
 10
9.562177826491051
 20
-25.0
 30
0.0
 11
9.562177826491051
 21
24.99999999999995
 31
0.0
  0
LINE
  5
12574
330
1256F
100
AcDbEntity
  8
Insert
100
AcDbLine
 10
6.062177826491051
 20
-25.00000000000006
 30
0.0
 11
0.0000000000002274
 21
-14.0
 31
0.0
  0
LINE
  5
12575
330
1256F
100
AcDbEntity
  8
Insert
100
AcDbLine
 10
9.562177826491051
 20
-25.0
 30
0.0
 11
6.062177826491051
 21
-25.0
 31
0.0
  0
ENDBLK
  5
12577
330
1256F
100
AcDbEntity
  8
0
100
AcDbBlockEnd
  0
BLOCK
  5
12581
330
1257A
100
AcDbEntity
  8
0
100
AcDbBlockBegin
  2
A$C6E774BC7
 70
     0
 10
0.0
 20
0.0
 30
0.0
  3
A$C6E774BC7
  1

  0
LINE
  5
1257B
330
1257A
100
AcDbEntity
  8
Insert
100
AcDbLine
 10
7.216878364870353
 20
-25.0420835176023
 30
0.0
 11
0.0
 21
-12.04208351760235
 31
0.0
  0
LINE
  5
1257C
330
1257A
100
AcDbEntity
  8
Insert
100
AcDbLine
 10
10.71687836487035
 20
-25.0420835176023
 30
0.0
 11
7.216878364870353
 21
-25.0420835176023
 31
0.0
  0
LINE
  5
1257D
330
1257A
100
AcDbEntity
  8
Insert
100
AcDbLine
 10
7.216878364870353
 20
-25.0420835176023
 30
0.0
 11
7.216878364870126
 21
24.95791648239771
 31
0.0
  0
LINE
  5
1257E
330
1257A
100
AcDbEntity
  8
Insert
100
AcDbLine
 10
10.71687836487012
 20
-25.0420835176023
 30
0.0
 11
10.71687836487035
 21
24.95791648239771
 31
0.0
  0
LINE
  5
1257F
330
1257A
100
AcDbEntity
  8
Insert
100
AcDbLine
 10
7.216878364870353
 20
24.95791648239771
 30
0.0
 11
0.0
 21
12.04208351760198
 31
0.0
  0
LINE
  5
12580
330
1257A
100
AcDbEntity
  8
Insert
100
AcDbLine
 10
10.71687836487035
 20
24.95791648239771
 30
0.0
 11
7.216878364870353
 21
24.95791648239771
 31
0.0
  0
ENDBLK
  5
12582
330
1257A
100
AcDbEntity
  8
0
100
AcDbBlockEnd
  0
BLOCK
  5
12597
330
12590
100
AcDbEntity
  8
0
100
AcDbBlockBegin
  2
A$C76981B85
 70
     0
 10
0.0
 20
0.0
 30
0.0
  3
A$C76981B85
  1

  0
LINE
  5
12591
330
12590
100
AcDbEntity
  8
Insert
100
AcDbLine
 10
8.371578903248973
 20
25.0
 30
0.0
 11
-0.0000000000009095
 21
10.00000000000005
 31
0.0
  0
LINE
  5
12592
330
12590
100
AcDbEntity
  8
Insert
100
AcDbLine
 10
11.87157890324897
 20
25.0
 30
0.0
 11
8.371578903248973
 21
25.0
 31
0.0
  0
LINE
  5
12593
330
12590
100
AcDbEntity
  8
Insert
100
AcDbLine
 10
11.87157890324897
 20
-25.0
 30
0.0
 11
11.87157890324897
 21
24.99999999999995
 31
0.0
  0
LINE
  5
12594
330
12590
100
AcDbEntity
  8
Insert
100
AcDbLine
 10
8.371578903248973
 20
-25.0
 30
0.0
 11
8.371578903248973
 21
25.0
 31
0.0
  0
LINE
  5
12595
330
12590
100
AcDbEntity
  8
Insert
100
AcDbLine
 10
8.371578903248973
 20
-25.00000000000006
 30
0.0
 11
0.0000000000004547
 21
-10.0
 31
0.0
  0
LINE
  5
12596
330
12590
100
AcDbEntity
  8
Insert
100
AcDbLine
 10
11.87157890324897
 20
-25.0
 30
0.0
 11
8.371578903248973
 21
-25.0
 31
0.0
  0
ENDBLK
  5
12598
330
12590
100
AcDbEntity
  8
0
100
AcDbBlockEnd
  0
BLOCK
  5
12650
330
1263F
100
AcDbEntity
  8
0
100
AcDbBlockBegin
  2
A$C7DA24904
 70
     0
 10
0.0
 20
0.0
 30
0.0
  3
A$C7DA24904
  1

  0
HATCH
  5
12640
330
1263F
100
AcDbEntity
  8
Insert
100
AcDbHatch
 10
0.0
 20
0.0
 30
0.0
210
0.0
220
0.0
230
1.0
  2
SOLID
 70
     1
 71
     1
 91
        1
 92
        1
 93
        6
 72
     1
 10
5.683208745309343
 20
0.0000000000000568
 11
7.379593545308125
 21
-4.444533599996987
 72
     2
 10
5.683115175334478
 20
-4.980360024977528
 40
1.779086512088733
 50
342.4714707425489
 51
399.2210966703916
 73
     0
 72
     1
 10
7.061394345307462
 20
-6.105302399997015
 11
7.733826345307875
 21
-7.855199999994681
 72
     2
 10
6.026986657431507
 20
-4.877017979591244
 40
3.43261851459844
 50
299.8176530047359
 51
364.8326229761852
 73
     1
 72
     1
 10
9.447402396418624
 20
-4.587836307880422
 11
7.680853545307968
 21
0.0000000000000568
 72
     1
 10
7.680853545307968
 20
0.0000000000000568
 11
5.683208745309343
 21
0.0000000000000568
 97
        6
330
1264F
330
1264E
330
1264D
330
1264C
330
1264B
330
12649
 75
     0
 76
     1
 98
        1
 10
123.1041895375271
 20
314.3532193613657
450
        0
451
        0
460
0.0
461
0.0
452
        1
462
1.0
453
        2
463
0.0
 63
     5
421
      255
463
1.0
 63
     7
421
 16777215
470
LINEAR
  0
HATCH
  5
12641
330
1263F
100
AcDbEntity
  8
Insert
100
AcDbHatch
 10
0.0
 20
0.0
 30
0.0
210
0.0
220
0.0
230
1.0
  2
SOLID
 70
     1
 71
     1
 91
        1
 92
        1
 93
        6
 72
     1
 10
1.992432317014277
 20
0.0
 11
0.0
 21
0.0
 72
     1
 10
0.0
 20
0.0000000000000568
 11
2.746802496850023
 21
-7.162671424904374
 72
     2
 10
5.48070141800008
 20
-5.086938649304784
 40
3.43261851459844
 50
217.2078515414913
 51
282.2228215129755
 73
     1
 72
     1
 10
6.207435139390554
 20
-8.441745344922026
 11
5.535003139390141
 21
-6.691847744924359
 72
     2
 10
5.805288684072593
 20
-4.933412491117223
 40
1.779086512088733
 50
98.73842881184971
 51
155.4880547397589
 73
     0
 72
     1
 10
4.186542710119852
 20
-5.671525144651752
 11
1.992432317014277
 21
0.0
 97
        6
330
12642
330
12644
330
12645
330
12646
330
12647
330
12648
 75
     0
 76
     1
 98
        1
 10
123.1041895375271
 20
314.3532193613657
450
        0
451
        0
460
0.0
461
0.0
452
        1
462
1.0
453
        2
463
0.0
 63
     5
421
      255
463
1.0
 63
     7
421
 16777215
470
LINEAR
  0
LINE
  5
12642
102
{ACAD_REACTORS
330
12641
102
}
330
1263F
100
AcDbEntity
  8
Insert
100
AcDbLine
 10
1.992432317014277
 20
0.0
 30
0.0
 11
0.0
 21
0.0
 31
0.0
  0
LINE
  5
12643
330
1263F
100
AcDbEntity
  8
Insert
100
AcDbLine
 10
0.9864993996167186
 20
-2.572435065288743
 30
0.0
 11
0.9864993996167186
 21
-2.572435065288743
 31
0.0
  0
LINE
  5
12644
102
{ACAD_REACTORS
330
12641
102
}
330
1263F
100
AcDbEntity
  8
Insert
100
AcDbLine
 10
2.746802496850023
 20
-7.162671424904374
 30
0.0
 11
0.0
 21
0.0000000000000568
 31
0.0
  0
ARC
  5
12645
102
{ACAD_REACTORS
330
12641
102
}
330
1263F
100
AcDbEntity
  8
Insert
100
AcDbCircle
 10
5.48070141800008
 20
-5.086938649304784
 30
0.0
 40
3.43261851459844
100
AcDbArc
 50
217.2078515414913
 51
282.2228215129755
  0
LINE
  5
12646
102
{ACAD_REACTORS
330
12641
102
}
330
1263F
100
AcDbEntity
  8
Insert
100
AcDbLine
 10
5.535003139390141
 20
-6.691847744924359
 30
0.0
 11
6.207435139390554
 21
-8.441745344922026
 31
0.0
  0
ARC
  5
12647
102
{ACAD_REACTORS
330
12641
102
}
330
1263F
100
AcDbEntity
  8
Insert
100
AcDbCircle
 10
5.805288684072593
 20
-4.933412491117223
 30
0.0
 40
1.779086512088733
100
AcDbArc
 50
204.5119452602411
 51
261.2615711881503
  0
LINE
  5
12648
102
{ACAD_REACTORS
330
12641
102
}
330
1263F
100
AcDbEntity
  8
Insert
100
AcDbLine
 10
1.992432317014277
 20
0.0
 30
0.0
 11
4.186542710119852
 21
-5.671525144651752
 31
0.0
  0
LINE
  5
12649
102
{ACAD_REACTORS
330
12640
102
}
330
1263F
100
AcDbEntity
  8
Insert
100
AcDbLine
 10
7.680853545307968
 20
0.0000000000000568
 30
0.0
 11
5.683208745309343
 21
0.0000000000000568
 31
0.0
  0
LINE
  5
1264A
330
1263F
100
AcDbEntity
  8
Insert
100
AcDbLine
 10
7.680853545307968
 20
0.0000000000000568
 30
0.0
 11
7.680853545307968
 21
0.0000000000000568
 31
0.0
  0
LINE
  5
1264B
102
{ACAD_REACTORS
330
12640
102
}
330
1263F
100
AcDbEntity
  8
Insert
100
AcDbLine
 10
9.447402396418624
 20
-4.587836307880422
 30
0.0
 11
7.680853545307968
 21
0.0000000000000568
 31
0.0
  0
ARC
  5
1264C
102
{ACAD_REACTORS
330
12640
102
}
330
1263F
100
AcDbEntity
  8
Insert
100
AcDbCircle
 10
6.026986657431507
 20
-4.877017979591244
 30
0.0
 40
3.43261851459844
100
AcDbArc
 50
299.8176530047359
 51
4.832622976185222
  0
LINE
  5
1264D
102
{ACAD_REACTORS
330
12640
102
}
330
1263F
100
AcDbEntity
  8
Insert
100
AcDbLine
 10
7.061394345307462
 20
-6.105302399997015
 30
0.0
 11
7.733826345307875
 21
-7.855199999994681
 31
0.0
  0
ARC
  5
1264E
102
{ACAD_REACTORS
330
12640
102
}
330
1263F
100
AcDbEntity
  8
Insert
100
AcDbCircle
 10
5.683115175334478
 20
-4.980360024977528
 30
0.0
 40
1.779086512088733
100
AcDbArc
 50
320.7789033296084
 51
17.52852925745114
  0
LINE
  5
1264F
102
{ACAD_REACTORS
330
12640
102
}
330
1263F
100
AcDbEntity
  8
Insert
100
AcDbLine
 10
5.683208745309343
 20
0.0000000000000568
 30
0.0
 11
7.379593545308125
 21
-4.444533599996987
 31
0.0
  0
ENDBLK
  5
12651
330
1263F
100
AcDbEntity
  8
0
100
AcDbBlockEnd
  0
BLOCK
  5
12659
330
12656
100
AcDbEntity
  8
0
100
AcDbBlockBegin
  2
A$C28967C54
 70
     0
 10
0.0
 20
0.0
 30
0.0
  3
A$C28967C54
  1

  0
CIRCLE
  5
12657
330
12656
100
AcDbEntity
  8
Insert
100
AcDbCircle
 10
-174.1363917124181
 20
-136.641252874955
 30
0.0
 40
25.0
  0
INSERT
  5
12658
330
12656
100
AcDbEntity
  8
InsertDims
100
AcDbBlockReference
  2
A$C7DA24904
 10
-183.8462217517444
 20
-127.9742909719674
 30
0.0
 41
2.0
 42
2.0
 43
2.0
  0
ENDBLK
  5
1265A
330
12656
100
AcDbEntity
  8
0
100
AcDbBlockEnd
  0
BLOCK
  5
133E1
330
133C8
100
AcDbEntity
  8
0
100
AcDbBlockBegin
  2
A$C17E05194
 70
     0
 10
0.0
 20
0.0
 30
0.0
  3
A$C17E05194
  1

  0
LINE
  5
133C9
330
133C8
100
AcDbEntity
  8
Insert
100
AcDbLine
 10
62.99999999999989
 20
14.14213562373095
 30
0.0
 11
62.99999999999989
 21
-20.00000000000023
 31
0.0
  0
LINE
  5
133CA
330
133C8
100
AcDbEntity
  8
Insert
100
AcDbLine
 10
82.99999999999995
 20
14.14213562373095
 30
0.0
 11
82.99999999999982
 21
-20.00000000000023
 31
0.0
  0
LINE
  5
133CB
330
133C8
100
AcDbEntity
  8
Insert
100
AcDbLine
 10
88.75758622134929
 20
20.00000000000023
 30
0.0
 11
88.75758622134924
 21
-20.00000000000023
 31
0.0
  0
LINE
  5
133CC
330
133C8
100
AcDbEntity
  8
Insert
100
AcDbLine
 10
0.0
 20
20.0
 30
0.0
 11
0.0000000000000568
 21
-20.0
 31
0.0
  0
LINE
  5
133CD
330
133C8
100
AcDbEntity
  8
Insert
100
AcDbLine
 10
91.5
 20
0.25
 30
0.0
 11
91.5
 21
25.0
 31
0.0
  0
LINE
  5
133CE
330
133C8
100
AcDbEntity
  8
Insert
100
AcDbLine
 10
95.0
 20
0.25
 30
0.0
 11
95.0
 21
25.0
 31
0.0
  0
LINE
  5
133CF
330
133C8
100
AcDbEntity
  8
Insert
100
AcDbLine
 10
60.0
 20
0.0
 30
0.0
 11
53.07179676972447
 21
12.0
 31
0.0
  0
LINE
  5
133D0
330
133C8
100
AcDbEntity
  8
Insert
100
AcDbLine
 10
0.0000000000000568
 20
-20.0
 30
0.0
 11
88.75758622134936
 21
-20.00000000000023
 31
0.0
  0
LINE
  5
133D1
330
133C8
100
AcDbEntity
  8
Insert
100
AcDbLine
 10
60.0
 20
0.0
 30
0.0
 11
53.07179676972435
 21
-12.0
 31
0.0
  0
LINE
  5
133D2
330
133C8
100
AcDbEntity
  8
Insert
100
AcDbLine
 10
0.0
 20
-12.0
 30
0.0
 11
53.07179676972435
 21
-12.0
 31
0.0
  0
LINE
  5
133D3
330
133C8
100
AcDbEntity
  8
Insert
  6
HIDDEN2
100
AcDbLine
 10
0.0
 20
-13.19999999999993
 30
0.0
 11
49.77294498181868
 21
-13.20504648462565
 31
0.0
  0
ARC
  5
133D4
330
133C8
100
AcDbEntity
  8
Insert
100
AcDbCircle
 10
3.053832545771399
 20
-2.190304854066539
 30
0.0
 40
48.0
100
AcDbArc
 50
346.7339068011112
 51
347.9572741556838
  0
LINE
  5
133D5
330
133C8
100
AcDbEntity
  8
Insert
100
AcDbLine
 10
91.49999999999995
 20
-24.99999999999989
 30
0.0
 11
88.75758622134924
 21
-20.0
 31
0.0
  0
LINE
  5
133D6
330
133C8
100
AcDbEntity
  8
Insert
100
AcDbLine
 10
95.0
 20
-25.0
 30
0.0
 11
91.5
 21
-25.0
 31
0.0
  0
LINE
  5
133D7
330
133C8
100
AcDbEntity
  8
Insert
100
AcDbLine
 10
95.0
 20
-0.25
 30
0.0
 11
95.0
 21
-25.0
 31
0.0
  0
LINE
  5
133D8
330
133C8
100
AcDbEntity
  8
Insert
100
AcDbLine
 10
91.5
 20
-0.25
 30
0.0
 11
91.5
 21
-25.0
 31
0.0
  0
LINE
  5
133D9
330
133C8
100
AcDbEntity
  8
Insert
100
AcDbLine
 10
0.0
 20
20.0
 30
0.0
 11
88.75758622134929
 21
20.00000000000023
 31
0.0
  0
LINE
  5
133DA
330
133C8
100
AcDbEntity
  8
Insert
  6
HIDDEN2
100
AcDbLine
 10
-0.0000000000000568
 20
13.20000000000004
 30
0.0
 11
49.77613169260678
 21
13.19393805225434
 31
0.0
  0
LINE
  5
133DB
330
133C8
100
AcDbEntity
  8
Insert
100
AcDbLine
 10
-0.0023628325610048
 20
11.99118645398653
 30
0.0
 11
53.07179676972447
 21
12.0
 31
0.0
  0
ARC
  5
133DC
330
133C8
100
AcDbEntity
  8
Insert
100
AcDbCircle
 10
3.050077740798087
 20
2.208680563571533
 30
0.0
 40
48.0
100
AcDbArc
 50
12.00667275049853
 51
13.2299368753184
  0
ELLIPSE
  5
133DD
330
133C8
100
AcDbEntity
  8
Insert
100
AcDbEllipse
 10
72.99999999999989
 20
14.14213562373095
 30
0.0
 11
-10.0
 21
0.0
 31
0.0
210
0.0
220
0.0
230
1.0
 40
0.892766259006521
 41
0.0
 42
3.141592653589793
  0
ELLIPSE
  5
133DE
330
133C8
100
AcDbEntity
  8
Insert
100
AcDbEllipse
 10
72.99999999999994
 20
14.14213562373095
 30
0.0
 11
-10.00000000000005
 21
0.0
 31
0.0
210
0.0
220
0.0
230
1.0
 40
0.5166133873588336
 41
3.141592653589792
 42
6.283185307179586
  0
LINE
  5
133DF
330
133C8
100
AcDbEntity
  8
Insert
100
AcDbLine
 10
91.49999999999995
 20
25.0
 30
0.0
 11
88.75758622134929
 21
20.00000000000023
 31
0.0
  0
LINE
  5
133E0
330
133C8
100
AcDbEntity
  8
Insert
100
AcDbLine
 10
95.0
 20
25.0
 30
0.0
 11
91.5
 21
25.0
 31
0.0
  0
ENDBLK
  5
133E2
330
133C8
100
AcDbEntity
  8
0
100
AcDbBlockEnd
  0
BLOCK
  5
13B5E
330
13B5D
100
AcDbEntity
  8
0
100
AcDbBlockBegin
  2
A$C6D670A69
 70
     0
 10
0.0
 20
0.0
 30
0.0
  3
A$C6D670A69
  1

  0
LINE
  5
13B5F
330
13B5D
100
AcDbEntity
  8
UTB20
100
AcDbLine
 10
5.0
 20
0.0
 30
0.0
 11
10.75
 21
0.0000000000000568
 31
0.0
  0
LINE
  5
13B60
330
13B5D
100
AcDbEntity
  8
UTB20
100
AcDbLine
 10
5.0
 20
0.0
 30
0.0
 11
3.75
 21
1.399999999999977
 31
0.0
  0
LINE
  5
13B61
330
13B5D
100
AcDbEntity
  8
UTB20
100
AcDbLine
 10
0.0
 20
0.0
 30
0.0
 11
1.25
 21
1.399999999999977
 31
0.0
  0
LINE
  5
13B62
330
13B5D
100
AcDbEntity
  8
UTB20
100
AcDbLine
 10
3.75
 20
1.399999999999977
 30
0.0
 11
1.25
 21
1.399999999999977
 31
0.0
  0
ENDBLK
  5
13B63
330
13B5D
100
AcDbEntity
  8
0
100
AcDbBlockEnd
  0
BLOCK
  5
13B99
330
13B97
100
AcDbEntity
  8
0
100
AcDbBlockBegin
  2
A$C051E231E
 70
     0
 10
0.0
 20
0.0
 30
0.0
  3
A$C051E231E
  1

  0
INSERT
  5
13B98
330
13B97
100
AcDbEntity
  8
UTB20
100
AcDbBlockReference
  2
A$C6D670A69
 10
0.0
 20
0.0
 30
0.0
  0
ENDBLK
  5
13B9A
330
13B97
100
AcDbEntity
  8
0
100
AcDbBlockEnd
  0
BLOCK
  5
13BA7
330
13B9E
100
AcDbEntity
  8
0
100
AcDbBlockBegin
  2
A$C650E0C29
 70
     0
 10
0.0
 20
0.0
 30
0.0
  3
A$C650E0C29
  1

  0
INSERT
  5
13B9F
330
13B9E
100
AcDbEntity
  8
MuscleStart
100
AcDbBlockReference
  2
A$C6D670A69
 10
32.25000398655584
 20
0.0000044649423216
 30
0.0
  0
INSERT
  5
13BA0
330
13B9E
100
AcDbEntity
  8
MuscleStart
100
AcDbBlockReference
  2
A$C6D670A69
 10
0.0
 20
0.0
 30
0.0
  0
INSERT
  5
13BA1
330
13B9E
100
AcDbEntity
  8
MuscleStart
100
AcDbBlockReference
  2
A$C6D670A69
 10
21.50000199327792
 20
0.0000022324711608
 30
0.0
  0
INSERT
  5
13BA2
330
13B9E
100
AcDbEntity
  8
MuscleStart
100
AcDbBlockReference
  2
A$C6D670A69
 10
10.75
 20
0.0
 30
0.0
  0
INSERT
  5
13BA3
330
13B9E
100
AcDbEntity
  8
MuscleStart
100
AcDbBlockReference
  2
A$C6D670A69
 10
64.50000996638959
 20
0.0000111623558041
 30
0.0
  0
INSERT
  5
13BA4
330
13B9E
100
AcDbEntity
  8
MuscleStart
100
AcDbBlockReference
  2
A$C6D670A69
 10
53.75000797311168
 20
0.0000089298846433
 30
0.0
  0
INSERT
  5
13BA5
330
13B9E
100
AcDbEntity
  8
MuscleStart
100
AcDbBlockReference
  2
A$C6D670A69
 10
43.00000597983376
 20
0.0000066974134825
 30
0.0
  0
INSERT
  5
13BA6
330
13B9E
100
AcDbEntity
  8
MuscleStart
100
AcDbBlockReference
  2
A$C6D670A69
 10
75.2500099663896
 20
0.0000111623558041
 30
0.0
  0
ENDBLK
  5
13BA8
330
13B9E
100
AcDbEntity
  8
0
100
AcDbBlockEnd
  0
BLOCK
  5
13BF5
330
13BD4
100
AcDbEntity
  8
0
100
AcDbBlockBegin
  2
A$C3C7212E3
 70
     0
 10
0.0
 20
0.0
 30
0.0
  3
A$C3C7212E3
  1

  0
LINE
  5
13BD5
330
13BD4
100
AcDbEntity
  8
MuscleStart
100
AcDbLine
 10
80.2500099663896
 20
0.0000111623558041
 30
0.0
 11
86.00000996638959
 21
0.0000111623558041
 31
0.0
  0
LINE
  5
13BD6
330
13BD4
100
AcDbEntity
  8
MuscleStart
100
AcDbLine
 10
15.75
 20
0.0
 30
0.0
 11
21.5
 21
0.0
 31
0.0
  0
LINE
  5
13BD7
330
13BD4
100
AcDbEntity
  8
MuscleStart
100
AcDbLine
 10
3.75
 20
1.399999999999977
 30
0.0
 11
1.25
 21
1.399999999999977
 31
0.0
  0
LINE
  5
13BD8
330
13BD4
100
AcDbEntity
  8
MuscleStart
100
AcDbLine
 10
0.0
 20
0.0
 30
0.0
 11
1.25
 21
1.399999999999977
 31
0.0
  0
LINE
  5
13BD9
330
13BD4
100
AcDbEntity
  8
MuscleStart
100
AcDbLine
 10
5.0
 20
0.0
 30
0.0
 11
3.75
 21
1.399999999999977
 31
0.0
  0
LINE
  5
13BDA
330
13BD4
100
AcDbEntity
  8
MuscleStart
100
AcDbLine
 10
5.0
 20
0.0
 30
0.0
 11
10.75
 21
0.0
 31
0.0
  0
LINE
  5
13BDB
330
13BD4
100
AcDbEntity
  8
MuscleStart
100
AcDbLine
 10
14.5
 20
1.399999999999977
 30
0.0
 11
12.0
 21
1.399999999999977
 31
0.0
  0
LINE
  5
13BDC
330
13BD4
100
AcDbEntity
  8
MuscleStart
100
AcDbLine
 10
10.75
 20
0.0
 30
0.0
 11
12.0
 21
1.399999999999977
 31
0.0
  0
LINE
  5
13BDD
330
13BD4
100
AcDbEntity
  8
MuscleStart
100
AcDbLine
 10
15.75
 20
0.0
 30
0.0
 11
14.5
 21
1.399999999999977
 31
0.0
  0
LINE
  5
13BDE
330
13BD4
100
AcDbEntity
  8
MuscleStart
100
AcDbLine
 10
48.00000597983376
 20
0.0000066974134825
 30
0.0
 11
53.75000597983376
 21
0.0000066974134825
 31
0.0
  0
LINE
  5
13BDF
330
13BD4
100
AcDbEntity
  8
MuscleStart
100
AcDbLine
 10
36.00000398655584
 20
1.400004464942298
 30
0.0
 11
33.50000398655584
 21
1.400004464942298
 31
0.0
  0
LINE
  5
13BE0
330
13BD4
100
AcDbEntity
  8
MuscleStart
100
AcDbLine
 10
32.25000398655584
 20
0.0000044649423216
 30
0.0
 11
33.50000398655584
 21
1.400004464942298
 31
0.0
  0
LINE
  5
13BE1
330
13BD4
100
AcDbEntity
  8
MuscleStart
100
AcDbLine
 10
37.25000398655584
 20
0.0000044649423216
 30
0.0
 11
36.00000398655584
 21
1.400004464942298
 31
0.0
  0
LINE
  5
13BE2
330
13BD4
100
AcDbEntity
  8
MuscleStart
100
AcDbLine
 10
37.25000398655584
 20
0.0000044649423216
 30
0.0
 11
43.00000398655583
 21
0.0000044649423216
 31
0.0
  0
LINE
  5
13BE3
330
13BD4
100
AcDbEntity
  8
MuscleStart
100
AcDbLine
 10
25.25000199327792
 20
1.400002232471138
 30
0.0
 11
22.75000199327792
 21
1.400002232471138
 31
0.0
  0
LINE
  5
13BE4
330
13BD4
100
AcDbEntity
  8
MuscleStart
100
AcDbLine
 10
21.50000199327792
 20
0.0000022324711608
 30
0.0
 11
22.75000199327792
 21
1.400002232471138
 31
0.0
  0
LINE
  5
13BE5
330
13BD4
100
AcDbEntity
  8
MuscleStart
100
AcDbLine
 10
26.50000199327792
 20
0.0000022324711608
 30
0.0
 11
25.25000199327792
 21
1.400002232471138
 31
0.0
  0
LINE
  5
13BE6
330
13BD4
100
AcDbEntity
  8
MuscleStart
100
AcDbLine
 10
26.50000199327792
 20
0.0000022324711608
 30
0.0
 11
32.25000199327792
 21
0.0000022324711608
 31
0.0
  0
LINE
  5
13BE7
330
13BD4
100
AcDbEntity
  8
MuscleStart
100
AcDbLine
 10
46.75000597983376
 20
1.400006697413459
 30
0.0
 11
44.25000597983376
 21
1.400006697413459
 31
0.0
  0
LINE
  5
13BE8
330
13BD4
100
AcDbEntity
  8
MuscleStart
100
AcDbLine
 10
43.00000597983376
 20
0.0000066974134825
 30
0.0
 11
44.25000597983376
 21
1.400006697413459
 31
0.0
  0
LINE
  5
13BE9
330
13BD4
100
AcDbEntity
  8
MuscleStart
100
AcDbLine
 10
48.00000597983376
 20
0.0000066974134825
 30
0.0
 11
46.75000597983376
 21
1.400006697413459
 31
0.0
  0
LINE
  5
13BEA
330
13BD4
100
AcDbEntity
  8
MuscleStart
100
AcDbLine
 10
68.25000996638959
 20
1.400011162355781
 30
0.0
 11
65.75000996638959
 21
1.400011162355781
 31
0.0
  0
LINE
  5
13BEB
330
13BD4
100
AcDbEntity
  8
MuscleStart
100
AcDbLine
 10
64.50000996638959
 20
0.0000111623558041
 30
0.0
 11
65.75000996638959
 21
1.400011162355781
 31
0.0
  0
LINE
  5
13BEC
330
13BD4
100
AcDbEntity
  8
MuscleStart
100
AcDbLine
 10
69.50000996638959
 20
0.0000111623558041
 30
0.0
 11
68.25000996638959
 21
1.400011162355781
 31
0.0
  0
LINE
  5
13BED
330
13BD4
100
AcDbEntity
  8
MuscleStart
100
AcDbLine
 10
69.50000996638959
 20
0.0000111623558041
 30
0.0
 11
75.2500099663896
 21
0.0000111623558041
 31
0.0
  0
LINE
  5
13BEE
330
13BD4
100
AcDbEntity
  8
MuscleStart
100
AcDbLine
 10
57.50000797311168
 20
1.40000892988462
 30
0.0
 11
55.00000797311168
 21
1.40000892988462
 31
0.0
  0
LINE
  5
13BEF
330
13BD4
100
AcDbEntity
  8
MuscleStart
100
AcDbLine
 10
53.75000797311168
 20
0.0000089298846433
 30
0.0
 11
55.00000797311168
 21
1.40000892988462
 31
0.0
  0
LINE
  5
13BF0
330
13BD4
100
AcDbEntity
  8
MuscleStart
100
AcDbLine
 10
58.75000797311168
 20
0.0000089298846433
 30
0.0
 11
57.50000797311168
 21
1.40000892988462
 31
0.0
  0
LINE
  5
13BF1
330
13BD4
100
AcDbEntity
  8
MuscleStart
100
AcDbLine
 10
58.75000797311168
 20
0.0000089298846433
 30
0.0
 11
64.50000797311168
 21
0.0000089298846433
 31
0.0
  0
LINE
  5
13BF2
330
13BD4
100
AcDbEntity
  8
MuscleStart
100
AcDbLine
 10
79.0000099663896
 20
1.400011162355781
 30
0.0
 11
76.5000099663896
 21
1.400011162355781
 31
0.0
  0
LINE
  5
13BF3
330
13BD4
100
AcDbEntity
  8
MuscleStart
100
AcDbLine
 10
75.2500099663896
 20
0.0000111623558041
 30
0.0
 11
76.5000099663896
 21
1.400011162355781
 31
0.0
  0
LINE
  5
13BF4
330
13BD4
100
AcDbEntity
  8
MuscleStart
100
AcDbLine
 10
80.2500099663896
 20
0.0000111623558041
 30
0.0
 11
79.0000099663896
 21
1.400011162355781
 31
0.0
  0
ENDBLK
  5
13BF6
330
13BD4
100
AcDbEntity
  8
0
100
AcDbBlockEnd
  0
BLOCK
  5
13E9A
330
13E92
100
AcDbEntity
  8
0
100
AcDbBlockBegin
  2
A$C2C446AB3
 70
     0
 10
0.0
 20
0.0
 30
0.0
  3
A$C2C446AB3
  1

  0
LINE
  5
13E93
330
13E92
100
AcDbEntity
  8
BORDER_ITEM_LIST_A1
  6
Continuous
 62
     2
100
AcDbLine
 10
33.32505026495903
 20
80.44836540803828
 30
0.0
 11
33.32505026495903
 21
0.4624578898229288
 31
0.0
  0
LINE
  5
13E94
330
13E92
100
AcDbEntity
  8
BORDER_ITEM_LIST_A1
  6
Continuous
 62
     2
100
AcDbLine
 10
30.77969506920647
 20
80.44836540803828
 30
0.0
 11
30.77969506920647
 21
-0.000000893169215
 31
0.0
  0
MTEXT
  5
13E95
330
13E92
100
AcDbEntity
  8
BORDER_ITEM_LIST_A1
100
AcDbMText
 10
4.517328329271776
 20
8.617117034622083
 30
0.0
 40
5.0
 41
28.84335121835363
 46
0.0
 71
     1
 72
     5
  1
{\fArial|b1|i0|c0|p34;M24}
 73
     1
 44
1.0
  0
MTEXT
  5
13E96
330
13E92
100
AcDbEntity
  8
BORDER_ITEM_LIST_A1
100
AcDbMText
 10
4.517328329271776
 20
20.46650789486364
 30
0.0
 40
5.0
 41
28.84335121835363
 46
0.0
 71
     1
 72
     5
  1
{\fArial|b1|i0|c0|p34;M20}
 73
     1
 44
1.0
  0
MTEXT
  5
13E97
330
13E92
100
AcDbEntity
  8
BORDER_ITEM_LIST_A1
100
AcDbMText
 10
0.9448200905336534
 20
79.46675801131409
 30
0.0
 40
5.0
 41
28.84335121835363
 46
0.0
 71
     1
 72
     5
  1
{\fArial|b1|i0|c0|p34;Standard\PISO Metric Tap}
 73
     1
 44
1.0
  0
MTEXT
  5
13E98
330
13E92
100
AcDbEntity
  8
BORDER_ITEM_LIST_A1
100
AcDbMText
 10
4.517328329271776
 20
32.3158987551052
 30
0.0
 40
5.0
 41
28.84335121835363
 46
0.0
 71
     1
 72
     5
  1
{\fArial|b1|i0|c0|p34;M16}
 73
     1
 44
1.0
  0
MTEXT
  5
13E99
330
13E92
100
AcDbEntity
  8
BORDER_ITEM_LIST_A1
100
AcDbMText
 10
4.517328329271776
 20
44.16528961534658
 30
0.0
 40
5.0
 41
28.84335121835363
 46
0.0
 71
     1
 72
     5
  1
{\fArial|b1|i0|c0|p34;M12}
 73
     1
 44
1.0
  0
ENDBLK
  5
13E9B
330
13E92
100
AcDbEntity
  8
0
100
AcDbBlockEnd
  0
BLOCK
  5
15657
330
15655
100
AcDbEntity
  8
0
100
AcDbBlockBegin
  2
A$C7C5C0D6E
 70
     0
 10
0.0
 20
0.0
 30
0.0
  3
A$C7C5C0D6E
  1

  0
LINE
  5
15656
330
15655
100
AcDbEntity
  8
Construction
  6
CENTER
100
AcDbLine
 10
0.0
 20
-26.41166797946449
 30
0.0
 11
0.0
 21
26.41166797946449
 31
0.0
  0
ENDBLK
  5
15658
330
15655
100
AcDbEntity
  8
0
100
AcDbBlockEnd
  0
BLOCK
  5
1565B
330
15659
100
AcDbEntity
  8
0
100
AcDbBlockBegin
  2
A$C76E56FEB
 70
     0
 10
0.0
 20
0.0
 30
0.0
  3
A$C76E56FEB
  1

  0
LINE
  5
1565A
330
15659
100
AcDbEntity
  8
Construction
  6
CENTER
100
AcDbLine
 10
0.0
 20
-26.41166797946449
 30
0.0
 11
0.0
 21
26.41166797946449
 31
0.0
  0
ENDBLK
  5
1565C
330
15659
100
AcDbEntity
  8
0
100
AcDbBlockEnd
  0
BLOCK
  5
1565F
330
1565D
100
AcDbEntity
  8
0
100
AcDbBlockBegin
  2
A$C024639DF
 70
     0
 10
0.0
 20
0.0
 30
0.0
  3
A$C024639DF
  1

  0
LINE
  5
1565E
330
1565D
100
AcDbEntity
  8
Construction
  6
CENTER
100
AcDbLine
 10
0.0
 20
-26.41166797946449
 30
0.0
 11
0.0
 21
26.41166797946449
 31
0.0
  0
ENDBLK
  5
15660
330
1565D
100
AcDbEntity
  8
0
100
AcDbBlockEnd
  0
BLOCK
  5
156F9
330
156F1
100
AcDbEntity
  8
0
100
AcDbBlockBegin
  2
A$C406A5D29
 70
     0
 10
0.0
 20
0.0
 30
0.0
  3
A$C406A5D29
  1

  0
LINE
  5
156F2
330
156F1
100
AcDbEntity
  8
Insert
100
AcDbLine
 10
8.005873509294815
 20
10.00658855689482
 30
0.0
 11
7.952597002891707
 21
-9.993411443105287
 31
0.0
  0
LINE
  5
156F3
330
156F1
100
AcDbEntity
  8
Insert
100
AcDbLine
 10
14.00587350929481
 20
-24.99341144310518
 30
0.0
 11
14.00587350929481
 21
25.00658855689483
 31
0.0
  0
LINE
  5
156F4
330
156F1
100
AcDbEntity
  8
Insert
100
AcDbLine
 10
17.50587350929481
 20
-24.99341144310518
 30
0.0
 11
17.50587350929481
 21
25.00658855689477
 31
0.0
  0
LINE
  5
156F5
330
156F1
100
AcDbEntity
  8
Insert
100
AcDbLine
 10
14.00587350929481
 20
-24.99341144310518
 30
0.0
 11
7.952579263104325
 21
-10.00007095915004
 31
0.0
  0
LINE
  5
156F6
330
156F1
100
AcDbEntity
  8
Insert
100
AcDbLine
 10
17.50587350929481
 20
-24.99341144310518
 30
0.0
 11
14.00587350929481
 21
-24.99341144310518
 31
0.0
  0
LINE
  5
156F7
330
156F1
100
AcDbEntity
  8
Insert
100
AcDbLine
 10
14.00587350929481
 20
25.00658855689477
 30
0.0
 11
8.005873509294815
 21
10.00658855689482
 31
0.0
  0
LINE
  5
156F8
330
156F1
100
AcDbEntity
  8
Insert
100
AcDbLine
 10
17.50587350929481
 20
25.00658855689483
 30
0.0
 11
14.00587350929481
 21
25.00658855689483
 31
0.0
  0
ENDBLK
  5
156FA
330
156F1
100
AcDbEntity
  8
0
100
AcDbBlockEnd
  0
BLOCK
  5
1743E
330
1743D
100
AcDbEntity
  8
0
100
AcDbBlockBegin
  2
ANcon Contact Detail
 70
     0
 10
0.0
 20
0.0
 30
0.0
  3
ANcon Contact Detail
  1

  0
MTEXT
  5
1749A
330
1743D
100
AcDbEntity
  8
ANCON-TEXT
100
AcDbMText
 10
-46.79776227536058
 20
18.31020521152732
 30
0.0
 40
40.44367786450478
 41
1138.405266093125
 46
0.0
 71
     1
 72
     5
  1
{\fArial|b0|i0|c0|p34;Leviat  \PTel:  1300 304 320\PEmail: technical.au@leviat.com\PWeb: ancon.com.au / Leviat.com}
 73
     1
 44
1.0
101
Embedded Object
 70
     1
 10
1.0
 20
0.0
 30
0.0
 11
-46.79776227536058
 21
18.31020521152732
 31
0.0
 40
1138.405266093125
 41
0.0
 42
818.4465151475194
 43
244.951852495865
 71
     2
 72
     1
 44
1138.405266093125
 45
5.055459733063098
 73
     0
 74
     0
 46
0.0
  0
ENDBLK
  5
17443
330
1743D
100
AcDbEntity
  8
0
100
AcDbBlockEnd
  0
ENDSEC
  0
SECTION
  2
ENTITIES
  0
MTEXT
  5
186E
330
18
100
AcDbEntity
  8
Defpoint
100
AcDbMText
 10
-221.9280480420825
 20
367.1109073896205
 30
0.0
 40
3.5
 41
84.03029999999999
 46
0.0
 71
     1
 72
     5
  1

 73
     1
 44
1.0
  0
TEXT
  5
2E81
330
18
100
AcDbEntity
  8
BORDER_ITEM_LIST_A1
  6
Continuous
 62
     4
100
AcDbText
 10
750.028236
 20
562.947718
 30
0.0
 40
3.5
  1

 41
0.75
100
AcDbText
  0
TEXT
  5
2E82
330
18
100
AcDbEntity
  8
BORDER_ITEM_LIST_A1
  6
Continuous
 62
     4
100
AcDbText
 10
773.5282360000001
 20
562.947718
 30
0.0
 40
3.5
  1

 41
0.75
100
AcDbText
  0
MTEXT
  5
C60E
330
18
100
AcDbEntity
  8
BORDER_A1
100
AcDbMText
 10
802.5795049999999
 20
91.92826296152997
 30
0.0
 40
15.0
 41
40.0
 46
0.0
 71
     5
 72
     5
  1

 73
     1
 44
1.0
  0
LINE
  5
EF68
330
18
100
AcDbEntity
  8
Construction
  6
CENTER
100
AcDbLine
 10
1768.644755211176
 20
1207.205487485855
 30
0.0
 11
1768.644755211176
 21
1302.48660278329
 31
0.0
  0
LINE
  5
EF74
330
18
100
AcDbEntity
  8
Construction
  6
CENTER
100
AcDbLine
 10
1817.644755211175
 20
1268.088120751489
 30
0.0
 11
1710.434846492853
 21
1268.088120751489
 31
0.0
  0
CIRCLE
  5
EF75
330
18
100
AcDbEntity
  8
Insert
100
AcDbCircle
 10
1768.644755211176
 20
1268.088120751489
 30
0.0
 40
8.0
  0
CIRCLE
  5
EF76
330
18
100
AcDbEntity
  8
Insert
100
AcDbCircle
 10
1768.644755211176
 20
1268.088120751489
 30
0.0
 40
12.5
  0
CIRCLE
  5
EF77
330
18
100
AcDbEntity
  8
Insert
100
AcDbCircle
 10
1768.644755211176
 20
1268.088120751489
 30
0.0
 40
25.0
  0
LINE
  5
EF79
330
18
100
AcDbEntity
  8
Insert
  6
HIDDEN
100
AcDbLine
 10
1757.979390707325
 20
1273.588120751489
 30
0.0
 11
1779.310119715026
 21
1273.588120751489
 31
0.0
  0
LINE
  5
EF7A
330
18
100
AcDbEntity
  8
Insert
  6
HIDDEN
100
AcDbLine
 10
1757.979390707325
 20
1262.588120751489
 30
0.0
 11
1779.310119715027
 21
1262.588120751489
 31
0.0
  0
CIRCLE
  5
EF7D
330
18
100
AcDbEntity
  8
InsertDims
100
AcDbCircle
 10
1768.644755211176
 20
1268.088120751489
 30
0.0
 40
5.5
  0
LINE
  5
EF7E
330
18
100
AcDbEntity
  8
Construction
  6
ACAD_ISO02W100
100
AcDbLine
 10
1768.644755211176
 20
1268.088120751489
 30
0.0
 11
1817.644755211176
 21
1268.088120751489
 31
0.0
  0
LINE
  5
EF83
330
18
100
AcDbEntity
  8
Insert
100
AcDbLine
 10
1838.10910601406
 20
1255.588120751489
 30
0.0
 11
1923.669799893992
 21
1255.588120751489
 31
0.0
  0
LINE
  5
EF84
330
18
100
AcDbEntity
  8
Insert
100
AcDbLine
 10
1838.10910601406
 20
1280.588120751489
 30
0.0
 11
1923.671764694807
 21
1280.672566938721
 31
0.0
  0
LINE
  5
EF85
330
18
100
AcDbEntity
  8
Insert
100
AcDbLine
 10
1838.10910601406
 20
1280.588120751489
 30
0.0
 11
1838.10910601406
 21
1255.588120751489
 31
0.0
  0
LINE
  5
EF87
330
18
100
AcDbEntity
  8
Insert
100
AcDbLine
 10
1934.109106014059
 20
1243.088120751489
 30
0.0
 11
1934.10910601406
 21
1293.088120751489
 31
0.0
  0
LINE
  5
EF88
330
18
100
AcDbEntity
  8
Insert
100
AcDbLine
 10
1930.60910601406
 20
1243.088120751489
 30
0.0
 11
1930.609106014059
 21
1293.088120751489
 31
0.0
  0
CIRCLE
  5
EF8A
330
18
100
AcDbEntity
  8
Insert
100
AcDbCircle
 10
1916.60910601406
 20
1268.088120751489
 30
0.0
 40
5.5
  0
LINE
  5
EF8B
330
18
100
AcDbEntity
  8
Insert
100
AcDbLine
 10
1923.671764694807
 20
1280.672566938721
 30
0.0
 11
1923.671764694807
 21
1255.588120751489
 31
0.0
  0
LINE
  5
EF8C
330
18
100
AcDbEntity
  8
Insert
100
AcDbLine
 10
1930.60910601406
 20
1243.088120751489
 30
0.0
 11
1923.669799893992
 21
1255.588120751489
 31
0.0
  0
LINE
  5
EF8E
330
18
100
AcDbEntity
  8
Insert
100
AcDbLine
 10
1934.10910601406
 20
1243.088120751489
 30
0.0
 11
1930.60910601406
 21
1243.088120751489
 31
0.0
  0
LINE
  5
EF91
330
18
100
AcDbEntity
  8
Insert
100
AcDbLine
 10
1930.60910601406
 20
1293.088120751489
 30
0.0
 11
1923.671764694807
 21
1280.672566938721
 31
0.0
  0
LINE
  5
EF95
330
18
100
AcDbEntity
  8
Insert
100
AcDbLine
 10
1934.10910601406
 20
1293.088120751489
 30
0.0
 11
1930.60910601406
 21
1293.088120751489
 31
0.0
  0
LINE
  5
FB3F
330
18
100
AcDbEntity
  8
Construction
  6
CENTER
100
AcDbLine
 10
2507.767172878995
 20
860.1246182174667
 30
0.0
 11
2400.557264160672
 21
860.1246182174667
 31
0.0
  0
LINE
  5
FB40
330
18
100
AcDbEntity
  8
Construction
  6
ACAD_ISO02W100
100
AcDbLine
 10
2458.767172878995
 20
860.1246182174667
 30
0.0
 11
2507.767172878995
 21
860.1246182174667
 31
0.0
  0
LINE
  5
FB44
330
18
100
AcDbEntity
  8
Construction
  6
CENTER
100
AcDbLine
 10
2458.767172878995
 20
946.1715243081561
 30
0.0
 11
2747.951137734924
 21
946.1715243081561
 31
0.0
  0
CIRCLE
  5
FB48
330
18
100
AcDbEntity
  8
Insert
100
AcDbCircle
 10
2458.767172878995
 20
946.1715243081561
 30
0.0
 40
25.0
  0
CIRCLE
  5
FB51
330
18
100
AcDbEntity
  8
Insert
100
AcDbCircle
 10
2458.767172878995
 20
860.1246182174667
 30
0.0
 40
25.0
  0
LINE
  5
FB52
330
18
100
AcDbEntity
  8
Construction
  6
CENTER
100
AcDbLine
 10
2458.767172878995
 20
813.4249204306188
 30
0.0
 11
2458.767172878995
 21
894.5231002492683
 31
0.0
  0
CIRCLE
  5
FB53
330
18
100
AcDbEntity
  8
Insert
100
AcDbCircle
 10
2458.767172878995
 20
860.1246182174667
 30
0.0
 40
10.0
  0
CIRCLE
  5
FB55
330
18
100
AcDbEntity
  8
Insert
100
AcDbCircle
 10
2458.767172878995
 20
860.1246182174667
 30
0.0
 40
6.0
  0
CIRCLE
  5
FB56
330
18
100
AcDbEntity
  8
Insert
  6
HIDDEN2
100
AcDbCircle
 10
2458.767172878995
 20
860.1246182174667
 30
0.0
 40
10.0
  0
LINE
  5
FB5D
330
18
100
AcDbEntity
  8
Construction
  6
CENTER
100
AcDbLine
 10
2458.767172878995
 20
884.6246182174668
 30
0.0
 11
2458.767172878995
 21
937.4479541763959
 31
0.0
  0
CIRCLE
  5
FB5F
330
18
100
AcDbEntity
  8
Insert
100
AcDbCircle
 10
2458.767172878995
 20
946.1715243081561
 30
0.0
 40
10.0
  0
CIRCLE
  5
FB60
330
18
100
AcDbEntity
  8
Insert
100
AcDbCircle
 10
2458.767172878995
 20
946.1715243081561
 30
0.0
 40
6.0
  0
CIRCLE
  5
FB61
330
18
100
AcDbEntity
  8
Insert
  6
HIDDEN2
100
AcDbCircle
 10
2458.767172878995
 20
946.1715243081561
 30
0.0
 40
10.0
  0
LINE
  5
FB6A
330
18
100
AcDbEntity
  8
Construction
  6
CENTER
100
AcDbLine
 10
2458.767172878995
 20
970.6715243081562
 30
0.0
 11
2458.767172878995
 21
1023.494860267085
 31
0.0
  0
LINE
  5
FB84
330
18
100
AcDbEntity
  8
Insert
100
AcDbLine
 10
2528.231523681879
 20
850.1246182174668
 30
0.0
 11
2614.684102944983
 21
850.1245472583168
 31
0.0
  0
LINE
  5
FB85
330
18
100
AcDbEntity
  8
Insert
100
AcDbLine
 10
2528.231523681879
 20
870.1246182174667
 30
0.0
 11
2614.737379640409
 21
870.1246182174669
 31
0.0
  0
LINE
  5
FB87
330
18
100
AcDbEntity
  8
Insert
100
AcDbLine
 10
2528.231523681879
 20
870.1246182174669
 30
0.0
 11
2528.231523681879
 21
850.1246182174666
 31
0.0
  0
CIRCLE
  5
FB8D
330
18
100
AcDbEntity
  8
Insert
100
AcDbCircle
 10
2606.731523681879
 20
860.1246182174667
 30
0.0
 40
5.5
  0
LINE
  5
FB8F
330
18
100
AcDbEntity
  8
Insert
100
AcDbLine
 10
2528.231523681879
 20
936.1715243081562
 30
0.0
 11
2614.684120684771
 21
936.1781128650509
 31
0.0
  0
LINE
  5
FB90
330
18
100
AcDbEntity
  8
Insert
100
AcDbLine
 10
2528.231523681879
 20
956.1715243081563
 30
0.0
 11
2614.737362573035
 21
956.1651172165039
 31
0.0
  0
LINE
  5
FB95
330
18
100
AcDbEntity
  8
Insert
100
AcDbLine
 10
2528.231523681878
 20
956.1715243081563
 30
0.0
 11
2528.231523681879
 21
936.1715243081562
 31
0.0
  0
CIRCLE
  5
FE95
330
18
100
AcDbEntity
  8
Insert
  6
HIDDEN2
100
AcDbCircle
 10
2458.767172878995
 20
860.1246182174667
 30
0.0
 40
6.5
  0
CIRCLE
  5
FE9C
330
18
100
AcDbEntity
  8
Insert
  6
HIDDEN2
100
AcDbCircle
 10
2458.767172878995
 20
946.171524308156
 30
0.0
 40
6.5
  0
LINE
  5
FEA4
330
18
100
AcDbEntity
  8
Insert
  6
HIDDEN
100
AcDbLine
 10
2450.41552633475
 20
865.6246182174667
 30
0.0
 11
2467.11881942324
 21
865.6246182174671
 31
0.0
  0
LINE
  5
FEA5
330
18
100
AcDbEntity
  8
Insert
  6
HIDDEN
100
AcDbLine
 10
2450.41552633475
 20
854.6246182174668
 30
0.0
 11
2467.11881942324
 21
854.624618217467
 31
0.0
  0
LINE
  5
FEAC
330
18
100
AcDbEntity
  8
Insert
  6
HIDDEN
100
AcDbLine
 10
2448.972579676961
 20
944.1551056991732
 30
0.0
 11
2460.783591487978
 21
955.9661175101908
 31
0.0
  0
LINE
  5
FEAD
330
18
100
AcDbEntity
  8
Insert
  6
HIDDEN
100
AcDbLine
 10
2456.750754270013
 20
936.3769311061208
 30
0.0
 11
2468.561766081031
 21
948.1879429171387
 31
0.0
  0
LINE
  5
FEB7
330
18
100
AcDbEntity
  8
Insert
  6
HIDDEN
100
AcDbLine
 10
2601.231523681879
 20
953.2425921200214
 30
0.0
 11
2601.231523681879
 21
936.1715243081562
 31
0.0
  0
ELLIPSE
  5
FEB8
330
18
100
AcDbEntity
  8
Insert
100
AcDbEllipse
 10
2606.731523681879
 20
953.2425921200214
 30
0.0
 11
-5.5
 21
0.0
 31
0.0
210
0.0
220
0.0
230
1.0
 40
0.4951864345762364
 41
3.141592653589793
 42
6.283185307179586
  0
ELLIPSE
  5
FEB9
330
18
100
AcDbEntity
  8
Insert
100
AcDbEllipse
 10
2606.731523681879
 20
953.2425921200214
 30
0.0
 11
-5.5
 21
0.0
 31
0.0
210
0.0
220
0.0
230
1.0
 40
0.9190271277968701
 41
0.0
 42
3.141592653589793
  0
LINE
  5
FF81
330
18
100
AcDbEntity
  8
Insert
100
AcDbLine
 10
2528.231523681879
 20
1567.609694690048
 30
0.0
 11
2570.860658802304
 21
1567.597363482704
 31
0.0
  0
LINE
  5
FF87
330
18
100
AcDbEntity
  8
Insert
100
AcDbLine
 10
2570.860691650486
 20
1567.609694690048
 30
0.0
 11
2570.807415144083
 21
1547.609694690049
 31
0.0
  0
LINE
  5
FF8D
330
18
100
AcDbEntity
  8
Insert
100
AcDbLine
 10
2528.231523681879
 20
1567.609694690048
 30
0.0
 11
2528.231523681879
 21
1547.609694690049
 31
0.0
  0
LINE
  5
FF8E
330
18
100
AcDbEntity
  8
Insert
100
AcDbLine
 10
2528.231523681879
 20
1547.609694690049
 30
0.0
 11
2570.807382295901
 21
1547.597363482704
 31
0.0
  0
CIRCLE
  5
FF90
330
18
100
AcDbEntity
  8
Insert
100
AcDbCircle
 10
2564.23152368188
 20
1557.609694690049
 30
0.0
 40
5.5
  0
LINE
  5
FF91
330
18
100
AcDbEntity
  8
Insert
  6
HIDDEN
100
AcDbLine
 10
2450.41552633475
 20
1552.104741329555
 30
0.0
 11
2467.11881942324
 21
1552.104741329555
 31
0.0
  0
LINE
  5
FF92
330
18
100
AcDbEntity
  8
Insert
  6
HIDDEN
100
AcDbLine
 10
2450.41552633475
 20
1563.104741329554
 30
0.0
 11
2467.11881942324
 21
1563.104741329555
 31
0.0
  0
CIRCLE
  5
FF95
330
18
100
AcDbEntity
  8
Insert
  6
HIDDEN2
100
AcDbCircle
 10
2458.767172878995
 20
1557.604741329554
 30
0.0
 40
10.0
  0
CIRCLE
  5
FF96
330
18
100
AcDbEntity
  8
Insert
100
AcDbCircle
 10
2458.767172878995
 20
1557.604741329554
 30
0.0
 40
10.0
  0
LINE
  5
FF9A
330
18
100
AcDbEntity
  8
Insert
100
AcDbLine
 10
2575.231523681879
 20
1540.109694690048
 30
0.0
 11
2575.231523681879
 21
1575.109694690049
 31
0.0
  0
LINE
  5
FFA0
330
18
100
AcDbEntity
  8
Construction
  6
CENTER
100
AcDbLine
 10
2458.767172878995
 20
1510.905043542706
 30
0.0
 11
2458.767172878995
 21
1592.003223361356
 31
0.0
  0
CIRCLE
  5
FFA1
330
18
100
AcDbEntity
  8
Insert
100
AcDbCircle
 10
2458.767172878995
 20
1557.604741329554
 30
0.0
 40
17.5
  0
LINE
  5
FFA2
330
18
100
AcDbEntity
  8
Construction
  6
ACAD_ISO02W100
100
AcDbLine
 10
2458.767172878995
 20
1557.604741329554
 30
0.0
 11
2507.767172878995
 21
1557.604741329554
 31
0.0
  0
LINE
  5
FFA3
330
18
100
AcDbEntity
  8
Construction
  6
CENTER
100
AcDbLine
 10
2507.767172878995
 20
1557.604741329554
 30
0.0
 11
2400.557264160672
 21
1557.604741329554
 31
0.0
  0
LINE
  5
100DB
330
18
100
AcDbEntity
  8
Insert
100
AcDbLine
 10
2598.231523681878
 20
1238.941086740117
 30
0.0
 11
2598.231523681878
 21
1288.941086740117
 31
0.0
  0
LINE
  5
100DC
330
18
100
AcDbEntity
  8
Insert
100
AcDbLine
 10
2594.731523681879
 20
1238.941086740117
 30
0.0
 11
2594.731523681879
 21
1288.941086740117
 31
0.0
  0
LINE
  5
100DD
330
18
100
AcDbEntity
  8
Insert
100
AcDbLine
 10
2598.231523681878
 20
1238.941086740117
 30
0.0
 11
2594.731523681879
 21
1238.941086740117
 31
0.0
  0
LINE
  5
100DF
330
18
100
AcDbEntity
  8
Insert
100
AcDbLine
 10
2598.231523681878
 20
1288.941086740117
 30
0.0
 11
2594.731523681879
 21
1288.941086740117
 31
0.0
  0
CIRCLE
  5
100E0
330
18
100
AcDbEntity
  8
Insert
100
AcDbCircle
 10
2580.731523681879
 20
1263.941086740117
 30
0.0
 40
5.5
  0
LINE
  5
100E2
330
18
100
AcDbEntity
  8
Insert
100
AcDbLine
 10
2528.231523681879
 20
1253.941086740117
 30
0.0
 11
2588.669345855388
 21
1253.941086740117
 31
0.0
  0
LINE
  5
100E3
330
18
100
AcDbEntity
  8
Insert
100
AcDbLine
 10
2528.231523681879
 20
1273.941086740117
 30
0.0
 11
2528.231523681879
 21
1253.941086740117
 31
0.0
  0
LINE
  5
100E5
330
18
100
AcDbEntity
  8
Insert
100
AcDbLine
 10
2588.731523681879
 20
1273.941086740117
 30
0.0
 11
2588.678247175476
 21
1253.941086740117
 31
0.0
  0
LINE
  5
100E6
330
18
100
AcDbEntity
  8
Insert
100
AcDbLine
 10
2594.731523681879
 20
1238.941086740117
 30
0.0
 11
2588.678229435688
 21
1253.934427224072
 31
0.0
  0
LINE
  5
100EB
330
18
100
AcDbEntity
  8
Insert
100
AcDbLine
 10
2528.231523681879
 20
1273.941086740117
 30
0.0
 11
2588.731505942091
 21
1273.934427224072
 31
0.0
  0
LINE
  5
100EC
330
18
100
AcDbEntity
  8
Insert
100
AcDbLine
 10
2594.731523681879
 20
1288.941086740117
 30
0.0
 11
2588.731523681879
 21
1273.941086740117
 31
0.0
  0
LINE
  5
10238
330
18
100
AcDbEntity
  8
Insert
100
AcDbLine
 10
2558.231523681878
 20
940.1655768265984
 30
0.0
 11
2558.231523681878
 21
952.1550607244698
 31
0.0
  0
LINE
  5
1023B
330
18
100
AcDbEntity
  8
Insert
100
AcDbLine
 10
2528.231523681878
 20
940.1686060141621
 30
0.0
 11
2558.231523681878
 21
940.1655768265984
 31
0.0
  0
LINE
  5
1023C
330
18
100
AcDbEntity
  8
Insert
100
AcDbLine
 10
2528.231523681878
 20
952.1686060141622
 30
0.0
 11
2558.231523681878
 21
952.1550607244698
 31
0.0
  0
LINE
  5
10A7C
330
18
100
AcDbEntity
  8
Insert
100
AcDbLine
 10
2575.257243374624
 20
1575.109694690049
 30
0.0
 11
2570.860691650486
 21
1567.609694690048
 31
0.0
  0
LINE
  5
10A7D
330
18
100
AcDbEntity
  8
Insert
100
AcDbLine
 10
2575.231523681879
 20
1540.109694690048
 30
0.0
 11
2570.807415144083
 21
1547.609694690049
 31
0.0
  0
LINE
  5
10A7F
330
18
100
AcDbEntity
  8
Insert
100
AcDbLine
 10
2575.257243374624
 20
1575.109694690049
 30
0.0
 11
2578.231523681879
 21
1575.109694690049
 31
0.0
  0
LINE
  5
10A80
330
18
100
AcDbEntity
  8
Insert
100
AcDbLine
 10
2575.231523681879
 20
1540.109694690048
 30
0.0
 11
2578.231523681879
 21
1540.109694690048
 31
0.0
  0
LINE
  5
10A9D
330
18
100
AcDbEntity
  8
Insert
100
AcDbLine
 10
2578.231523681879
 20
1540.109694690048
 30
0.0
 11
2578.231523681879
 21
1575.109694690049
 31
0.0
  0
LINE
  5
10CF2
330
18
100
AcDbEntity
  8
Insert
100
AcDbLine
 10
1838.10910601406
 20
1260.087486339751
 30
0.0
 11
1878.10910601406
 21
1260.08241104585
 31
0.0
  0
LINE
  5
10CF5
330
18
100
AcDbEntity
  8
Insert
100
AcDbLine
 10
1838.10910601406
 20
1276.087172460409
 30
0.0
 11
1878.10910601406
 21
1276.079583750225
 31
0.0
  0
LINE
  5
10CF6
330
18
100
AcDbEntity
  8
Insert
100
AcDbLine
 10
1878.10910601406
 20
1260.08241104585
 30
0.0
 11
1878.10910601406
 21
1276.079583750225
 31
0.0
  0
LINE
  5
10E0A
330
18
100
AcDbEntity
  8
Insert
100
AcDbLine
 10
2558.231523681878
 20
1269.933278348863
 30
0.0
 11
2558.231523681878
 21
1257.927188780751
 31
0.0
  0
LINE
  5
10E0C
330
18
100
AcDbEntity
  8
Insert
100
AcDbLine
 10
2528.231523681878
 20
1257.938168446123
 30
0.0
 11
2558.231523681878
 21
1257.934361975697
 31
0.0
  0
LINE
  5
10E0F
330
18
100
AcDbEntity
  8
Insert
100
AcDbLine
 10
2528.231523681878
 20
1269.938168446123
 30
0.0
 11
2558.231523681878
 21
1269.920373007459
 31
0.0
  0
LINE
  5
10ED2
330
18
100
AcDbEntity
  8
InsertDims
100
AcDbLine
 10
2553.231523681878
 20
1563.601886298794
 30
0.0
 11
2553.231523681877
 21
1551.595796730683
 31
0.0
  0
LINE
  5
10ED4
330
18
100
AcDbEntity
  8
Insert
100
AcDbLine
 10
2528.231523681878
 20
1551.606776396054
 30
0.0
 11
2553.231523681877
 21
1551.606649905991
 31
0.0
  0
LINE
  5
10ED7
330
18
100
AcDbEntity
  8
Insert
100
AcDbLine
 10
2528.231523681878
 20
1563.606776396055
 30
0.0
 11
2553.231523681878
 21
1563.591033123486
 31
0.0
  0
LINE
  5
10ED8
330
18
100
AcDbEntity
  8
Insert
100
AcDbLine
 10
2553.231523681877
 20
1551.606649905991
 30
0.0
 11
2553.231523681878
 21
1563.591033123486
 31
0.0
  0
LINE
  5
10ED9
330
18
100
AcDbEntity
  8
Insert
100
AcDbLine
 10
2553.231523681878
 20
1563.601886298794
 30
0.0
 11
2553.011492622511
 21
1564.095824696894
 31
0.0
  0
LINE
  5
12B6E
330
18
100
AcDbEntity
  8
Construction
  6
CENTER
100
AcDbLine
 10
-575.2636050940927
 20
1582.104741329554
 30
0.0
 11
-575.2636050940927
 21
1634.928077288483
 31
0.0
  0
CIRCLE
  5
12B7B
330
18
100
AcDbEntity
  8
Insert
100
AcDbCircle
 10
-575.2636050940927
 20
1471.557835238865
 30
0.0
 40
24.5
  0
LINE
  5
12B7E
330
18
100
AcDbEntity
  8
Construction
  6
CENTER
100
AcDbLine
 10
-575.2636050940927
 20
1424.858137452017
 30
0.0
 11
-575.2636050940927
 21
1505.956317270666
 31
0.0
  0
LINE
  5
12B82
330
18
100
AcDbEntity
  8
Insert
  6
HIDDEN
100
AcDbLine
 10
-591.6455695132704
 20
1464.099199856383
 30
0.0
 11
-558.8816406749152
 21
1464.099199856384
 31
0.0
  0
CIRCLE
  5
12B83
330
18
100
AcDbEntity
  8
Insert
100
AcDbCircle
 10
-575.2636050940928
 20
1471.557835238864
 30
0.0
 40
12.0
  0
CIRCLE
  5
12B84
330
18
100
AcDbEntity
  8
Insert
100
AcDbCircle
 10
-575.2636050940927
 20
1471.557835238865
 30
0.0
 40
18.0
  0
CIRCLE
  5
12B85
330
18
100
AcDbEntity
  8
Insert
  6
HIDDEN2
100
AcDbCircle
 10
-575.2636050940928
 20
1471.557835238864
 30
0.0
 40
13.2
  0
LINE
  5
12B86
330
18
100
AcDbEntity
  8
Insert
  6
HIDDEN
100
AcDbLine
 10
-591.6455701151237
 20
1479.01646929945
 30
0.0
 11
-558.8816400730619
 21
1479.01646929945
 31
0.0
  0
LINE
  5
12B87
330
18
100
AcDbEntity
  8
Construction
  6
CENTER
100
AcDbLine
 10
-526.2636050940927
 20
1471.557835238865
 30
0.0
 11
-633.4735138124151
 21
1471.557835238865
 31
0.0
  0
LINE
  5
12B89
330
18
100
AcDbEntity
  8
Construction
  6
ACAD_ISO02W100
100
AcDbLine
 10
-575.2636050940927
 20
1471.557835238865
 30
0.0
 11
-505.7992542912088
 21
1471.557835238865
 31
0.0
  0
CIRCLE
  5
12B90
330
18
100
AcDbEntity
  8
Insert
100
AcDbCircle
 10
-429.2992542912088
 20
1471.557835238865
 30
0.0
 40
7.5
  0
LINE
  5
12B98
330
18
100
AcDbEntity
  8
Construction
  6
CENTER
100
AcDbLine
 10
-575.2636050940927
 20
1557.604741329554
 30
0.0
 11
-369.5220364220496
 21
1557.604741329554
 31
0.0
  0
LINE
  5
12B99
330
18
100
AcDbEntity
  8
Insert
100
AcDbLine
 10
-505.7992542912088
 20
1539.604741329554
 30
0.0
 11
-417.1386335813197
 21
1539.604741329554
 31
0.0
  0
LINE
  5
12B9A
330
18
100
AcDbEntity
  8
Insert
100
AcDbLine
 10
-505.7992542912088
 20
1575.604741329554
 30
0.0
 11
-417.1386335813199
 21
1575.604741329554
 31
0.0
  0
LINE
  5
12B9B
330
18
100
AcDbEntity
  8
Construction
  6
CENTER
100
AcDbLine
 10
-575.2636050940927
 20
1496.057835238865
 30
0.0
 11
-575.2636050940927
 21
1548.881171197794
 31
0.0
  0
CIRCLE
  5
12B9D
330
18
100
AcDbEntity
  8
Insert
100
AcDbCircle
 10
-575.2636050940927
 20
1557.604741329554
 30
0.0
 40
25.0
  0
LINE
  5
12B9F
330
18
100
AcDbEntity
  8
Insert
  6
HIDDEN
100
AcDbLine
 10
-592.121454372253
 20
1551.294993496651
 30
0.0
 11
-568.9538572611898
 21
1574.462590607715
 31
0.0
  0
CIRCLE
  5
12BA0
330
18
100
AcDbEntity
  8
Insert
100
AcDbCircle
 10
-575.2636050940927
 20
1557.604741329554
 30
0.0
 40
18.0
  0
CIRCLE
  5
12BA1
330
18
100
AcDbEntity
  8
Insert
  6
HIDDEN2
100
AcDbCircle
 10
-575.2636050940928
 20
1557.604741329554
 30
0.0
 40
13.2
  0
CIRCLE
  5
12BA2
330
18
100
AcDbEntity
  8
Insert
100
AcDbCircle
 10
-575.2636050940928
 20
1557.604741329554
 30
0.0
 40
12.0
  0
LINE
  5
12BA3
330
18
100
AcDbEntity
  8
Insert
100
AcDbLine
 10
-505.7992542912089
 20
1575.604741329554
 30
0.0
 11
-505.7992542912088
 21
1539.604741329554
 31
0.0
  0
LINE
  5
12BA4
330
18
100
AcDbEntity
  8
Insert
  6
HIDDEN
100
AcDbLine
 10
-581.5733515666996
 20
1540.746891542247
 30
0.0
 11
-558.4057553067853
 21
1563.914487802161
 31
0.0
  0
ARC
  5
12BAA
330
18
100
AcDbEntity
  8
Insert
100
AcDbCircle
 10
-497.5253082430176
 20
1559.813421893126
 30
0.0
 40
48.0
100
AcDbArc
 50
12.00667275049853
 51
13.2299368753184
  0
LINE
  5
12BAC
330
18
100
AcDbEntity
  8
Insert
100
AcDbLine
 10
-409.7992542912088
 20
1557.354741329554
 30
0.0
 11
-409.7992542912088
 21
1532.604741329554
 31
0.0
  0
LINE
  5
12BAD
330
18
100
AcDbEntity
  8
Insert
100
AcDbLine
 10
-413.2992542912088
 20
1557.354741329554
 30
0.0
 11
-413.2992542912088
 21
1532.604741329554
 31
0.0
  0
LINE
  5
12BAE
330
18
100
AcDbEntity
  8
Insert
100
AcDbLine
 10
-413.2992542912089
 20
1532.604741329554
 30
0.0
 11
-417.1386335813198
 21
1539.604741329554
 31
0.0
  0
LINE
  5
12BAF
330
18
100
AcDbEntity
  8
Insert
100
AcDbLine
 10
-409.7992542912088
 20
1532.604741329554
 30
0.0
 11
-413.2992542912088
 21
1532.604741329554
 31
0.0
  0
ELLIPSE
  5
12BB0
330
18
100
AcDbEntity
  8
Insert
100
AcDbEllipse
 10
-429.2992542912088
 20
1571.852573176333
 30
0.0
 11
-7.5
 21
0.0
 31
0.0
210
0.0
220
0.0
230
1.0
 40
0.9061246420270588
 41
0.0
 42
3.141592653589793
  0
LINE
  5
12BB1
330
18
100
AcDbEntity
  8
Insert
  6
HIDDEN
100
AcDbLine
 10
-421.7992542912089
 20
1571.852573176333
 30
0.0
 11
-421.799254291209
 21
1539.604741329555
 31
0.0
  0
LINE
  5
12BB2
330
18
100
AcDbEntity
  8
Insert
  6
HIDDEN
100
AcDbLine
 10
-436.7992542912088
 20
1571.852573176333
 30
0.0
 11
-436.7992542912087
 21
1539.604741329554
 31
0.0
  0
LINE
  5
12BB3
330
18
100
AcDbEntity
  8
Insert
100
AcDbLine
 10
-417.1386335813199
 20
1575.604741329554
 30
0.0
 11
-417.1386335813196
 21
1539.604741329554
 31
0.0
  0
LINE
  5
12BB4
330
18
100
AcDbEntity
  8
Insert
100
AcDbLine
 10
-413.2992542912088
 20
1557.854741329554
 30
0.0
 11
-413.2992542912088
 21
1582.604741329554
 31
0.0
  0
LINE
  5
12BB5
330
18
100
AcDbEntity
  8
Insert
100
AcDbLine
 10
-409.7992542912088
 20
1557.854741329554
 30
0.0
 11
-409.7992542912088
 21
1582.604741329554
 31
0.0
  0
LINE
  5
12BB6
330
18
100
AcDbEntity
  8
Insert
100
AcDbLine
 10
-413.2992542912089
 20
1582.604741329554
 30
0.0
 11
-417.1386335813199
 21
1575.604741329554
 31
0.0
  0
ELLIPSE
  5
12BB7
330
18
100
AcDbEntity
  8
Insert
100
AcDbEllipse
 10
-429.2992542912088
 20
1571.852573176333
 30
0.0
 11
-7.5
 21
-0.0000000000001137
 31
0.0
210
0.0
220
0.0
230
1.0
 40
0.5002890870961969
 41
3.141592653589793
 42
6.283185307179586
  0
LINE
  5
12BB8
330
18
100
AcDbEntity
  8
Insert
100
AcDbLine
 10
-409.7992542912088
 20
1582.604741329554
 30
0.0
 11
-413.2992542912088
 21
1582.604741329554
 31
0.0
  0
LINE
  5
130CE
330
18
100
AcDbEntity
  8
Insert
100
AcDbLine
 10
-417.13863358132
 20
1489.557835238865
 30
0.0
 11
-417.1386335813197
 21
1453.557835238865
 31
0.0
  0
LINE
  5
130D0
330
18
100
AcDbEntity
  8
Insert
100
AcDbLine
 10
-505.7992542912089
 20
1489.557835238865
 30
0.0
 11
-505.7992542912088
 21
1453.557835238865
 31
0.0
  0
LINE
  5
130D1
330
18
100
AcDbEntity
  8
Insert
100
AcDbLine
 10
-409.7992542912089
 20
1471.807835238865
 30
0.0
 11
-409.7992542912089
 21
1496.557835238865
 31
0.0
  0
LINE
  5
130D2
330
18
100
AcDbEntity
  8
Insert
100
AcDbLine
 10
-413.2992542912089
 20
1471.807835238865
 30
0.0
 11
-413.2992542912089
 21
1496.557835238865
 31
0.0
  0
LINE
  5
130D3
330
18
100
AcDbEntity
  8
Insert
100
AcDbLine
 10
-413.2992542912089
 20
1471.307835238865
 30
0.0
 11
-413.2992542912089
 21
1446.557835238865
 31
0.0
  0
LINE
  5
130D4
330
18
100
AcDbEntity
  8
Insert
100
AcDbLine
 10
-409.7992542912089
 20
1471.307835238865
 30
0.0
 11
-409.7992542912089
 21
1446.557835238865
 31
0.0
  0
LINE
  5
130D5
330
18
100
AcDbEntity
  8
Insert
100
AcDbLine
 10
-505.7992542912088
 20
1453.557835238865
 30
0.0
 11
-417.1386335813197
 21
1453.557835238864
 31
0.0
  0
LINE
  5
130D6
330
18
100
AcDbEntity
  8
Insert
100
AcDbLine
 10
-413.299254291209
 20
1446.557835238865
 30
0.0
 11
-417.1386335813199
 21
1453.557835238865
 31
0.0
  0
LINE
  5
130D7
330
18
100
AcDbEntity
  8
Insert
100
AcDbLine
 10
-409.7992542912089
 20
1446.557835238865
 30
0.0
 11
-413.2992542912089
 21
1446.557835238865
 31
0.0
  0
LINE
  5
130DC
330
18
100
AcDbEntity
  8
Insert
100
AcDbLine
 10
-505.7992542912089
 20
1489.557835238865
 30
0.0
 11
-417.13863358132
 21
1489.557835238865
 31
0.0
  0
LINE
  5
130E0
330
18
100
AcDbEntity
  8
Insert
100
AcDbLine
 10
-413.299254291209
 20
1496.557835238865
 30
0.0
 11
-417.13863358132
 21
1489.557835238865
 31
0.0
  0
LINE
  5
130E2
330
18
100
AcDbEntity
  8
Insert
100
AcDbLine
 10
-409.7992542912089
 20
1496.557835238865
 30
0.0
 11
-413.2992542912089
 21
1496.557835238865
 31
0.0
  0
CIRCLE
  5
1322B
330
18
100
AcDbEntity
  8
Insert
100
AcDbCircle
 10
-429.2560524119899
 20
1191.536524979144
 30
0.0
 40
10.0
  0
CIRCLE
  5
1322D
330
18
100
AcDbEntity
  8
Insert
100
AcDbCircle
 10
-572.7204032147429
 20
1191.536524979144
 30
0.0
 40
20.0
  0
CIRCLE
  5
1322E
330
18
100
AcDbEntity
  8
Insert
100
AcDbCircle
 10
-572.720403214743
 20
1191.536524979144
 30
0.0
 40
12.0
  0
LINE
  5
13230
330
18
100
AcDbEntity
  8
Construction
  6
CENTER
100
AcDbLine
 10
-572.7204032147429
 20
1144.836827192296
 30
0.0
 11
-572.7204032147429
 21
1225.935007010945
 31
0.0
  0
CIRCLE
  5
13233
330
18
100
AcDbEntity
  8
Insert
100
AcDbCircle
 10
-572.7204032147429
 20
1191.536524979144
 30
0.0
 40
24.5
  0
LINE
  5
13235
330
18
100
AcDbEntity
  8
Construction
  6
ACAD_ISO02W100
100
AcDbLine
 10
-572.7204032147429
 20
1191.536524979144
 30
0.0
 11
-523.7204032147428
 21
1191.536524979144
 31
0.0
  0
LINE
  5
13236
330
18
100
AcDbEntity
  8
Construction
  6
CENTER
100
AcDbLine
 10
-523.7204032147428
 20
1191.536524979144
 30
0.0
 11
-630.9303119330652
 21
1191.536524979144
 31
0.0
  0
LINE
  5
13237
330
18
100
AcDbEntity
  8
Insert
  6
HIDDEN
100
AcDbLine
 10
-590.1590827373769
 20
1181.744055601767
 30
0.0
 11
-555.2817236921085
 21
1181.744055601767
 31
0.0
  0
LINE
  5
1323F
330
18
100
AcDbEntity
  8
Construction
  6
CENTER
100
AcDbLine
 10
-572.7204032147429
 20
1302.083431069833
 30
0.0
 11
-572.7204032147429
 21
1354.906767028762
 31
0.0
  0
LINE
  5
13244
330
18
100
AcDbEntity
  8
Insert
  6
HIDDEN2
100
AcDbLine
 10
-577.1103449305858
 20
1259.099692890335
 30
0.0
 11
-553.4121337174219
 21
1282.797904103499
 31
0.0
  0
CIRCLE
  5
13245
330
18
100
AcDbEntity
  8
Insert
100
AcDbCircle
 10
-572.720403214743
 20
1277.583431069833
 30
0.0
 40
12.0
  0
CIRCLE
  5
13247
330
18
100
AcDbEntity
  8
Insert
100
AcDbCircle
 10
-572.7204032147429
 20
1277.583431069833
 30
0.0
 40
20.0
  0
CIRCLE
  5
13248
330
18
100
AcDbEntity
  8
Insert
100
AcDbCircle
 10
-572.7204032147429
 20
1277.583431069833
 30
0.0
 40
25.0
  0
LINE
  5
13249
330
18
100
AcDbEntity
  8
Construction
  6
CENTER
100
AcDbLine
 10
-572.7204032147429
 20
1216.036524979144
 30
0.0
 11
-572.7204032147429
 21
1268.859860938073
 31
0.0
  0
LINE
  5
1324A
330
18
100
AcDbEntity
  8
Insert
  6
HIDDEN
100
AcDbLine
 10
-590.0609057865337
 20
1201.501813261864
 30
0.0
 11
-555.379900642952
 21
1201.501813261864
 31
0.0
  0
LINE
  5
1324B
330
18
100
AcDbEntity
  8
Insert
  6
HIDDEN2
100
AcDbLine
 10
-591.4980582618681
 20
1272.899572486356
 30
0.0
 11
-567.5059301810713
 21
1296.891700567153
 31
0.0
  0
LINE
  5
13251
330
18
100
AcDbEntity
  8
Insert
  6
HIDDEN2
100
AcDbLine
 10
-439.256052411859
 20
1291.725566693564
 30
0.0
 11
-439.256052411859
 21
1257.583431069833
 31
0.0
  0
LINE
  5
13252
330
18
100
AcDbEntity
  8
Insert
  6
HIDDEN2
100
AcDbLine
 10
-419.2560524118589
 20
1291.725566693564
 30
0.0
 11
-419.2560524118591
 21
1257.583431069833
 31
0.0
  0
LINE
  5
13253
330
18
100
AcDbEntity
  8
Insert
100
AcDbLine
 10
-410.7560524118589
 20
1277.333431069833
 30
0.0
 11
-410.7560524118589
 21
1252.583431069833
 31
0.0
  0
LINE
  5
13254
330
18
100
AcDbEntity
  8
Insert
100
AcDbLine
 10
-407.2560524118589
 20
1277.333431069833
 30
0.0
 11
-407.2560524118589
 21
1252.583431069833
 31
0.0
  0
LINE
  5
13255
330
18
100
AcDbEntity
  8
Insert
100
AcDbLine
 10
-503.2560524118589
 20
1297.583431069833
 30
0.0
 11
-503.2560524118588
 21
1257.583431069833
 31
0.0
  0
LINE
  5
13258
330
18
100
AcDbEntity
  8
Insert
100
AcDbLine
 10
-503.2560524118588
 20
1257.583431069833
 30
0.0
 11
-413.4984661905096
 21
1257.583431069833
 31
0.0
  0
LINE
  5
1325A
330
18
100
AcDbEntity
  8
Insert
100
AcDbLine
 10
-503.2560524118589
 20
1265.583431069833
 30
0.0
 11
-458.2556350649392
 21
1265.583431069833
 31
0.0
  0
LINE
  5
1325E
330
18
100
AcDbEntity
  8
Insert
100
AcDbLine
 10
-407.2560524118589
 20
1252.583431069833
 30
0.0
 11
-410.7560524118589
 21
1252.583431069833
 31
0.0
  0
LINE
  5
1325F
330
18
100
AcDbEntity
  8
Insert
100
AcDbLine
 10
-410.7560524118589
 20
1252.583431069834
 30
0.0
 11
-413.4984661905097
 21
1257.583431069833
 31
0.0
  0
LINE
  5
13260
330
18
100
AcDbEntity
  8
Insert
100
AcDbLine
 10
-503.2560524118589
 20
1297.583431069833
 30
0.0
 11
-413.4984661905096
 21
1297.583431069833
 31
0.0
  0
LINE
  5
13263
330
18
100
AcDbEntity
  8
Insert
100
AcDbLine
 10
-503.2584152444199
 20
1289.57461752382
 30
0.0
 11
-458.2556350649392
 21
1289.581426937648
 31
0.0
  0
LINE
  5
13266
330
18
100
AcDbEntity
  8
Insert
100
AcDbLine
 10
-410.7560524118589
 20
1302.583431069833
 30
0.0
 11
-413.4984661905096
 21
1297.583431069833
 31
0.0
  0
LINE
  5
13267
330
18
100
AcDbEntity
  8
Insert
100
AcDbLine
 10
-407.2560524118589
 20
1277.833431069833
 30
0.0
 11
-407.2560524118589
 21
1302.583431069833
 31
0.0
  0
LINE
  5
13268
330
18
100
AcDbEntity
  8
Insert
100
AcDbLine
 10
-410.7560524118589
 20
1277.833431069833
 30
0.0
 11
-410.7560524118589
 21
1302.583431069833
 31
0.0
  0
LINE
  5
1326B
330
18
100
AcDbEntity
  8
Insert
100
AcDbLine
 10
-407.2560524118589
 20
1302.583431069833
 30
0.0
 11
-410.7560524118589
 21
1302.583431069833
 31
0.0
  0
LINE
  5
13392
330
18
100
AcDbEntity
  8
Insert
100
AcDbLine
 10
-413.4984661905096
 20
1297.583431069833
 30
0.0
 11
-413.4984661905097
 21
1257.583431069833
 31
0.0
  0
LINE
  5
1339C
330
18
100
AcDbEntity
  8
Insert
100
AcDbLine
 10
-572.7204032147414
 20
1277.583431069835
 30
0.0
 11
-553.6427952865408
 21
1261.426547838907
 31
0.0
  0
CIRCLE
  5
1339D
330
18
100
AcDbEntity
  8
Insert
100
AcDbCircle
 10
-572.7204032147394
 20
1277.583431069833
 30
0.0
 40
10.0
  0
ELLIPSE
  5
133A4
330
18
100
AcDbEntity
  8
Insert
100
AcDbEllipse
 10
-429.256052411859
 20
1291.725566693564
 30
0.0
 11
-10.00000000000005
 21
0.0
 31
0.0
210
0.0
220
0.0
230
1.0
 40
0.5166133873588336
 41
3.141592653589792
 42
6.283185307179586
  0
ELLIPSE
  5
133A5
330
18
100
AcDbEntity
  8
Insert
100
AcDbEllipse
 10
-429.2560524118591
 20
1291.725566693564
 30
0.0
 11
-10.0
 21
0.0
 31
0.0
210
0.0
220
0.0
230
1.0
 40
0.892766259006521
 41
0.0
 42
3.141592653589793
  0
LINE
  5
13404
330
18
100
AcDbEntity
  8
Insert
100
AcDbLine
 10
-413.4984661905096
 20
1211.536524979144
 30
0.0
 11
-413.4984661905097
 21
1171.536524979144
 31
0.0
  0
LINE
  5
13405
330
18
100
AcDbEntity
  8
Insert
100
AcDbLine
 10
-503.2560524118589
 20
1211.536524979144
 30
0.0
 11
-503.2560524118588
 21
1171.536524979144
 31
0.0
  0
LINE
  5
13406
330
18
100
AcDbEntity
  8
Insert
100
AcDbLine
 10
-410.7560524118589
 20
1191.786524979144
 30
0.0
 11
-410.7560524118589
 21
1216.536524979144
 31
0.0
  0
LINE
  5
13407
330
18
100
AcDbEntity
  8
Insert
100
AcDbLine
 10
-407.2560524118589
 20
1191.786524979144
 30
0.0
 11
-407.2560524118589
 21
1216.536524979144
 31
0.0
  0
LINE
  5
13409
330
18
100
AcDbEntity
  8
Insert
100
AcDbLine
 10
-503.2560524118588
 20
1171.536524979144
 30
0.0
 11
-413.4984661905098
 21
1171.536524979144
 31
0.0
  0
LINE
  5
1340E
330
18
100
AcDbEntity
  8
Insert
100
AcDbLine
 10
-410.7560524118589
 20
1166.536524979144
 30
0.0
 11
-413.4984661905097
 21
1171.536524979144
 31
0.0
  0
LINE
  5
1340F
330
18
100
AcDbEntity
  8
Insert
100
AcDbLine
 10
-407.2560524118589
 20
1166.536524979144
 30
0.0
 11
-410.7560524118589
 21
1166.536524979144
 31
0.0
  0
LINE
  5
13410
330
18
100
AcDbEntity
  8
Insert
100
AcDbLine
 10
-407.2560524118589
 20
1191.286524979144
 30
0.0
 11
-407.2560524118589
 21
1166.536524979144
 31
0.0
  0
LINE
  5
13411
330
18
100
AcDbEntity
  8
Insert
100
AcDbLine
 10
-410.7560524118589
 20
1191.286524979144
 30
0.0
 11
-410.7560524118589
 21
1166.536524979144
 31
0.0
  0
LINE
  5
13412
330
18
100
AcDbEntity
  8
Insert
100
AcDbLine
 10
-503.2560524118589
 20
1211.536524979144
 30
0.0
 11
-413.4984661905096
 21
1211.536524979144
 31
0.0
  0
LINE
  5
13418
330
18
100
AcDbEntity
  8
Insert
100
AcDbLine
 10
-410.7560524118589
 20
1216.536524979144
 30
0.0
 11
-413.4984661905096
 21
1211.536524979144
 31
0.0
  0
LINE
  5
13419
330
18
100
AcDbEntity
  8
Insert
100
AcDbLine
 10
-407.2560524118589
 20
1216.536524979144
 30
0.0
 11
-410.7560524118589
 21
1216.536524979144
 31
0.0
  0
LINE
  5
13468
330
18
100
AcDbEntity
  8
Construction
  6
CENTER
100
AcDbLine
 10
-572.7204032147394
 20
1277.583431069833
 30
0.0
 11
-366.9788345426962
 21
1277.583431069833
 31
0.0
  0
MTEXT
  5
143B7
330
18
100
AcDbEntity
  8
InsertDims
100
AcDbMText
 10
-574.7425689784158
 20
1425.795844253882
 30
0.0
 40
5.0
 41
228.6511412453456
 46
0.0
 71
     1
 72
     5
  1
{\fArial|b0|i0|c0|p34;QwikFoot Ferrule M24x96 \Pwith 15mm Crosshole\P\PProduct Ordering Codes:  \PZinc Plated Gold Passivated:  FF2496Z}
 73
     1
 44
1.0
  0
MTEXT
  5
143BD
330
18
100
AcDbEntity
  8
InsertDims
100
AcDbMText
 10
-571.4026291782801
 20
1145.426390888325
 30
0.0
 40
5.0
 41
228.6511412453456
 46
0.0
 71
     1
 72
     5
  1
{\fArial|b0|i0|c0|p34;QwikFoot Ferrule M24x96 \Pwith 20mm Crosshole\P\PProduct Ordering Codes:  \PHot Dip Galvanised 50 micron: FF2496G}
 73
     1
 44
1.0
  0
MTEXT
  5
14966
330
18
100
AcDbEntity
  8
InsertDims
100
AcDbMText
 10
228.1267099597717
 20
1108.37901042181
 30
0.0
 40
5.0
 41
228.6511412453456
 46
0.0
 71
     1
 72
     5
  1
{\fArial|b0|i0|c0|p34;QwikFoot Ferrule M20x96 \Pwith 15mm Crosshole\P\PProduct Ordering Codes:  \PZinc Plated Gold Passivated:  FF2096ZH}
 73
     1
 44
1.0
  0
LINE
  5
149C7
330
18
100
AcDbEntity
  8
Construction
  6
CENTER
100
AcDbLine
 10
276.9317217051794
 20
1182.86648238298
 30
0.0
 11
169.721812986857
 21
1182.86648238298
 31
0.0
  0
LINE
  5
149DD
330
18
100
AcDbEntity
  8
Construction
  6
CENTER
100
AcDbLine
 10
227.9317217051794
 20
1207.36648238298
 30
0.0
 11
227.9317217051794
 21
1260.189818341909
 31
0.0
  0
LINE
  5
149E0
330
18
100
AcDbEntity
  8
Construction
  6
CENTER
100
AcDbLine
 10
227.9317217051794
 20
1136.166784596132
 30
0.0
 11
227.9317217051794
 21
1217.264964414782
 31
0.0
  0
LINE
  5
149E4
330
18
100
AcDbEntity
  8
Insert
100
AcDbLine
 10
297.3960725080634
 20
1197.86648238298
 30
0.0
 11
384.4112449507619
 21
1197.86648238298
 31
0.0
  0
LINE
  5
149E5
330
18
100
AcDbEntity
  8
Insert
100
AcDbLine
 10
297.3960725080632
 20
1167.86648238298
 30
0.0
 11
384.4112449507621
 21
1167.86648238298
 31
0.0
  0
CIRCLE
  5
149E6
330
18
100
AcDbEntity
  8
Insert
100
AcDbCircle
 10
227.9317217051794
 20
1182.86648238298
 30
0.0
 40
10.0
  0
CIRCLE
  5
149E8
330
18
100
AcDbEntity
  8
Insert
100
AcDbCircle
 10
227.9317217051794
 20
1182.86648238298
 30
0.0
 40
24.5
  0
LINE
  5
149EA
330
18
100
AcDbEntity
  8
Insert
100
AcDbLine
 10
297.3960725080633
 20
1197.86648238298
 30
0.0
 11
297.3960725080633
 21
1167.86648238298
 31
0.0
  0
LINE
  5
149EB
330
18
100
AcDbEntity
  8
Insert
  6
HIDDEN
100
AcDbLine
 10
216.0839895073619
 20
1175.407847000499
 30
0.0
 11
239.779453902997
 21
1175.407847000499
 31
0.0
  0
LINE
  5
149EC
330
18
100
AcDbEntity
  8
Construction
  6
ACAD_ISO02W100
100
AcDbLine
 10
227.9317217051794
 20
1182.86648238298
 30
0.0
 11
276.9317217051794
 21
1182.86648238298
 31
0.0
  0
LINE
  5
149ED
330
18
100
AcDbEntity
  8
Insert
  6
HIDDEN
100
AcDbLine
 10
216.0839886751739
 20
1190.325116443565
 30
0.0
 11
239.7794547351847
 21
1190.325116443565
 31
0.0
  0
INSERT
  5
149EE
330
18
100
AcDbEntity
  8
Insert
100
AcDbBlockReference
  2
A$C3FDE73E2
 10
298.3960725080633
 20
1182.86648238298
 30
0.0
  0
LINE
  5
149EF
330
18
100
AcDbEntity
  8
Insert
100
AcDbLine
 10
384.4112449507619
 20
1197.86648238298
 30
0.0
 11
384.4112449507621
 21
1167.86648238298
 31
0.0
  0
CIRCLE
  5
149F1
330
18
100
AcDbEntity
  8
Insert
100
AcDbCircle
 10
373.8960725080633
 20
1182.86648238298
 30
0.0
 40
7.5
  0
LINE
  5
149FE
330
18
100
AcDbEntity
  8
Construction
  6
CENTER
100
AcDbLine
 10
228.9317217051794
 20
1268.91338847367
 30
0.0
 11
393.3960725080633
 21
1268.66338847367
 31
0.0
  0
CIRCLE
  5
14A03
330
18
100
AcDbEntity
  8
Insert
100
AcDbCircle
 10
227.9317217051794
 20
1268.91338847367
 30
0.0
 40
25.0
  0
LINE
  5
14A04
330
18
100
AcDbEntity
  8
Insert
100
AcDbLine
 10
389.8960725080632
 20
1293.91338847367
 30
0.0
 11
384.4112449507619
 21
1283.91338847367
 31
0.0
  0
LINE
  5
14A05
330
18
100
AcDbEntity
  8
Insert
100
AcDbLine
 10
389.8960725080633
 20
1269.16338847367
 30
0.0
 11
389.8960725080633
 21
1293.91338847367
 31
0.0
  0
LINE
  5
14A06
330
18
100
AcDbEntity
  8
Insert
100
AcDbLine
 10
393.3960725080633
 20
1269.16338847367
 30
0.0
 11
393.3960725080633
 21
1293.91338847367
 31
0.0
  0
LINE
  5
14A07
330
18
100
AcDbEntity
  8
Insert
100
AcDbLine
 10
297.3960725080633
 20
1258.903559614989
 30
0.0
 11
347.3960725080633
 21
1258.897444644224
 31
0.0
  0
LINE
  5
14A0A
330
18
100
AcDbEntity
  8
Insert
100
AcDbLine
 10
297.3960725080633
 20
1278.90181183735
 30
0.0
 11
347.3960725080633
 21
1278.897295197743
 31
0.0
  0
LINE
  5
14A0B
330
18
100
AcDbEntity
  8
Insert
100
AcDbLine
 10
297.3960725080633
 20
1253.91338847367
 30
0.0
 11
384.4112449507621
 21
1253.91338847367
 31
0.0
  0
LINE
  5
14A0C
330
18
100
AcDbEntity
  8
Insert
100
AcDbLine
 10
297.3960725080633
 20
1283.91338847367
 30
0.0
 11
384.4112449507619
 21
1283.91338847367
 31
0.0
  0
LINE
  5
14A0D
330
18
100
AcDbEntity
  8
Insert
  6
HIDDEN
100
AcDbLine
 10
214.2800586153461
 20
1265.809826829094
 30
0.0
 11
231.0352833497551
 21
1282.565051563503
 31
0.0
  0
LINE
  5
14A0E
330
18
100
AcDbEntity
  8
Insert
  6
HIDDEN
100
AcDbLine
 10
224.8281615837708
 20
1255.26172503756
 30
0.0
 11
241.5833851412886
 21
1272.016948595078
 31
0.0
  0
CIRCLE
  5
14A11
330
18
100
AcDbEntity
  8
Insert
100
AcDbCircle
 10
227.9317217051794
 20
1268.91338847367
 30
0.0
 40
10.0
  0
LINE
  5
14A12
330
18
100
AcDbEntity
  8
Insert
100
AcDbLine
 10
297.3960725080633
 20
1283.91338847367
 30
0.0
 11
297.3960725080633
 21
1253.91338847367
 31
0.0
  0
LINE
  5
14A13
330
18
100
AcDbEntity
  8
Insert
100
AcDbLine
 10
393.3960725080633
 20
1268.66338847367
 30
0.0
 11
393.3960725080633
 21
1243.91338847367
 31
0.0
  0
LINE
  5
14A14
330
18
100
AcDbEntity
  8
Insert
100
AcDbLine
 10
389.8960725080633
 20
1268.66338847367
 30
0.0
 11
389.8960725080633
 21
1243.91338847367
 31
0.0
  0
LINE
  5
14A15
330
18
100
AcDbEntity
  8
Insert
100
AcDbLine
 10
389.8960725080632
 20
1243.91338847367
 30
0.0
 11
384.4112449507619
 21
1253.91338847367
 31
0.0
  0
LINE
  5
14A16
330
18
100
AcDbEntity
  8
Insert
100
AcDbLine
 10
393.3960725080633
 20
1243.91338847367
 30
0.0
 11
389.8960725080633
 21
1243.91338847367
 31
0.0
  0
ELLIPSE
  5
14A19
330
18
100
AcDbEntity
  8
Insert
100
AcDbEllipse
 10
373.8960725080633
 20
1278.812883410281
 30
0.0
 11
-7.5
 21
0.0
 31
0.0
210
0.0
220
0.0
230
1.0
 40
0.9061246420270588
 41
0.0
 42
3.141592653589793
  0
ELLIPSE
  5
14A1A
330
18
100
AcDbEntity
  8
Insert
100
AcDbEllipse
 10
373.8960725080633
 20
1278.812883410281
 30
0.0
 11
-7.5
 21
-0.0000000000001137
 31
0.0
210
0.0
220
0.0
230
1.0
 40
0.5002890870961969
 41
3.141592653589793
 42
6.283185307179586
  0
LINE
  5
14A1D
330
18
100
AcDbEntity
  8
Insert
  6
HIDDEN
100
AcDbLine
 10
381.3960725080633
 20
1278.812883410282
 30
0.0
 11
381.3960725080632
 21
1253.91338847367
 31
0.0
  0
LINE
  5
14A1E
330
18
100
AcDbEntity
  8
Insert
  6
HIDDEN
100
AcDbLine
 10
366.3960725080633
 20
1278.812883410281
 30
0.0
 11
366.3960725080634
 21
1253.91338847367
 31
0.0
  0
LINE
  5
14A1F
330
18
100
AcDbEntity
  8
Insert
100
AcDbLine
 10
384.4112449507619
 20
1283.91338847367
 30
0.0
 11
384.4112449507621
 21
1253.91338847367
 31
0.0
  0
LINE
  5
14A20
330
18
100
AcDbEntity
  8
Construction
  6
CENTER
100
AcDbLine
 10
227.9317217051794
 20
1293.41338847367
 30
0.0
 11
227.9317217051794
 21
1346.236724432599
 31
0.0
  0
LINE
  5
14A22
330
18
100
AcDbEntity
  8
Insert
100
AcDbLine
 10
393.3960725080633
 20
1293.91338847367
 30
0.0
 11
389.8960725080633
 21
1293.91338847367
 31
0.0
  0
LINE
  5
14B28
330
18
100
AcDbEntity
  8
Insert
100
AcDbLine
 10
1490.715232439807
 20
1282.088120751489
 30
0.0
 11
1577.153054613315
 21
1282.088120751489
 31
0.0
  0
LINE
  5
14B29
330
18
100
AcDbEntity
  8
Insert
100
AcDbLine
 10
1490.715232439807
 20
1254.088120751489
 30
0.0
 11
1577.153054613316
 21
1254.088120751489
 31
0.0
  0
LINE
  5
14B2A
330
18
100
AcDbEntity
  8
Insert
100
AcDbLine
 10
1490.715232439807
 20
1196.041214660799
 30
0.0
 11
1577.153054613316
 21
1196.041214660799
 31
0.0
  0
LINE
  5
14B2B
330
18
100
AcDbEntity
  8
Insert
100
AcDbLine
 10
1490.715232439807
 20
1276.087172460409
 30
0.0
 11
1525.715232439807
 21
1276.08304575528
 31
0.0
  0
LINE
  5
14B2C
330
18
100
AcDbEntity
  8
Insert
100
AcDbLine
 10
1490.715232439807
 20
1260.087486339751
 30
0.0
 11
1525.715232439807
 21
1260.083045457587
 31
0.0
  0
LINE
  5
14B2D
330
18
100
AcDbEntity
  8
Insert
100
AcDbLine
 10
1490.715232439807
 20
1168.041214660799
 30
0.0
 11
1577.153054613316
 21
1168.041214660799
 31
0.0
  0
LINE
  5
14B30
330
18
100
AcDbEntity
  8
Construction
  6
CENTER
100
AcDbLine
 10
1421.250881636923
 20
1268.088120751489
 30
0.0
 11
1710.434846492853
 21
1268.088120751489
 31
0.0
  0
LINE
  5
14B31
330
18
100
AcDbEntity
  8
Construction
  6
CENTER
100
AcDbLine
 10
1421.250881636923
 20
1206.5412146608
 30
0.0
 11
1421.250881636923
 21
1259.364550619728
 31
0.0
  0
LINE
  5
14B32
330
18
100
AcDbEntity
  8
Construction
  6
CENTER
100
AcDbLine
 10
1421.250881636923
 20
1135.341516873952
 30
0.0
 11
1421.250881636923
 21
1216.439696692601
 31
0.0
  0
LINE
  5
14B39
330
18
100
AcDbEntity
  8
Construction
  6
CENTER
100
AcDbLine
 10
1470.250881636923
 20
1182.041214660799
 30
0.0
 11
1363.0409729186
 21
1182.041214660799
 31
0.0
  0
LINE
  5
14B3B
330
18
100
AcDbEntity
  8
Insert
100
AcDbLine
 10
1490.715232439807
 20
1196.041214660799
 30
0.0
 11
1490.715232439807
 21
1168.041214660799
 31
0.0
  0
CIRCLE
  5
14B3D
330
18
100
AcDbEntity
  8
Insert
100
AcDbCircle
 10
1421.250881636923
 20
1182.041214660799
 30
0.0
 40
10.0
  0
CIRCLE
  5
14B3E
330
18
100
AcDbEntity
  8
Insert
100
AcDbCircle
 10
1421.250881636923
 20
1182.041214660799
 30
0.0
 40
25.0
  0
CIRCLE
  5
14B3F
330
18
100
AcDbEntity
  8
Insert
100
AcDbCircle
 10
1421.250881636923
 20
1182.041214660799
 30
0.0
 40
14.0
  0
LINE
  5
14B40
330
18
100
AcDbEntity
  8
Construction
  6
ACAD_ISO02W100
100
AcDbLine
 10
1421.250881636923
 20
1182.041214660799
 30
0.0
 11
1470.250881636923
 21
1182.041214660799
 31
0.0
  0
LINE
  5
14B41
330
18
100
AcDbEntity
  8
Insert
  6
HIDDEN
100
AcDbLine
 10
1409.403148606917
 20
1189.499848721384
 30
0.0
 11
1433.098614666928
 21
1189.499848721385
 31
0.0
  0
LINE
  5
14B42
330
18
100
AcDbEntity
  8
Insert
  6
HIDDEN
100
AcDbLine
 10
1409.403149439105
 20
1174.582579278318
 30
0.0
 11
1433.09861383474
 21
1174.582579278318
 31
0.0
  0
LINE
  5
14B48
330
18
100
AcDbEntity
  8
Insert
100
AcDbLine
 10
1490.715232439807
 20
1282.088120751489
 30
0.0
 11
1490.715232439807
 21
1254.088120751489
 31
0.0
  0
CIRCLE
  5
14B49
330
18
100
AcDbEntity
  8
Insert
100
AcDbCircle
 10
1421.250881636923
 20
1268.088120751489
 30
0.0
 40
14.0
  0
LINE
  5
14B4A
330
18
100
AcDbEntity
  8
Insert
  6
HIDDEN
100
AcDbLine
 10
1407.59921854709
 20
1264.984559106913
 30
0.0
 11
1424.354443281498
 21
1281.739783841322
 31
0.0
  0
CIRCLE
  5
14B4C
330
18
100
AcDbEntity
  8
Insert
100
AcDbCircle
 10
1421.250881636923
 20
1268.088120751489
 30
0.0
 40
25.0
  0
LINE
  5
14B50
330
18
100
AcDbEntity
  8
Insert
100
AcDbLine
 10
1419.750881636923
 20
1254.168709844414
 30
0.0
 11
1419.750881636923
 21
1243.634082230214
 31
0.0
  0
LINE
  5
14B51
330
18
100
AcDbEntity
  8
Insert
100
AcDbLine
 10
1422.750881636923
 20
1254.168709844414
 30
0.0
 11
1422.750881636923
 21
1243.634082230214
 31
0.0
  0
LINE
  5
14B52
330
18
100
AcDbEntity
  8
Insert
  6
HIDDEN
100
AcDbLine
 10
1418.147321515514
 20
1254.43645731538
 30
0.0
 11
1434.902545073032
 21
1271.191680872898
 31
0.0
  0
CIRCLE
  5
14B53
330
18
100
AcDbEntity
  8
Insert
100
AcDbCircle
 10
1421.250881636923
 20
1268.088120751489
 30
0.0
 40
8.0
  0
LINE
  5
14B55
330
18
100
AcDbEntity
  8
Construction
  6
CENTER
100
AcDbLine
 10
1421.250881636923
 20
1292.588120751489
 30
0.0
 11
1421.250881636923
 21
1345.411456710418
 31
0.0
  0
INSERT
  5
14B5B
330
18
100
AcDbEntity
  8
Insert
100
AcDbBlockReference
  2
A$C03B31D34
 10
1577.153054613316
 20
1182.041214660799
 30
0.0
  0
LINE
  5
14B5C
330
18
100
AcDbEntity
  8
Insert
100
AcDbLine
 10
1577.153054613316
 20
1196.041214660799
 30
0.0
 11
1577.153054613316
 21
1168.041214660799
 31
0.0
  0
CIRCLE
  5
14B60
330
18
100
AcDbEntity
  8
Insert
100
AcDbCircle
 10
1567.215232439807
 20
1182.041214660799
 30
0.0
 40
7.5
  0
ELLIPSE
  5
14B65
330
18
100
AcDbEntity
  8
Insert
100
AcDbEllipse
 10
1567.215232439807
 20
1277.9876156881
 30
0.0
 11
-7.5
 21
0.0
 31
0.0
210
0.0
220
0.0
230
1.0
 40
0.9061246420270588
 41
0.0
 42
3.141592653589793
  0
LINE
  5
14B66
330
18
100
AcDbEntity
  8
Insert
100
AcDbLine
 10
1577.153054613315
 20
1282.088120751489
 30
0.0
 11
1577.153054613316
 21
1254.088120751489
 31
0.0
  0
LINE
  5
14B67
330
18
100
AcDbEntity
  8
Insert
  6
HIDDEN
100
AcDbLine
 10
1559.715232439807
 20
1277.9876156881
 30
0.0
 11
1559.715232439807
 21
1254.088120751489
 31
0.0
  0
LINE
  5
14B68
330
18
100
AcDbEntity
  8
Insert
  6
HIDDEN
100
AcDbLine
 10
1574.715232439807
 20
1277.987615688101
 30
0.0
 11
1574.715232439807
 21
1254.088120751489
 31
0.0
  0
LINE
  5
14B69
330
18
100
AcDbEntity
  8
Insert
100
AcDbLine
 10
1586.715232439807
 20
1243.088120751489
 30
0.0
 11
1586.715232439807
 21
1293.088120751489
 31
0.0
  0
LINE
  5
14B6A
330
18
100
AcDbEntity
  8
Insert
100
AcDbLine
 10
1583.215232439807
 20
1243.088120751489
 30
0.0
 11
1583.215232439807
 21
1293.088120751489
 31
0.0
  0
LINE
  5
14B6D
330
18
100
AcDbEntity
  8
Insert
100
AcDbLine
 10
1525.715232439807
 20
1260.076955889475
 30
0.0
 11
1525.715232439807
 21
1276.08304575528
 31
0.0
  0
LINE
  5
14B6F
330
18
100
AcDbEntity
  8
Insert
100
AcDbLine
 10
1586.715232439807
 20
1243.088120751489
 30
0.0
 11
1583.215232439807
 21
1243.088120751489
 31
0.0
  0
LINE
  5
14B70
330
18
100
AcDbEntity
  8
Insert
100
AcDbLine
 10
1583.215232439807
 20
1243.088120751489
 30
0.0
 11
1577.153054613316
 21
1254.088120751489
 31
0.0
  0
LINE
  5
14B71
330
18
100
AcDbEntity
  8
Insert
100
AcDbLine
 10
1586.715232439807
 20
1293.088120751489
 30
0.0
 11
1583.215232439807
 21
1293.088120751489
 31
0.0
  0
LINE
  5
14B72
330
18
100
AcDbEntity
  8
InsertDims
100
AcDbLine
 10
1567.215232439807
 20
1281.739783841322
 30
0.0
 11
1577.153054613315
 21
1281.739783841322
 31
0.0
  0
ELLIPSE
  5
14B73
330
18
100
AcDbEntity
  8
Insert
100
AcDbEllipse
 10
1567.215232439807
 20
1277.987615688101
 30
0.0
 11
-7.5
 21
-0.0000000000001137
 31
0.0
210
0.0
220
0.0
230
1.0
 40
0.5002890870961969
 41
3.141592653589793
 42
6.283185307179586
  0
LINE
  5
14B74
330
18
100
AcDbEntity
  8
Insert
100
AcDbLine
 10
1583.215232439807
 20
1293.088120751489
 30
0.0
 11
1577.153054613315
 21
1282.088120751489
 31
0.0
  0
LINE
  5
153C0
330
18
100
AcDbEntity
  8
Construction
  6
CENTER
100
AcDbLine
 10
1421.250881636923
 20
1497.530184915559
 30
0.0
 11
1421.250881636923
 21
1592.811300212994
 31
0.0
  0
LINE
  5
153CD
330
18
100
AcDbEntity
  8
Construction
  6
CENTER
100
AcDbLine
 10
1470.250881636923
 20
1558.412818181193
 30
0.0
 11
1363.040972918601
 21
1558.412818181193
 31
0.0
  0
CIRCLE
  5
153CF
330
18
100
AcDbEntity
  8
Insert
100
AcDbCircle
 10
1421.250881636923
 20
1558.412818181193
 30
0.0
 40
12.5
  0
CIRCLE
  5
153D0
330
18
100
AcDbEntity
  8
Insert
100
AcDbCircle
 10
1421.250881636923
 20
1558.412818181193
 30
0.0
 40
25.0
  0
LINE
  5
153D1
330
18
100
AcDbEntity
  8
Construction
  6
ACAD_ISO02W100
100
AcDbLine
 10
1421.250881636923
 20
1558.412818181193
 30
0.0
 11
1470.250881636923
 21
1558.412818181193
 31
0.0
  0
CIRCLE
  5
153D2
330
18
100
AcDbEntity
  8
InsertDims
100
AcDbCircle
 10
1421.250881636923
 20
1558.412818181193
 30
0.0
 40
5.5
  0
LINE
  5
153D3
330
18
100
AcDbEntity
  8
Insert
  6
HIDDEN
100
AcDbLine
 10
1410.585517133072
 20
1552.912818181193
 30
0.0
 11
1431.916246140774
 21
1552.912818181193
 31
0.0
  0
LINE
  5
153D4
330
18
100
AcDbEntity
  8
Insert
  6
HIDDEN
100
AcDbLine
 10
1410.585517133072
 20
1563.912818181193
 30
0.0
 11
1431.916246140774
 21
1563.912818181193
 31
0.0
  0
CIRCLE
  5
153D5
330
18
100
AcDbEntity
  8
Insert
  6
HIDDEN2
100
AcDbCircle
 10
1421.250881636923
 20
1558.412818181193
 30
0.0
 40
8.5
  0
CIRCLE
  5
153D6
330
18
100
AcDbEntity
  8
Insert
100
AcDbCircle
 10
1421.250881636923
 20
1558.412818181193
 30
0.0
 40
8.0
  0
LINE
  5
153D7
330
18
100
AcDbEntity
  8
Insert
100
AcDbLine
 10
1522.66265501964
 20
1570.912818181193
 30
0.0
 11
1582.201643044785
 21
1570.912818181193
 31
0.0
  0
LINE
  5
153D8
330
18
100
AcDbEntity
  8
Insert
100
AcDbLine
 10
1522.66265501964
 20
1545.912818181193
 30
0.0
 11
1582.199986466673
 21
1545.912818181193
 31
0.0
  0
LINE
  5
153ED
330
18
100
AcDbEntity
  8
Insert
100
AcDbLine
 10
1522.66265501964
 20
1570.912818181193
 30
0.0
 11
1522.66265501964
 21
1545.912818181193
 31
0.0
  0
LINE
  5
153F1
330
18
100
AcDbEntity
  8
Insert
100
AcDbLine
 10
1558.040894935646
 20
1550.407694895323
 30
0.0
 11
1558.0482762766
 21
1566.405156609503
 31
0.0
  0
LINE
  5
153F2
330
18
100
AcDbEntity
  8
Insert
100
AcDbLine
 10
1522.66265501964
 20
1566.411869890113
 30
0.0
 11
1558.0482762766
 21
1566.405156609503
 31
0.0
  0
LINE
  5
153F5
330
18
100
AcDbEntity
  8
Insert
100
AcDbLine
 10
1522.66265501964
 20
1550.412183769455
 30
0.0
 11
1558.040894935646
 21
1550.407694895323
 31
0.0
  0
LINE
  5
153F8
330
18
100
AcDbEntity
  8
Insert
100
AcDbLine
 10
1592.66265501964
 20
1533.37073466359
 30
0.0
 11
1592.662655019641
 21
1583.37073466359
 31
0.0
  0
LINE
  5
153F9
330
18
100
AcDbEntity
  8
Insert
100
AcDbLine
 10
1589.162655019641
 20
1533.37073466359
 30
0.0
 11
1589.16265501964
 21
1583.37073466359
 31
0.0
  0
LINE
  5
153FA
330
18
100
AcDbEntity
  8
Insert
100
AcDbLine
 10
1582.201643044785
 20
1570.912818181193
 30
0.0
 11
1582.199986466673
 21
1545.912818181193
 31
0.0
  0
LINE
  5
153FD
330
18
100
AcDbEntity
  8
Insert
100
AcDbLine
 10
1589.162655019641
 20
1533.37073466359
 30
0.0
 11
1582.199986466673
 21
1545.912818181192
 31
0.0
  0
LINE
  5
153FE
330
18
100
AcDbEntity
  8
Insert
100
AcDbLine
 10
1592.662655019641
 20
1533.37073466359
 30
0.0
 11
1589.162655019641
 21
1533.37073466359
 31
0.0
  0
CIRCLE
  5
153FF
330
18
100
AcDbEntity
  8
Insert
100
AcDbCircle
 10
1575.16265501964
 20
1558.412818181193
 30
0.0
 40
5.5
  0
LINE
  5
15401
330
18
100
AcDbEntity
  8
Insert
100
AcDbLine
 10
1589.162655019641
 20
1583.37073466359
 30
0.0
 11
1582.201643044785
 21
1570.912818181193
 31
0.0
  0
LINE
  5
15402
330
18
100
AcDbEntity
  8
Insert
100
AcDbLine
 10
1592.662655019641
 20
1583.37073466359
 30
0.0
 11
1589.162655019641
 21
1583.37073466359
 31
0.0
  0
INSERT
  5
156FD
330
18
100
AcDbEntity
  8
Insert
100
AcDbBlockReference
  2
A$C406A5D29
 10
2606.731523681879
 20
946.1715243081561
 30
0.0
  0
INSERT
  5
156FE
330
18
100
AcDbEntity
  8
Insert
100
AcDbBlockReference
  2
A$C406A5D29
 10
2606.731523681879
 20
860.1246182174667
 30
0.0
  0
LINE
  5
16A4B
330
18
100
AcDbEntity
  8
InsertDims
100
AcDbLine
 10
347.3960725080633
 20
1268.91338847367
 30
0.0
 11
347.3960725080633
 21
1283.91338847367
 31
0.0
  0
LINE
  5
16A4C
330
18
100
AcDbEntity
  8
Insert
100
AcDbLine
 10
347.3960725080633
 20
1278.897295197743
 30
0.0
 11
347.3960725080633
 21
1258.897444644224
 31
0.0
  0
CIRCLE
  5
16A6D
330
18
100
AcDbEntity
  8
Insert
100
AcDbCircle
 10
227.9317217051794
 20
1268.91338847367
 30
0.0
 40
14.0
  0
CIRCLE
  5
16A76
330
18
100
AcDbEntity
  8
Insert
100
AcDbCircle
 10
227.9317217051794
 20
1182.86648238298
 30
0.0
 40
14.0
  0
MTEXT
  5
16A77
330
18
100
AcDbEntity
  8
InsertDims
100
AcDbMText
 10
227.9046590364105
 20
1426.166974902123
 30
0.0
 40
5.0
 41
228.6511412453456
 46
0.0
 71
     1
 72
     5
  1
{\fArial|b0|i0|c0|p34;QwikFoot Ferrule M20x70 \Pwith 15mm Crosshole\P\PProduct Ordering Codes:  \PZinc Plated Gold Passivated:  FF2070ZH }
 73
     1
 44
1.0
  0
LINE
  5
16A79
330
18
100
AcDbEntity
  8
Construction
  6
CENTER
100
AcDbLine
 10
276.9317217051794
 20
1471.557835238865
 30
0.0
 11
169.721812986857
 21
1471.557835238865
 31
0.0
  0
LINE
  5
16A7A
330
18
100
AcDbEntity
  8
Construction
  6
CENTER
100
AcDbLine
 10
227.9317217051794
 20
1496.057835238865
 30
0.0
 11
227.9317217051794
 21
1548.881171197794
 31
0.0
  0
LINE
  5
16A7B
330
18
100
AcDbEntity
  8
Construction
  6
CENTER
100
AcDbLine
 10
227.9317217051794
 20
1447.057835238865
 30
0.0
 11
227.9317217051794
 21
1505.956317270667
 31
0.0
  0
CIRCLE
  5
16A7C
330
18
100
AcDbEntity
  8
Insert
100
AcDbCircle
 10
227.9317217051794
 20
1471.557835238865
 30
0.0
 40
10.0
  0
CIRCLE
  5
16A7D
330
18
100
AcDbEntity
  8
Insert
100
AcDbCircle
 10
227.9317217051794
 20
1471.557835238865
 30
0.0
 40
24.5
  0
LINE
  5
16A7E
330
18
100
AcDbEntity
  8
Insert
  6
HIDDEN
100
AcDbLine
 10
216.0839895073619
 20
1464.099199856384
 30
0.0
 11
239.779453902997
 21
1464.099199856384
 31
0.0
  0
LINE
  5
16A7F
330
18
100
AcDbEntity
  8
Construction
  6
ACAD_ISO02W100
100
AcDbLine
 10
227.9317217051794
 20
1471.557835238865
 30
0.0
 11
276.9317217051794
 21
1471.557835238865
 31
0.0
  0
LINE
  5
16A80
330
18
100
AcDbEntity
  8
Insert
  6
HIDDEN
100
AcDbLine
 10
216.0839886751739
 20
1479.01646929945
 30
0.0
 11
239.7794547351847
 21
1479.01646929945
 31
0.0
  0
LINE
  5
16A81
330
18
100
AcDbEntity
  8
Insert
100
AcDbLine
 10
297.3960725080631
 20
1456.557835238865
 30
0.0
 11
358.4112449507621
 21
1456.557835238865
 31
0.0
  0
LINE
  5
16A82
330
18
100
AcDbEntity
  8
Insert
100
AcDbLine
 10
297.3960725080632
 20
1486.557835238865
 30
0.0
 11
358.4112449507619
 21
1486.557835238865
 31
0.0
  0
LINE
  5
16A83
330
18
100
AcDbEntity
  8
Insert
100
AcDbLine
 10
297.3960725080632
 20
1486.557835238865
 30
0.0
 11
297.3960725080631
 21
1456.557835238865
 31
0.0
  0
INSERT
  5
16A84
330
18
100
AcDbEntity
  8
Insert
100
AcDbBlockReference
  2
A$C3FDE73E2
 10
272.3960725080633
 20
1471.557835238865
 30
0.0
  0
LINE
  5
16A85
330
18
100
AcDbEntity
  8
Insert
100
AcDbLine
 10
358.4112449507619
 20
1486.557835238865
 30
0.0
 11
358.4112449507621
 21
1456.557835238865
 31
0.0
  0
CIRCLE
  5
16A86
330
18
100
AcDbEntity
  8
Insert
100
AcDbCircle
 10
347.8960725080633
 20
1471.557835238865
 30
0.0
 40
7.5
  0
LINE
  5
16A87
330
18
100
AcDbEntity
  8
Construction
  6
CENTER
100
AcDbLine
 10
228.9317217051794
 20
1557.604741329554
 30
0.0
 11
367.3960725080143
 21
1557.604741329554
 31
0.0
  0
CIRCLE
  5
16A88
330
18
100
AcDbEntity
  8
Insert
100
AcDbCircle
 10
227.9317217051794
 20
1557.604741329554
 30
0.0
 40
25.0
  0
LINE
  5
16A89
330
18
100
AcDbEntity
  8
Insert
  6
HIDDEN
100
AcDbLine
 10
214.2800586153461
 20
1554.501179684978
 30
0.0
 11
231.0352833497551
 21
1571.256404419388
 31
0.0
  0
LINE
  5
16A8A
330
18
100
AcDbEntity
  8
Insert
  6
HIDDEN
100
AcDbLine
 10
224.8281615837708
 20
1543.953077893445
 30
0.0
 11
241.5833851412886
 21
1560.708301450963
 31
0.0
  0
CIRCLE
  5
16A8B
330
18
100
AcDbEntity
  8
Insert
100
AcDbCircle
 10
227.9317217051794
 20
1557.604741329554
 30
0.0
 40
10.0
  0
LINE
  5
16A8C
330
18
100
AcDbEntity
  8
Construction
  6
CENTER
100
AcDbLine
 10
227.9317217051794
 20
1582.104741329555
 30
0.0
 11
227.9317217051794
 21
1634.928077288483
 31
0.0
  0
INSERT
  5
16A8D
330
18
100
AcDbEntity
  8
Insert
100
AcDbBlockReference
  2
A$C3FDE73E2
 10
272.3960725080143
 20
1557.604741329554
 30
0.0
  0
LINE
  5
16A90
330
18
100
AcDbEntity
  8
Insert
100
AcDbLine
 10
297.3960725080633
 20
1572.604741329555
 30
0.0
 11
358.4112449507128
 21
1572.604741329555
 31
0.0
  0
LINE
  5
16A91
330
18
100
AcDbEntity
  8
Insert
100
AcDbLine
 10
297.3960725080633
 20
1542.604741329554
 30
0.0
 11
358.4112449507133
 21
1542.604741329554
 31
0.0
  0
LINE
  5
16A92
330
18
100
AcDbEntity
  8
Insert
100
AcDbLine
 10
297.3960725080633
 20
1572.604741329555
 30
0.0
 11
297.3960725080633
 21
1542.604741329554
 31
0.0
  0
LINE
  5
16A93
330
18
100
AcDbEntity
  8
Insert
100
AcDbLine
 10
297.3960725080633
 20
1547.592755470966
 30
0.0
 11
327.3960725080633
 21
1547.588949000539
 31
0.0
  0
LINE
  5
16A94
330
18
100
AcDbEntity
  8
Insert
100
AcDbLine
 10
297.3960725080633
 20
1567.592755470966
 30
0.0
 11
327.3960725080633
 21
1567.58841153639
 31
0.0
  0
LINE
  5
16A95
330
18
100
AcDbEntity
  8
Insert
  6
HIDDEN
100
AcDbLine
 10
355.3960725080142
 20
1567.504236266166
 30
0.0
 11
355.3960725080142
 21
1542.604741329554
 31
0.0
  0
LINE
  5
16A96
330
18
100
AcDbEntity
  8
Insert
100
AcDbLine
 10
358.4112449507129
 20
1572.604741329555
 30
0.0
 11
358.4112449507131
 21
1542.604741329554
 31
0.0
  0
ELLIPSE
  5
16A97
330
18
100
AcDbEntity
  8
Insert
100
AcDbEllipse
 10
347.8960725080633
 20
1567.504236266166
 30
0.0
 11
-7.5
 21
-0.0000000000001137
 31
0.0
210
0.0
220
0.0
230
1.0
 40
0.5002890870961969
 41
3.141592653589793
 42
6.283185307179586
  0
LINE
  5
16A98
330
18
100
AcDbEntity
  8
Insert
  6
HIDDEN
100
AcDbLine
 10
340.3960725080633
 20
1567.504236266166
 30
0.0
 11
340.3960725080633
 21
1542.604741329554
 31
0.0
  0
ELLIPSE
  5
16A99
330
18
100
AcDbEntity
  8
Insert
100
AcDbEllipse
 10
347.8960725080633
 20
1567.504236266166
 30
0.0
 11
-7.5
 21
0.0
 31
0.0
210
0.0
220
0.0
230
1.0
 40
0.9061246420270588
 41
0.0
 42
3.141592653589793
  0
LINE
  5
16A9A
330
18
100
AcDbEntity
  8
InsertDims
100
AcDbLine
 10
297.3960725080633
 20
1567.592755470966
 30
0.0
 11
327.3960725080633
 21
1567.592755470966
 31
0.0
  0
LINE
  5
16A9B
330
18
100
AcDbEntity
  8
InsertDims
100
AcDbLine
 10
327.3960725080633
 20
1567.592755470966
 30
0.0
 11
327.3960725080633
 21
1547.588949000539
 31
0.0
  0
CIRCLE
  5
16A9C
330
18
100
AcDbEntity
  8
Insert
100
AcDbCircle
 10
227.9317217051794
 20
1557.604741329554
 30
0.0
 40
14.0
  0
CIRCLE
  5
16A9D
330
18
100
AcDbEntity
  8
Insert
100
AcDbCircle
 10
227.9317217051794
 20
1471.557835238865
 30
0.0
 40
14.0
  0
LINE
  5
16AF5
330
18
100
AcDbEntity
  8
Construction
  6
CENTER
100
AcDbLine
 10
542.0006060144888
 20
1182.86648238298
 30
0.0
 11
434.7906972961664
 21
1182.86648238298
 31
0.0
  0
LINE
  5
16AF6
330
18
100
AcDbEntity
  8
Construction
  6
CENTER
100
AcDbLine
 10
493.0006060144887
 20
1207.36648238298
 30
0.0
 11
493.0006060144887
 21
1260.189818341909
 31
0.0
  0
LINE
  5
16AF7
330
18
100
AcDbEntity
  8
Construction
  6
CENTER
100
AcDbLine
 10
493.0006060144887
 20
1136.166784596132
 30
0.0
 11
493.0006060144887
 21
1217.264964414782
 31
0.0
  0
LINE
  5
16AF8
330
18
100
AcDbEntity
  8
Insert
100
AcDbLine
 10
562.4649568173727
 20
1197.86648238298
 30
0.0
 11
649.4801292600713
 21
1197.86648238298
 31
0.0
  0
LINE
  5
16AF9
330
18
100
AcDbEntity
  8
Insert
100
AcDbLine
 10
562.4649568173727
 20
1167.86648238298
 30
0.0
 11
649.4801292600715
 21
1167.86648238298
 31
0.0
  0
CIRCLE
  5
16AFA
330
18
100
AcDbEntity
  8
Insert
100
AcDbCircle
 10
493.0006060144887
 20
1182.86648238298
 30
0.0
 40
10.0
  0
CIRCLE
  5
16AFB
330
18
100
AcDbEntity
  8
Insert
100
AcDbCircle
 10
493.0006060144887
 20
1182.86648238298
 30
0.0
 40
24.5
  0
LINE
  5
16AFC
330
18
100
AcDbEntity
  8
Insert
100
AcDbLine
 10
562.4649568173727
 20
1197.86648238298
 30
0.0
 11
562.4649568173727
 21
1167.86648238298
 31
0.0
  0
LINE
  5
16AFD
330
18
100
AcDbEntity
  8
Insert
  6
HIDDEN
100
AcDbLine
 10
481.1528738166713
 20
1175.407847000499
 30
0.0
 11
504.8483382123063
 21
1175.407847000499
 31
0.0
  0
LINE
  5
16AFE
330
18
100
AcDbEntity
  8
Construction
  6
ACAD_ISO02W100
100
AcDbLine
 10
493.0006060144887
 20
1182.86648238298
 30
0.0
 11
542.0006060144888
 21
1182.86648238298
 31
0.0
  0
LINE
  5
16AFF
330
18
100
AcDbEntity
  8
Insert
  6
HIDDEN
100
AcDbLine
 10
481.1528729844833
 20
1190.325116443565
 30
0.0
 11
504.8483390444941
 21
1190.325116443565
 31
0.0
  0
INSERT
  5
16B00
330
18
100
AcDbEntity
  8
Insert
100
AcDbBlockReference
  2
A$C3FDE73E2
 10
563.4649568173727
 20
1182.86648238298
 30
0.0
  0
LINE
  5
16B01
330
18
100
AcDbEntity
  8
Insert
100
AcDbLine
 10
649.4801292600713
 20
1197.86648238298
 30
0.0
 11
649.4801292600715
 21
1167.86648238298
 31
0.0
  0
CIRCLE
  5
16B02
330
18
100
AcDbEntity
  8
Insert
100
AcDbCircle
 10
638.9649568173727
 20
1182.86648238298
 30
0.0
 40
7.5
  0
LINE
  5
16B03
330
18
100
AcDbEntity
  8
Construction
  6
CENTER
100
AcDbLine
 10
494.0006060144887
 20
1268.91338847367
 30
0.0
 11
658.4649568173727
 21
1268.66338847367
 31
0.0
  0
CIRCLE
  5
16B06
330
18
100
AcDbEntity
  8
Insert
100
AcDbCircle
 10
493.0006060144887
 20
1268.91338847367
 30
0.0
 40
25.0
  0
LINE
  5
16B07
330
18
100
AcDbEntity
  8
Insert
100
AcDbLine
 10
654.9649568173727
 20
1293.91338847367
 30
0.0
 11
649.4801292600713
 21
1283.91338847367
 31
0.0
  0
LINE
  5
16B08
330
18
100
AcDbEntity
  8
Insert
100
AcDbLine
 10
654.9649568173727
 20
1269.16338847367
 30
0.0
 11
654.9649568173727
 21
1293.91338847367
 31
0.0
  0
LINE
  5
16B09
330
18
100
AcDbEntity
  8
Insert
100
AcDbLine
 10
658.4649568173727
 20
1269.16338847367
 30
0.0
 11
658.4649568173727
 21
1293.91338847367
 31
0.0
  0
LINE
  5
16B0A
330
18
100
AcDbEntity
  8
Insert
100
AcDbLine
 10
562.4649568173727
 20
1258.903559614989
 30
0.0
 11
612.4649568173727
 21
1258.897444644224
 31
0.0
  0
LINE
  5
16B0B
330
18
100
AcDbEntity
  8
Insert
100
AcDbLine
 10
562.4649568173727
 20
1278.90181183735
 30
0.0
 11
612.4649568173727
 21
1278.897295197743
 31
0.0
  0
LINE
  5
16B0C
330
18
100
AcDbEntity
  8
Insert
100
AcDbLine
 10
562.4649568173727
 20
1253.91338847367
 30
0.0
 11
649.4801292600715
 21
1253.91338847367
 31
0.0
  0
LINE
  5
16B0D
330
18
100
AcDbEntity
  8
Insert
100
AcDbLine
 10
562.4649568173727
 20
1283.91338847367
 30
0.0
 11
649.4801292600713
 21
1283.91338847367
 31
0.0
  0
LINE
  5
16B0E
330
18
100
AcDbEntity
  8
Insert
  6
HIDDEN
100
AcDbLine
 10
479.3489429246554
 20
1265.809826829094
 30
0.0
 11
496.1041676590645
 21
1282.565051563503
 31
0.0
  0
LINE
  5
16B0F
330
18
100
AcDbEntity
  8
Insert
  6
HIDDEN
100
AcDbLine
 10
489.8970458930802
 20
1255.26172503756
 30
0.0
 11
506.6522694505979
 21
1272.016948595078
 31
0.0
  0
CIRCLE
  5
16B10
330
18
100
AcDbEntity
  8
Insert
100
AcDbCircle
 10
493.0006060144887
 20
1268.91338847367
 30
0.0
 40
10.0
  0
LINE
  5
16B11
330
18
100
AcDbEntity
  8
Insert
100
AcDbLine
 10
562.4649568173727
 20
1283.91338847367
 30
0.0
 11
562.4649568173727
 21
1253.91338847367
 31
0.0
  0
LINE
  5
16B12
330
18
100
AcDbEntity
  8
Insert
100
AcDbLine
 10
658.4649568173727
 20
1268.66338847367
 30
0.0
 11
658.4649568173727
 21
1243.91338847367
 31
0.0
  0
LINE
  5
16B13
330
18
100
AcDbEntity
  8
Insert
100
AcDbLine
 10
654.9649568173727
 20
1268.66338847367
 30
0.0
 11
654.9649568173727
 21
1243.91338847367
 31
0.0
  0
LINE
  5
16B14
330
18
100
AcDbEntity
  8
Insert
100
AcDbLine
 10
654.9649568173727
 20
1243.91338847367
 30
0.0
 11
649.4801292600713
 21
1253.91338847367
 31
0.0
  0
LINE
  5
16B15
330
18
100
AcDbEntity
  8
Insert
100
AcDbLine
 10
658.4649568173727
 20
1243.91338847367
 30
0.0
 11
654.9649568173727
 21
1243.91338847367
 31
0.0
  0
ELLIPSE
  5
16B16
330
18
100
AcDbEntity
  8
Insert
100
AcDbEllipse
 10
638.9649568173727
 20
1278.812883410281
 30
0.0
 11
-7.5
 21
0.0
 31
0.0
210
0.0
220
0.0
230
1.0
 40
0.9061246420270588
 41
0.0
 42
3.141592653589793
  0
ELLIPSE
  5
16B17
330
18
100
AcDbEntity
  8
Insert
100
AcDbEllipse
 10
638.9649568173727
 20
1278.812883410281
 30
0.0
 11
-7.5
 21
-0.0000000000001137
 31
0.0
210
0.0
220
0.0
230
1.0
 40
0.5002890870961969
 41
3.141592653589793
 42
6.283185307179586
  0
LINE
  5
16B18
330
18
100
AcDbEntity
  8
Insert
  6
HIDDEN
100
AcDbLine
 10
646.4649568173727
 20
1278.812883410282
 30
0.0
 11
646.4649568173726
 21
1253.91338847367
 31
0.0
  0
LINE
  5
16B19
330
18
100
AcDbEntity
  8
Insert
  6
HIDDEN
100
AcDbLine
 10
631.4649568173726
 20
1278.812883410281
 30
0.0
 11
631.4649568173726
 21
1253.91338847367
 31
0.0
  0
LINE
  5
16B1A
330
18
100
AcDbEntity
  8
Insert
100
AcDbLine
 10
649.4801292600713
 20
1283.91338847367
 30
0.0
 11
649.4801292600715
 21
1253.91338847367
 31
0.0
  0
LINE
  5
16B1B
330
18
100
AcDbEntity
  8
Construction
  6
CENTER
100
AcDbLine
 10
493.0006060144887
 20
1293.41338847367
 30
0.0
 11
493.0006060144887
 21
1346.236724432599
 31
0.0
  0
LINE
  5
16B1C
330
18
100
AcDbEntity
  8
Insert
100
AcDbLine
 10
658.4649568173727
 20
1293.91338847367
 30
0.0
 11
654.9649568173727
 21
1293.91338847367
 31
0.0
  0
LINE
  5
16B1D
330
18
100
AcDbEntity
  8
InsertDims
100
AcDbLine
 10
612.4649568173727
 20
1268.91338847367
 30
0.0
 11
612.4649568173727
 21
1283.91338847367
 31
0.0
  0
LINE
  5
16B1E
330
18
100
AcDbEntity
  8
Insert
100
AcDbLine
 10
612.4649568173727
 20
1278.897295197743
 30
0.0
 11
612.4649568173727
 21
1258.897444644224
 31
0.0
  0
CIRCLE
  5
16B1F
330
18
100
AcDbEntity
  8
Insert
100
AcDbCircle
 10
493.0006060144887
 20
1268.91338847367
 30
0.0
 40
14.0
  0
CIRCLE
  5
16B20
330
18
100
AcDbEntity
  8
Insert
100
AcDbCircle
 10
493.0006060144887
 20
1182.86648238298
 30
0.0
 40
14.0
  0
LINE
  5
16B23
330
18
100
AcDbEntity
  8
Construction
  6
CENTER
100
AcDbLine
 10
542.0006060144888
 20
1471.557835238865
 30
0.0
 11
434.7906972961664
 21
1471.557835238865
 31
0.0
  0
LINE
  5
16B24
330
18
100
AcDbEntity
  8
Construction
  6
CENTER
100
AcDbLine
 10
493.0006060144887
 20
1496.057835238865
 30
0.0
 11
493.0006060144887
 21
1548.881171197794
 31
0.0
  0
LINE
  5
16B25
330
18
100
AcDbEntity
  8
Construction
  6
CENTER
100
AcDbLine
 10
493.0006060144887
 20
1447.057835238865
 30
0.0
 11
493.0006060144887
 21
1505.956317270667
 31
0.0
  0
CIRCLE
  5
16B26
330
18
100
AcDbEntity
  8
Insert
100
AcDbCircle
 10
493.0006060144887
 20
1471.557835238865
 30
0.0
 40
10.0
  0
CIRCLE
  5
16B27
330
18
100
AcDbEntity
  8
Insert
100
AcDbCircle
 10
493.0006060144887
 20
1471.557835238865
 30
0.0
 40
24.5
  0
LINE
  5
16B28
330
18
100
AcDbEntity
  8
Insert
  6
HIDDEN
100
AcDbLine
 10
481.1528738166713
 20
1464.099199856384
 30
0.0
 11
504.8483382123063
 21
1464.099199856384
 31
0.0
  0
LINE
  5
16B29
330
18
100
AcDbEntity
  8
Construction
  6
ACAD_ISO02W100
100
AcDbLine
 10
493.0006060144887
 20
1471.557835238865
 30
0.0
 11
542.0006060144888
 21
1471.557835238865
 31
0.0
  0
LINE
  5
16B2A
330
18
100
AcDbEntity
  8
Insert
  6
HIDDEN
100
AcDbLine
 10
481.1528729844833
 20
1479.01646929945
 30
0.0
 11
504.8483390444941
 21
1479.01646929945
 31
0.0
  0
LINE
  5
16B2B
330
18
100
AcDbEntity
  8
Insert
100
AcDbLine
 10
562.4649568173724
 20
1456.557835238865
 30
0.0
 11
623.4801292600715
 21
1456.557835238865
 31
0.0
  0
LINE
  5
16B2C
330
18
100
AcDbEntity
  8
Insert
100
AcDbLine
 10
562.4649568173725
 20
1486.557835238865
 30
0.0
 11
623.4801292600713
 21
1486.557835238865
 31
0.0
  0
LINE
  5
16B2D
330
18
100
AcDbEntity
  8
Insert
100
AcDbLine
 10
562.4649568173725
 20
1486.557835238865
 30
0.0
 11
562.4649568173724
 21
1456.557835238865
 31
0.0
  0
INSERT
  5
16B2E
330
18
100
AcDbEntity
  8
Insert
100
AcDbBlockReference
  2
A$C3FDE73E2
 10
537.4649568173727
 20
1471.557835238865
 30
0.0
  0
LINE
  5
16B2F
330
18
100
AcDbEntity
  8
Insert
100
AcDbLine
 10
623.4801292600713
 20
1486.557835238865
 30
0.0
 11
623.4801292600715
 21
1456.557835238865
 31
0.0
  0
CIRCLE
  5
16B30
330
18
100
AcDbEntity
  8
Insert
100
AcDbCircle
 10
612.9649568173727
 20
1471.557835238865
 30
0.0
 40
7.5
  0
LINE
  5
16B31
330
18
100
AcDbEntity
  8
Construction
  6
CENTER
100
AcDbLine
 10
494.0006060144887
 20
1557.604741329554
 30
0.0
 11
632.4649568173237
 21
1557.604741329554
 31
0.0
  0
CIRCLE
  5
16B32
330
18
100
AcDbEntity
  8
Insert
100
AcDbCircle
 10
493.0006060144887
 20
1557.604741329554
 30
0.0
 40
25.0
  0
LINE
  5
16B33
330
18
100
AcDbEntity
  8
Insert
  6
HIDDEN
100
AcDbLine
 10
479.3489429246554
 20
1554.501179684978
 30
0.0
 11
496.1041676590645
 21
1571.256404419388
 31
0.0
  0
LINE
  5
16B34
330
18
100
AcDbEntity
  8
Insert
  6
HIDDEN
100
AcDbLine
 10
489.8970458930802
 20
1543.953077893445
 30
0.0
 11
506.6522694505979
 21
1560.708301450963
 31
0.0
  0
CIRCLE
  5
16B35
330
18
100
AcDbEntity
  8
Insert
100
AcDbCircle
 10
493.0006060144887
 20
1557.604741329554
 30
0.0
 40
10.0
  0
LINE
  5
16B36
330
18
100
AcDbEntity
  8
Construction
  6
CENTER
100
AcDbLine
 10
493.0006060144887
 20
1582.104741329555
 30
0.0
 11
493.0006060144887
 21
1634.928077288483
 31
0.0
  0
INSERT
  5
16B37
330
18
100
AcDbEntity
  8
Insert
100
AcDbBlockReference
  2
A$C3FDE73E2
 10
537.4649568173237
 20
1557.604741329554
 30
0.0
  0
LINE
  5
16B3A
330
18
100
AcDbEntity
  8
Insert
100
AcDbLine
 10
562.4649568173727
 20
1572.604741329555
 30
0.0
 11
623.4801292600222
 21
1572.604741329555
 31
0.0
  0
LINE
  5
16B3B
330
18
100
AcDbEntity
  8
Insert
100
AcDbLine
 10
562.4649568173727
 20
1542.604741329554
 30
0.0
 11
623.4801292600226
 21
1542.604741329554
 31
0.0
  0
LINE
  5
16B3C
330
18
100
AcDbEntity
  8
Insert
100
AcDbLine
 10
562.4649568173727
 20
1572.604741329555
 30
0.0
 11
562.4649568173727
 21
1542.604741329554
 31
0.0
  0
LINE
  5
16B3D
330
18
100
AcDbEntity
  8
Insert
100
AcDbLine
 10
562.4649568173727
 20
1547.592755470966
 30
0.0
 11
592.4649568173727
 21
1547.588949000539
 31
0.0
  0
LINE
  5
16B3E
330
18
100
AcDbEntity
  8
Insert
100
AcDbLine
 10
562.4649568173727
 20
1567.592755470966
 30
0.0
 11
592.4649568173727
 21
1567.58841153639
 31
0.0
  0
LINE
  5
16B3F
330
18
100
AcDbEntity
  8
Insert
  6
HIDDEN
100
AcDbLine
 10
620.4649568173236
 20
1567.504236266166
 30
0.0
 11
620.4649568173236
 21
1542.604741329554
 31
0.0
  0
LINE
  5
16B40
330
18
100
AcDbEntity
  8
Insert
100
AcDbLine
 10
623.4801292600223
 20
1572.604741329555
 30
0.0
 11
623.4801292600224
 21
1542.604741329554
 31
0.0
  0
ELLIPSE
  5
16B41
330
18
100
AcDbEntity
  8
Insert
100
AcDbEllipse
 10
612.9649568173727
 20
1567.504236266166
 30
0.0
 11
-7.5
 21
-0.0000000000001137
 31
0.0
210
0.0
220
0.0
230
1.0
 40
0.5002890870961969
 41
3.141592653589793
 42
6.283185307179586
  0
LINE
  5
16B42
330
18
100
AcDbEntity
  8
Insert
  6
HIDDEN
100
AcDbLine
 10
605.4649568173727
 20
1567.504236266166
 30
0.0
 11
605.4649568173727
 21
1542.604741329554
 31
0.0
  0
ELLIPSE
  5
16B43
330
18
100
AcDbEntity
  8
Insert
100
AcDbEllipse
 10
612.9649568173727
 20
1567.504236266166
 30
0.0
 11
-7.5
 21
0.0
 31
0.0
210
0.0
220
0.0
230
1.0
 40
0.9061246420270588
 41
0.0
 42
3.141592653589793
  0
LINE
  5
16B44
330
18
100
AcDbEntity
  8
InsertDims
100
AcDbLine
 10
562.4649568173727
 20
1567.592755470966
 30
0.0
 11
592.4649568173727
 21
1567.592755470966
 31
0.0
  0
LINE
  5
16B45
330
18
100
AcDbEntity
  8
InsertDims
100
AcDbLine
 10
592.4649568173727
 20
1567.592755470966
 30
0.0
 11
592.4649568173727
 21
1547.588949000539
 31
0.0
  0
CIRCLE
  5
16B46
330
18
100
AcDbEntity
  8
Insert
100
AcDbCircle
 10
493.0006060144887
 20
1557.604741329554
 30
0.0
 40
14.0
  0
CIRCLE
  5
16B47
330
18
100
AcDbEntity
  8
Insert
100
AcDbCircle
 10
493.0006060144887
 20
1471.557835238865
 30
0.0
 40
14.0
  0
LINE
  5
16F26
330
18
100
AcDbEntity
  8
Construction
  6
CENTER
100
AcDbLine
 10
1720.989943397393
 20
1496.722108063921
 30
0.0
 11
1720.989943397393
 21
1592.003223361356
 31
0.0
  0
LINE
  5
16F2D
330
18
100
AcDbEntity
  8
Construction
  6
CENTER
100
AcDbLine
 10
1769.989943397393
 20
1557.604741329554
 30
0.0
 11
1662.780034679071
 21
1557.604741329554
 31
0.0
  0
CIRCLE
  5
16F2E
330
18
100
AcDbEntity
  8
Insert
100
AcDbCircle
 10
1720.989943397393
 20
1557.604741329554
 30
0.0
 40
12.5
  0
CIRCLE
  5
16F2F
330
18
100
AcDbEntity
  8
Insert
100
AcDbCircle
 10
1720.989943397393
 20
1557.604741329554
 30
0.0
 40
25.0
  0
LINE
  5
16F30
330
18
100
AcDbEntity
  8
Construction
  6
ACAD_ISO02W100
100
AcDbLine
 10
1720.989943397393
 20
1557.604741329554
 30
0.0
 11
1769.989943397393
 21
1557.604741329554
 31
0.0
  0
CIRCLE
  5
16F31
330
18
100
AcDbEntity
  8
InsertDims
100
AcDbCircle
 10
1720.989943397393
 20
1557.604741329554
 30
0.0
 40
5.5
  0
LINE
  5
16F32
330
18
100
AcDbEntity
  8
Insert
  6
HIDDEN
100
AcDbLine
 10
1710.324578893542
 20
1552.104741329555
 30
0.0
 11
1731.655307901244
 21
1552.104741329555
 31
0.0
  0
LINE
  5
16F33
330
18
100
AcDbEntity
  8
Insert
  6
HIDDEN
100
AcDbLine
 10
1710.324578893542
 20
1563.104741329554
 30
0.0
 11
1731.655307901244
 21
1563.104741329555
 31
0.0
  0
CIRCLE
  5
16F34
330
18
100
AcDbEntity
  8
Insert
  6
HIDDEN2
100
AcDbCircle
 10
1720.989943397393
 20
1557.604741329554
 30
0.0
 40
8.5
  0
CIRCLE
  5
16F35
330
18
100
AcDbEntity
  8
Insert
100
AcDbCircle
 10
1720.989943397393
 20
1557.604741329554
 30
0.0
 40
8.0
  0
LINE
  5
16F36
330
18
100
AcDbEntity
  8
Insert
100
AcDbLine
 10
1822.40171678011
 20
1570.104741329554
 30
0.0
 11
1881.940704805255
 21
1570.104741329554
 31
0.0
  0
LINE
  5
16F37
330
18
100
AcDbEntity
  8
Insert
100
AcDbLine
 10
1822.40171678011
 20
1545.104741329554
 30
0.0
 11
1881.939048227143
 21
1545.104741329554
 31
0.0
  0
LINE
  5
16F3A
330
18
100
AcDbEntity
  8
Insert
100
AcDbLine
 10
1822.40171678011
 20
1570.104741329554
 30
0.0
 11
1822.40171678011
 21
1545.104741329554
 31
0.0
  0
LINE
  5
16F3C
330
18
100
AcDbEntity
  8
Insert
100
AcDbLine
 10
1857.779956696117
 20
1549.599618043684
 30
0.0
 11
1857.78733803707
 21
1565.597079757865
 31
0.0
  0
LINE
  5
16F3D
330
18
100
AcDbEntity
  8
Insert
100
AcDbLine
 10
1822.40171678011
 20
1565.603793038475
 30
0.0
 11
1857.78733803707
 21
1565.597079757865
 31
0.0
  0
LINE
  5
16F3E
330
18
100
AcDbEntity
  8
Insert
100
AcDbLine
 10
1822.40171678011
 20
1549.604106917817
 30
0.0
 11
1857.779956696117
 21
1549.599618043684
 31
0.0
  0
LINE
  5
16F3F
330
18
100
AcDbEntity
  8
Insert
100
AcDbLine
 10
1892.40171678011
 20
1532.562657811952
 30
0.0
 11
1892.401716780111
 21
1582.562657811952
 31
0.0
  0
LINE
  5
16F40
330
18
100
AcDbEntity
  8
Insert
100
AcDbLine
 10
1888.901716780111
 20
1532.562657811952
 30
0.0
 11
1888.90171678011
 21
1582.562657811952
 31
0.0
  0
LINE
  5
16F41
330
18
100
AcDbEntity
  8
Insert
100
AcDbLine
 10
1881.940704805255
 20
1570.104741329554
 30
0.0
 11
1881.939048227143
 21
1545.104741329554
 31
0.0
  0
LINE
  5
16F42
330
18
100
AcDbEntity
  8
Insert
100
AcDbLine
 10
1888.901716780111
 20
1532.562657811952
 30
0.0
 11
1881.939048227143
 21
1545.104741329554
 31
0.0
  0
LINE
  5
16F43
330
18
100
AcDbEntity
  8
Insert
100
AcDbLine
 10
1892.401716780111
 20
1532.562657811952
 30
0.0
 11
1888.901716780111
 21
1532.562657811952
 31
0.0
  0
CIRCLE
  5
16F44
330
18
100
AcDbEntity
  8
Insert
100
AcDbCircle
 10
1874.90171678011
 20
1557.604741329554
 30
0.0
 40
5.5
  0
LINE
  5
16F45
330
18
100
AcDbEntity
  8
Insert
100
AcDbLine
 10
1888.901716780111
 20
1582.562657811952
 30
0.0
 11
1881.940704805255
 21
1570.104741329554
 31
0.0
  0
LINE
  5
16F46
330
18
100
AcDbEntity
  8
Insert
100
AcDbLine
 10
1892.401716780111
 20
1582.562657811952
 30
0.0
 11
1888.901716780111
 21
1582.562657811952
 31
0.0
  0
LINE
  5
1712B
330
18
100
AcDbEntity
  8
Insert
100
AcDbLine
 10
2803.412770726439
 20
1567.609694690048
 30
0.0
 11
2846.041905846864
 21
1567.597363482704
 31
0.0
  0
LINE
  5
1712C
330
18
100
AcDbEntity
  8
Insert
100
AcDbLine
 10
2846.041938695046
 20
1567.609694690048
 30
0.0
 11
2845.988662188644
 21
1547.609694690049
 31
0.0
  0
LINE
  5
1712D
330
18
100
AcDbEntity
  8
Insert
100
AcDbLine
 10
2803.412770726439
 20
1567.609694690048
 30
0.0
 11
2803.412770726439
 21
1547.609694690049
 31
0.0
  0
LINE
  5
1712E
330
18
100
AcDbEntity
  8
Insert
100
AcDbLine
 10
2803.412770726439
 20
1547.609694690049
 30
0.0
 11
2845.988629340461
 21
1547.597363482704
 31
0.0
  0
CIRCLE
  5
1712F
330
18
100
AcDbEntity
  8
Insert
100
AcDbCircle
 10
2839.412770726439
 20
1557.609694690049
 30
0.0
 40
5.5
  0
LINE
  5
17130
330
18
100
AcDbEntity
  8
Insert
  6
HIDDEN
100
AcDbLine
 10
2725.59677337931
 20
1552.104741329555
 30
0.0
 11
2742.300066467799
 21
1552.104741329555
 31
0.0
  0
LINE
  5
17131
330
18
100
AcDbEntity
  8
Insert
  6
HIDDEN
100
AcDbLine
 10
2725.59677337931
 20
1563.104741329554
 30
0.0
 11
2742.300066467799
 21
1563.104741329555
 31
0.0
  0
CIRCLE
  5
17134
330
18
100
AcDbEntity
  8
Insert
  6
HIDDEN2
100
AcDbCircle
 10
2733.948419923555
 20
1557.604741329554
 30
0.0
 40
10.0
  0
CIRCLE
  5
17135
330
18
100
AcDbEntity
  8
Insert
100
AcDbCircle
 10
2733.948419923555
 20
1557.604741329554
 30
0.0
 40
10.0
  0
LINE
  5
17136
330
18
100
AcDbEntity
  8
Insert
100
AcDbLine
 10
2850.412770726439
 20
1540.109694690048
 30
0.0
 11
2850.412770726439
 21
1575.109694690049
 31
0.0
  0
LINE
  5
17137
330
18
100
AcDbEntity
  8
Construction
  6
CENTER
100
AcDbLine
 10
2733.948419923555
 20
1510.905043542706
 30
0.0
 11
2733.948419923555
 21
1592.003223361356
 31
0.0
  0
CIRCLE
  5
17138
330
18
100
AcDbEntity
  8
Insert
100
AcDbCircle
 10
2733.948419923555
 20
1557.604741329554
 30
0.0
 40
17.5
  0
LINE
  5
17139
330
18
100
AcDbEntity
  8
Construction
  6
ACAD_ISO02W100
100
AcDbLine
 10
2733.948419923555
 20
1557.604741329554
 30
0.0
 11
2782.948419923555
 21
1557.604741329554
 31
0.0
  0
LINE
  5
1713A
330
18
100
AcDbEntity
  8
Construction
  6
CENTER
100
AcDbLine
 10
2782.948419923555
 20
1557.604741329554
 30
0.0
 11
2675.738511205233
 21
1557.604741329554
 31
0.0
  0
LINE
  5
1713B
330
18
100
AcDbEntity
  8
Insert
100
AcDbLine
 10
2850.438490419185
 20
1575.109694690049
 30
0.0
 11
2846.041938695046
 21
1567.609694690048
 31
0.0
  0
LINE
  5
1713C
330
18
100
AcDbEntity
  8
Insert
100
AcDbLine
 10
2850.412770726439
 20
1540.109694690048
 30
0.0
 11
2845.988662188644
 21
1547.609694690049
 31
0.0
  0
LINE
  5
1713D
330
18
100
AcDbEntity
  8
Insert
100
AcDbLine
 10
2850.438490419185
 20
1575.109694690049
 30
0.0
 11
2853.412770726439
 21
1575.109694690049
 31
0.0
  0
LINE
  5
1713E
330
18
100
AcDbEntity
  8
Insert
100
AcDbLine
 10
2850.412770726439
 20
1540.109694690048
 30
0.0
 11
2853.412770726439
 21
1540.109694690048
 31
0.0
  0
LINE
  5
1713F
330
18
100
AcDbEntity
  8
Insert
100
AcDbLine
 10
2853.412770726439
 20
1540.109694690048
 30
0.0
 11
2853.412770726439
 21
1575.109694690049
 31
0.0
  0
LINE
  5
17140
330
18
100
AcDbEntity
  8
InsertDims
100
AcDbLine
 10
2828.412770726438
 20
1563.601886298794
 30
0.0
 11
2828.412770726437
 21
1551.595796730683
 31
0.0
  0
LINE
  5
17141
330
18
100
AcDbEntity
  8
Insert
100
AcDbLine
 10
2803.412770726439
 20
1551.606776396054
 30
0.0
 11
2828.412770726437
 21
1551.606649905991
 31
0.0
  0
LINE
  5
17142
330
18
100
AcDbEntity
  8
Insert
100
AcDbLine
 10
2803.412770726439
 20
1563.606776396055
 30
0.0
 11
2828.412770726438
 21
1563.591033123486
 31
0.0
  0
LINE
  5
17143
330
18
100
AcDbEntity
  8
Insert
100
AcDbLine
 10
2828.412770726437
 20
1551.606649905991
 30
0.0
 11
2828.412770726438
 21
1563.591033123486
 31
0.0
  0
LINE
  5
17144
330
18
100
AcDbEntity
  8
Insert
100
AcDbLine
 10
2828.412770726438
 20
1563.601886298794
 30
0.0
 11
2828.192739667072
 21
1564.095824696894
 31
0.0
  0
CIRCLE
  5
171FC
330
18
100
AcDbEntity
  8
Insert
100
AcDbCircle
 10
2458.767172878995
 20
1263.941086740117
 30
0.0
 40
25.0
  0
CIRCLE
  5
171FE
330
18
100
AcDbEntity
  8
Insert
100
AcDbCircle
 10
2458.767172878995
 20
1263.941086740117
 30
0.0
 40
10.0
  0
CIRCLE
  5
171FF
330
18
100
AcDbEntity
  8
Insert
100
AcDbCircle
 10
2458.767172878995
 20
1263.941086740117
 30
0.0
 40
6.0
  0
CIRCLE
  5
17200
330
18
100
AcDbEntity
  8
Insert
  6
HIDDEN2
100
AcDbCircle
 10
2458.767172878995
 20
1263.941086740117
 30
0.0
 40
10.0
  0
LINE
  5
17201
330
18
100
AcDbEntity
  8
Construction
  6
CENTER
100
AcDbLine
 10
2458.767172878995
 20
1210.707699120119
 30
0.0
 11
2458.767172878995
 21
1341.264422699046
 31
0.0
  0
CIRCLE
  5
17203
330
18
100
AcDbEntity
  8
Insert
  6
HIDDEN2
100
AcDbCircle
 10
2458.767172878995
 20
1263.941086740116
 30
0.0
 40
6.5
  0
LINE
  5
17204
330
18
100
AcDbEntity
  8
Insert
  6
HIDDEN
100
AcDbLine
 10
2448.972579676961
 20
1261.924668131134
 30
0.0
 11
2460.783591487978
 21
1273.735679942151
 31
0.0
  0
LINE
  5
17205
330
18
100
AcDbEntity
  8
Insert
  6
HIDDEN
100
AcDbLine
 10
2456.750754270013
 20
1254.146493538081
 30
0.0
 11
2468.561766081031
 21
1265.957505349099
 31
0.0
  0
LINE
  5
1724C
330
18
100
AcDbEntity
  8
Construction
  6
CENTER
100
AcDbLine
 10
2784.892262758774
 20
860.1246182174667
 30
0.0
 11
2677.682354040452
 21
860.1246182174667
 31
0.0
  0
LINE
  5
1724D
330
18
100
AcDbEntity
  8
Construction
  6
ACAD_ISO02W100
100
AcDbLine
 10
2735.892262758774
 20
860.1246182174667
 30
0.0
 11
2784.892262758774
 21
860.1246182174667
 31
0.0
  0
LINE
  5
1724E
330
18
100
AcDbEntity
  8
Construction
  6
CENTER
100
AcDbLine
 10
2735.892262758774
 20
946.1715243081561
 30
0.0
 11
3025.076227614704
 21
946.1715243081561
 31
0.0
  0
CIRCLE
  5
1724F
330
18
100
AcDbEntity
  8
Insert
100
AcDbCircle
 10
2735.892262758774
 20
946.1715243081561
 30
0.0
 40
25.0
  0
CIRCLE
  5
17250
330
18
100
AcDbEntity
  8
Insert
100
AcDbCircle
 10
2735.892262758774
 20
860.1246182174667
 30
0.0
 40
25.0
  0
LINE
  5
17251
330
18
100
AcDbEntity
  8
Construction
  6
CENTER
100
AcDbLine
 10
2735.892262758774
 20
813.4249204306188
 30
0.0
 11
2735.892262758774
 21
894.5231002492683
 31
0.0
  0
CIRCLE
  5
17252
330
18
100
AcDbEntity
  8
Insert
100
AcDbCircle
 10
2735.892262758774
 20
860.1246182174667
 30
0.0
 40
10.0
  0
CIRCLE
  5
17253
330
18
100
AcDbEntity
  8
Insert
100
AcDbCircle
 10
2735.892262758774
 20
860.1246182174667
 30
0.0
 40
6.0
  0
CIRCLE
  5
17254
330
18
100
AcDbEntity
  8
Insert
  6
HIDDEN2
100
AcDbCircle
 10
2735.892262758774
 20
860.1246182174667
 30
0.0
 40
10.0
  0
LINE
  5
17255
330
18
100
AcDbEntity
  8
Construction
  6
CENTER
100
AcDbLine
 10
2735.892262758774
 20
884.6246182174668
 30
0.0
 11
2735.892262758774
 21
937.4479541763959
 31
0.0
  0
CIRCLE
  5
17256
330
18
100
AcDbEntity
  8
Insert
100
AcDbCircle
 10
2735.892262758774
 20
946.1715243081561
 30
0.0
 40
10.0
  0
CIRCLE
  5
17257
330
18
100
AcDbEntity
  8
Insert
100
AcDbCircle
 10
2735.892262758774
 20
946.1715243081561
 30
0.0
 40
6.0
  0
CIRCLE
  5
17258
330
18
100
AcDbEntity
  8
Insert
  6
HIDDEN2
100
AcDbCircle
 10
2735.892262758774
 20
946.1715243081561
 30
0.0
 40
10.0
  0
LINE
  5
17259
330
18
100
AcDbEntity
  8
Construction
  6
CENTER
100
AcDbLine
 10
2735.892262758774
 20
970.6715243081562
 30
0.0
 11
2735.892262758774
 21
1023.494860267085
 31
0.0
  0
LINE
  5
1725C
330
18
100
AcDbEntity
  8
Insert
100
AcDbLine
 10
2805.356613561658
 20
850.1246182174668
 30
0.0
 11
2891.80921056455
 21
850.1312067743615
 31
0.0
  0
LINE
  5
1725D
330
18
100
AcDbEntity
  8
Insert
100
AcDbLine
 10
2805.356613561658
 20
870.1246182174667
 30
0.0
 11
2891.862469520189
 21
870.1246182174669
 31
0.0
  0
LINE
  5
1725E
330
18
100
AcDbEntity
  8
Insert
100
AcDbLine
 10
2805.356613561658
 20
870.1246182174669
 30
0.0
 11
2805.356613561658
 21
850.1246182174666
 31
0.0
  0
CIRCLE
  5
1725F
330
18
100
AcDbEntity
  8
Insert
100
AcDbCircle
 10
2883.856613561659
 20
860.1246182174667
 30
0.0
 40
5.5
  0
LINE
  5
17260
330
18
100
AcDbEntity
  8
Insert
100
AcDbLine
 10
2805.356613561658
 20
936.1715243081562
 30
0.0
 11
2891.80921056455
 21
936.1781128650509
 31
0.0
  0
LINE
  5
17261
330
18
100
AcDbEntity
  8
Insert
100
AcDbLine
 10
2805.356613561658
 20
956.1715243081563
 30
0.0
 11
2891.862452452815
 21
956.1651172165037
 31
0.0
  0
LINE
  5
17262
330
18
100
AcDbEntity
  8
Insert
100
AcDbLine
 10
2805.356613561658
 20
956.1715243081563
 30
0.0
 11
2805.356613561658
 21
936.1715243081562
 31
0.0
  0
CIRCLE
  5
17263
330
18
100
AcDbEntity
  8
Insert
  6
HIDDEN2
100
AcDbCircle
 10
2735.892262758774
 20
860.1246182174667
 30
0.0
 40
6.5
  0
CIRCLE
  5
17264
330
18
100
AcDbEntity
  8
Insert
  6
HIDDEN2
100
AcDbCircle
 10
2735.892262758774
 20
946.171524308156
 30
0.0
 40
6.5
  0
LINE
  5
17265
330
18
100
AcDbEntity
  8
Insert
  6
HIDDEN
100
AcDbLine
 10
2727.540616214529
 20
865.6246182174667
 30
0.0
 11
2744.243909303019
 21
865.6246182174671
 31
0.0
  0
LINE
  5
17266
330
18
100
AcDbEntity
  8
Insert
  6
HIDDEN
100
AcDbLine
 10
2727.540616214529
 20
854.6246182174668
 30
0.0
 11
2744.243909303019
 21
854.624618217467
 31
0.0
  0
LINE
  5
17267
330
18
100
AcDbEntity
  8
Insert
  6
HIDDEN
100
AcDbLine
 10
2726.097669556741
 20
944.1551056991732
 30
0.0
 11
2737.908681367758
 21
955.9661175101908
 31
0.0
  0
LINE
  5
17268
330
18
100
AcDbEntity
  8
Insert
  6
HIDDEN
100
AcDbLine
 10
2733.875844149793
 20
936.3769311061208
 30
0.0
 11
2745.68685596081
 21
948.1879429171387
 31
0.0
  0
LINE
  5
17269
330
18
100
AcDbEntity
  8
Insert
  6
HIDDEN
100
AcDbLine
 10
2878.356613561658
 20
953.2425921200214
 30
0.0
 11
2878.356613561658
 21
936.1715243081562
 31
0.0
  0
ELLIPSE
  5
1726A
330
18
100
AcDbEntity
  8
Insert
100
AcDbEllipse
 10
2883.856613561659
 20
953.2425921200214
 30
0.0
 11
-5.5
 21
0.0
 31
0.0
210
0.0
220
0.0
230
1.0
 40
0.4951864345762364
 41
3.141592653589793
 42
6.283185307179586
  0
ELLIPSE
  5
1726B
330
18
100
AcDbEntity
  8
Insert
100
AcDbEllipse
 10
2883.856613561659
 20
953.2425921200214
 30
0.0
 11
-5.5
 21
0.0
 31
0.0
210
0.0
220
0.0
230
1.0
 40
0.9190271277968701
 41
0.0
 42
3.141592653589793
  0
LINE
  5
1726C
330
18
100
AcDbEntity
  8
Insert
100
AcDbLine
 10
2835.356613561657
 20
940.1655768265984
 30
0.0
 11
2835.356613561657
 21
952.1550607244698
 31
0.0
  0
LINE
  5
1726D
330
18
100
AcDbEntity
  8
Insert
100
AcDbLine
 10
2805.356613561658
 20
940.1686060141621
 30
0.0
 11
2835.356613561657
 21
940.1655768265984
 31
0.0
  0
LINE
  5
1726E
330
18
100
AcDbEntity
  8
Insert
100
AcDbLine
 10
2805.356613561658
 20
952.1686060141622
 30
0.0
 11
2835.356613561657
 21
952.1550607244698
 31
0.0
  0
INSERT
  5
17274
330
18
100
AcDbEntity
  8
Insert
100
AcDbBlockReference
  2
A$C406A5D29
 10
2883.856613561659
 20
946.1715243081561
 30
0.0
  0
INSERT
  5
17275
330
18
100
AcDbEntity
  8
Insert
100
AcDbBlockReference
  2
A$C406A5D29
 10
2883.856613561659
 20
860.1246182174667
 30
0.0
  0
LINE
  5
172A4
330
18
100
AcDbEntity
  8
Insert
  6
HIDDEN
100
AcDbLine
 10
2612.231523681879
 20
953.2425921200214
 30
0.0
 11
2612.231523681879
 21
936.1715243081562
 31
0.0
  0
LINE
  5
172A5
330
18
100
AcDbEntity
  8
Insert
  6
HIDDEN
100
AcDbLine
 10
2889.356613561659
 20
953.2425921200214
 30
0.0
 11
2889.356613561659
 21
936.1715243081562
 31
0.0
  0
LINE
  5
172B0
330
18
100
AcDbEntity
  8
Insert
100
AcDbLine
 10
2875.356613561658
 20
1238.941086740117
 30
0.0
 11
2875.356613561658
 21
1288.941086740117
 31
0.0
  0
LINE
  5
172B1
330
18
100
AcDbEntity
  8
Insert
100
AcDbLine
 10
2871.856613561659
 20
1238.941086740117
 30
0.0
 11
2871.856613561659
 21
1288.941086740117
 31
0.0
  0
LINE
  5
172B2
330
18
100
AcDbEntity
  8
Insert
100
AcDbLine
 10
2875.356613561658
 20
1238.941086740117
 30
0.0
 11
2871.856613561659
 21
1238.941086740117
 31
0.0
  0
LINE
  5
172B3
330
18
100
AcDbEntity
  8
Insert
100
AcDbLine
 10
2875.356613561658
 20
1288.941086740117
 30
0.0
 11
2871.856613561659
 21
1288.941086740117
 31
0.0
  0
CIRCLE
  5
172B4
330
18
100
AcDbEntity
  8
Insert
100
AcDbCircle
 10
2857.856613561658
 20
1263.941086740117
 30
0.0
 40
5.5
  0
LINE
  5
172B5
330
18
100
AcDbEntity
  8
Insert
100
AcDbLine
 10
2805.356613561658
 20
1253.941086740117
 30
0.0
 11
2865.794435735168
 21
1253.941086740117
 31
0.0
  0
LINE
  5
172B6
330
18
100
AcDbEntity
  8
Insert
100
AcDbLine
 10
2805.356613561658
 20
1273.941086740117
 30
0.0
 11
2805.356613561658
 21
1253.941086740117
 31
0.0
  0
LINE
  5
172B7
330
18
100
AcDbEntity
  8
Insert
100
AcDbLine
 10
2865.856613561659
 20
1273.941086740117
 30
0.0
 11
2865.803337055255
 21
1253.941086740117
 31
0.0
  0
LINE
  5
172B8
330
18
100
AcDbEntity
  8
Insert
100
AcDbLine
 10
2871.856613561659
 20
1238.941086740117
 30
0.0
 11
2865.803319315468
 21
1253.934427224072
 31
0.0
  0
LINE
  5
172B9
330
18
100
AcDbEntity
  8
Insert
100
AcDbLine
 10
2805.356613561659
 20
1273.941086740117
 30
0.0
 11
2865.856595821871
 21
1273.934427224072
 31
0.0
  0
LINE
  5
172BA
330
18
100
AcDbEntity
  8
Insert
100
AcDbLine
 10
2871.856613561659
 20
1288.941086740117
 30
0.0
 11
2865.856613561659
 21
1273.941086740117
 31
0.0
  0
LINE
  5
172BB
330
18
100
AcDbEntity
  8
Insert
100
AcDbLine
 10
2835.356613561657
 20
1269.933278348863
 30
0.0
 11
2835.356613561657
 21
1257.927188780751
 31
0.0
  0
LINE
  5
172BC
330
18
100
AcDbEntity
  8
Insert
100
AcDbLine
 10
2805.356613561658
 20
1257.938168446123
 30
0.0
 11
2835.356613561657
 21
1257.934361975697
 31
0.0
  0
LINE
  5
172BD
330
18
100
AcDbEntity
  8
Insert
100
AcDbLine
 10
2805.356613561658
 20
1269.938168446123
 30
0.0
 11
2835.356613561657
 21
1269.920373007459
 31
0.0
  0
CIRCLE
  5
172BF
330
18
100
AcDbEntity
  8
Insert
100
AcDbCircle
 10
2735.892262758774
 20
1263.941086740117
 30
0.0
 40
25.0
  0
CIRCLE
  5
172C0
330
18
100
AcDbEntity
  8
Insert
100
AcDbCircle
 10
2735.892262758774
 20
1263.941086740117
 30
0.0
 40
10.0
  0
CIRCLE
  5
172C1
330
18
100
AcDbEntity
  8
Insert
100
AcDbCircle
 10
2735.892262758774
 20
1263.941086740117
 30
0.0
 40
6.0
  0
CIRCLE
  5
172C2
330
18
100
AcDbEntity
  8
Insert
  6
HIDDEN2
100
AcDbCircle
 10
2735.892262758774
 20
1263.941086740117
 30
0.0
 40
10.0
  0
LINE
  5
172C3
330
18
100
AcDbEntity
  8
Construction
  6
CENTER
100
AcDbLine
 10
2735.892262758774
 20
1212.660439054454
 30
0.0
 11
2735.892262758774
 21
1341.264422699046
 31
0.0
  0
CIRCLE
  5
172C4
330
18
100
AcDbEntity
  8
Insert
  6
HIDDEN2
100
AcDbCircle
 10
2735.892262758774
 20
1263.941086740116
 30
0.0
 40
6.5
  0
LINE
  5
172C5
330
18
100
AcDbEntity
  8
Insert
  6
HIDDEN
100
AcDbLine
 10
2726.097669556741
 20
1261.924668131134
 30
0.0
 11
2737.908681367758
 21
1273.735679942151
 31
0.0
  0
LINE
  5
172C6
330
18
100
AcDbEntity
  8
Insert
  6
HIDDEN
100
AcDbLine
 10
2733.875844149793
 20
1254.146493538081
 30
0.0
 11
2745.68685596081
 21
1265.957505349099
 31
0.0
  0
LINE
  5
172C7
330
18
100
AcDbEntity
  8
Construction
  6
CENTER
100
AcDbLine
 10
2458.767172878995
 20
1263.941086740117
 30
0.0
 11
2944.722895059178
 21
1263.941086740117
 31
0.0
  0
LINE
  5
1730E
330
18
100
AcDbEntity
  8
Insert
100
AcDbLine
 10
-458.2556350649392
 20
1289.581426937648
 30
0.0
 11
-458.2556350649392
 21
1265.583431069833
 31
0.0
  0
LINE
  5
17323
330
18
100
AcDbEntity
  8
Insert
100
AcDbLine
 10
-505.7992542912088
 20
1545.604741329555
 30
0.0
 11
-460.7988369442892
 21
1545.604741329555
 31
0.0
  0
LINE
  5
17324
330
18
100
AcDbEntity
  8
Insert
100
AcDbLine
 10
-505.8016171237698
 20
1569.595927783541
 30
0.0
 11
-460.7988369442892
 21
1569.602737197369
 31
0.0
  0
LINE
  5
17325
330
18
100
AcDbEntity
  8
Insert
100
AcDbLine
 10
-460.7988369442892
 20
1569.602737197369
 30
0.0
 11
-460.7988369442892
 21
1545.604741329555
 31
0.0
  0
LINE
  5
1733A
330
18
100
AcDbEntity
  8
Insert
100
AcDbLine
 10
3481.871712748632
 20
1577.602316843198
 30
0.0
 11
3524.500847869058
 21
1577.589985635854
 31
0.0
  0
LINE
  5
1733B
330
18
100
AcDbEntity
  8
Insert
100
AcDbLine
 10
3524.50088071724
 20
1577.602316843198
 30
0.0
 11
3524.447604210838
 21
1557.602316843198
 31
0.0
  0
LINE
  5
1733C
330
18
100
AcDbEntity
  8
Insert
100
AcDbLine
 10
3481.871712748632
 20
1577.602316843198
 30
0.0
 11
3481.871712748632
 21
1557.602316843198
 31
0.0
  0
LINE
  5
1733D
330
18
100
AcDbEntity
  8
Insert
100
AcDbLine
 10
3481.871712748632
 20
1557.602316843198
 30
0.0
 11
3524.447571362654
 21
1557.589985635854
 31
0.0
  0
CIRCLE
  5
1733E
330
18
100
AcDbEntity
  8
Insert
100
AcDbCircle
 10
3517.871712748632
 20
1567.602316843198
 30
0.0
 40
5.5
  0
LINE
  5
1733F
330
18
100
AcDbEntity
  8
Insert
  6
HIDDEN
100
AcDbLine
 10
3406.597886926438
 20
1562.097363482704
 30
0.0
 11
3418.21683696506
 21
1562.097363482705
 31
0.0
  0
LINE
  5
17340
330
18
100
AcDbEntity
  8
Insert
  6
HIDDEN
100
AcDbLine
 10
3406.597886926437
 20
1573.097363482704
 30
0.0
 11
3418.21683696506
 21
1573.097363482704
 31
0.0
  0
LINE
  5
17345
330
18
100
AcDbEntity
  8
Insert
100
AcDbLine
 10
3528.871712748633
 20
1550.102316843198
 30
0.0
 11
3528.871712748633
 21
1585.102316843198
 31
0.0
  0
LINE
  5
17346
330
18
100
AcDbEntity
  8
Construction
  6
CENTER
100
AcDbLine
 10
3412.407361945748
 20
1520.897665695856
 30
0.0
 11
3412.407361945748
 21
1601.995845514506
 31
0.0
  0
CIRCLE
  5
17347
330
18
100
AcDbEntity
  8
Insert
100
AcDbCircle
 10
3412.407361945748
 20
1567.597363482704
 30
0.0
 40
17.5
  0
LINE
  5
17348
330
18
100
AcDbEntity
  8
Construction
  6
ACAD_ISO02W100
100
AcDbLine
 10
3412.407361945748
 20
1567.597363482704
 30
0.0
 11
3461.407361945749
 21
1567.597363482704
 31
0.0
  0
LINE
  5
17349
330
18
100
AcDbEntity
  8
Construction
  6
CENTER
100
AcDbLine
 10
3461.407361945749
 20
1567.597363482704
 30
0.0
 11
3354.197453227426
 21
1567.597363482704
 31
0.0
  0
LINE
  5
1734A
330
18
100
AcDbEntity
  8
Insert
100
AcDbLine
 10
3528.897432441378
 20
1585.102316843198
 30
0.0
 11
3524.50088071724
 21
1577.602316843198
 31
0.0
  0
LINE
  5
1734B
330
18
100
AcDbEntity
  8
Insert
100
AcDbLine
 10
3528.871712748633
 20
1550.102316843198
 30
0.0
 11
3524.447604210838
 21
1557.602316843198
 31
0.0
  0
LINE
  5
1734C
330
18
100
AcDbEntity
  8
Insert
100
AcDbLine
 10
3528.897432441378
 20
1585.102316843198
 30
0.0
 11
3531.871712748632
 21
1585.102316843198
 31
0.0
  0
LINE
  5
1734D
330
18
100
AcDbEntity
  8
Insert
100
AcDbLine
 10
3528.871712748633
 20
1550.102316843198
 30
0.0
 11
3531.871712748632
 21
1550.102316843198
 31
0.0
  0
LINE
  5
1734E
330
18
100
AcDbEntity
  8
Insert
100
AcDbLine
 10
3531.871712748632
 20
1550.102316843198
 30
0.0
 11
3531.871712748632
 21
1585.102316843198
 31
0.0
  0
LINE
  5
1734F
330
18
100
AcDbEntity
  8
InsertDims
100
AcDbLine
 10
3506.871712748632
 20
1573.594508451944
 30
0.0
 11
3506.871712748631
 21
1561.588418883833
 31
0.0
  0
LINE
  5
17350
330
18
100
AcDbEntity
  8
Insert
100
AcDbLine
 10
3481.871712748632
 20
1561.599398549204
 30
0.0
 11
3506.871712748631
 21
1561.599272059141
 31
0.0
  0
LINE
  5
17351
330
18
100
AcDbEntity
  8
Insert
100
AcDbLine
 10
3481.871712748632
 20
1573.599398549204
 30
0.0
 11
3506.871712748632
 21
1573.583655276635
 31
0.0
  0
LINE
  5
17352
330
18
100
AcDbEntity
  8
Insert
100
AcDbLine
 10
3506.871712748631
 20
1561.599272059141
 30
0.0
 11
3506.871712748632
 21
1573.583655276635
 31
0.0
  0
LINE
  5
17353
330
18
100
AcDbEntity
  8
Insert
100
AcDbLine
 10
3506.871712748632
 20
1573.594508451944
 30
0.0
 11
3506.651681689265
 21
1574.088446850044
 31
0.0
  0
LINE
  5
17358
330
18
100
AcDbEntity
  8
Insert
100
AcDbLine
 10
3757.052959793193
 20
1577.602316843198
 30
0.0
 11
3799.682094913618
 21
1577.589985635854
 31
0.0
  0
LINE
  5
17359
330
18
100
AcDbEntity
  8
Insert
100
AcDbLine
 10
3799.6821277618
 20
1577.602316843198
 30
0.0
 11
3799.628851255397
 21
1557.602316843198
 31
0.0
  0
LINE
  5
1735A
330
18
100
AcDbEntity
  8
Insert
100
AcDbLine
 10
3757.052959793193
 20
1577.602316843198
 30
0.0
 11
3757.052959793193
 21
1557.602316843198
 31
0.0
  0
LINE
  5
1735B
330
18
100
AcDbEntity
  8
Insert
100
AcDbLine
 10
3757.052959793193
 20
1557.602316843198
 30
0.0
 11
3799.628818407215
 21
1557.589985635854
 31
0.0
  0
CIRCLE
  5
1735C
330
18
100
AcDbEntity
  8
Insert
100
AcDbCircle
 10
3793.052959793193
 20
1567.602316843198
 30
0.0
 40
5.5
  0
LINE
  5
17363
330
18
100
AcDbEntity
  8
Insert
100
AcDbLine
 10
3804.052959793193
 20
1550.102316843198
 30
0.0
 11
3804.052959793193
 21
1585.102316843198
 31
0.0
  0
LINE
  5
17364
330
18
100
AcDbEntity
  8
Construction
  6
CENTER
100
AcDbLine
 10
3687.588608990309
 20
1520.897665695856
 30
0.0
 11
3687.588608990309
 21
1601.995845514506
 31
0.0
  0
CIRCLE
  5
17365
330
18
100
AcDbEntity
  8
Insert
100
AcDbCircle
 10
3687.588608990309
 20
1567.597363482704
 30
0.0
 40
17.5
  0
LINE
  5
17366
330
18
100
AcDbEntity
  8
Construction
  6
ACAD_ISO02W100
100
AcDbLine
 10
3687.588608990309
 20
1567.597363482704
 30
0.0
 11
3736.588608990309
 21
1567.597363482704
 31
0.0
  0
LINE
  5
17367
330
18
100
AcDbEntity
  8
Construction
  6
CENTER
100
AcDbLine
 10
3736.588608990309
 20
1567.597363482704
 30
0.0
 11
3629.378700271987
 21
1567.597363482704
 31
0.0
  0
LINE
  5
17368
330
18
100
AcDbEntity
  8
Insert
100
AcDbLine
 10
3804.078679485938
 20
1585.102316843198
 30
0.0
 11
3799.6821277618
 21
1577.602316843198
 31
0.0
  0
LINE
  5
17369
330
18
100
AcDbEntity
  8
Insert
100
AcDbLine
 10
3804.052959793193
 20
1550.102316843198
 30
0.0
 11
3799.628851255397
 21
1557.602316843198
 31
0.0
  0
LINE
  5
1736A
330
18
100
AcDbEntity
  8
Insert
100
AcDbLine
 10
3804.078679485938
 20
1585.102316843198
 30
0.0
 11
3807.052959793193
 21
1585.102316843198
 31
0.0
  0
LINE
  5
1736B
330
18
100
AcDbEntity
  8
Insert
100
AcDbLine
 10
3804.052959793193
 20
1550.102316843198
 30
0.0
 11
3807.052959793193
 21
1550.102316843198
 31
0.0
  0
LINE
  5
1736C
330
18
100
AcDbEntity
  8
Insert
100
AcDbLine
 10
3807.052959793193
 20
1550.102316843198
 30
0.0
 11
3807.052959793193
 21
1585.102316843198
 31
0.0
  0
LINE
  5
1736D
330
18
100
AcDbEntity
  8
InsertDims
100
AcDbLine
 10
3782.052959793192
 20
1573.594508451944
 30
0.0
 11
3782.052959793191
 21
1561.588418883833
 31
0.0
  0
LINE
  5
1736E
330
18
100
AcDbEntity
  8
Insert
100
AcDbLine
 10
3757.052959793192
 20
1561.599398549204
 30
0.0
 11
3782.052959793191
 21
1561.599272059141
 31
0.0
  0
LINE
  5
1736F
330
18
100
AcDbEntity
  8
Insert
100
AcDbLine
 10
3757.052959793192
 20
1573.599398549204
 30
0.0
 11
3782.052959793192
 21
1573.583655276635
 31
0.0
  0
LINE
  5
17370
330
18
100
AcDbEntity
  8
Insert
100
AcDbLine
 10
3782.052959793191
 20
1561.599272059141
 30
0.0
 11
3782.052959793192
 21
1573.583655276635
 31
0.0
  0
LINE
  5
17371
330
18
100
AcDbEntity
  8
Insert
100
AcDbLine
 10
3782.052959793192
 20
1573.594508451944
 30
0.0
 11
3781.832928733826
 21
1574.088446850044
 31
0.0
  0
CIRCLE
  5
17384
330
18
100
AcDbEntity
  8
Insert
100
AcDbCircle
 10
3412.407361945748
 20
1567.597363482704
 30
0.0
 40
8.0
  0
LINE
  5
17396
330
18
100
AcDbEntity
  8
Insert
  6
HIDDEN
100
AcDbLine
 10
3681.779133970998
 20
1562.097363482704
 30
0.0
 11
3693.398084009621
 21
1562.097363482705
 31
0.0
  0
LINE
  5
17397
330
18
100
AcDbEntity
  8
Insert
  6
HIDDEN
100
AcDbLine
 10
3681.779133970998
 20
1573.097363482704
 30
0.0
 11
3693.398084009621
 21
1573.097363482704
 31
0.0
  0
CIRCLE
  5
17398
330
18
100
AcDbEntity
  8
Insert
100
AcDbCircle
 10
3687.588608990309
 20
1567.597363482704
 30
0.0
 40
8.0
  0
CIRCLE
  5
17399
330
18
100
AcDbEntity
  8
Insert
  6
HIDDEN2
100
AcDbCircle
 10
2733.948419923555
 20
1557.604741329554
 30
0.0
 40
5.5
  0
CIRCLE
  5
1739A
330
18
100
AcDbEntity
  8
Insert
  6
HIDDEN2
100
AcDbCircle
 10
2458.767172878995
 20
1557.604741329554
 30
0.0
 40
5.5
  0
CIRCLE
  5
1739B
330
18
100
AcDbEntity
  8
Insert
100
AcDbCircle
 10
3412.407361945748
 20
1567.597363482704
 30
0.0
 40
5.5
  0
LINE
  5
1739C
330
18
100
AcDbEntity
  8
Construction
  6
CENTER
100
AcDbLine
 10
3736.588608990309
 20
1567.597363482704
 30
0.0
 11
3629.378700271987
 21
1567.597363482704
 31
0.0
  0
CIRCLE
  5
1739D
330
18
100
AcDbEntity
  8
Insert
100
AcDbCircle
 10
3687.588608990309
 20
1567.597363482704
 30
0.0
 40
5.5
  0
MTEXT
  5
1739E
330
18
100
AcDbEntity
  8
InsertDims
100
AcDbMText
 10
228.1267099597717
 20
786.699965043354
 30
0.0
 40
5.0
 41
228.6511412453456
 46
0.0
 71
     1
 72
     5
  1
{\fArial|b0|i0|c0|p34;QwikFoot Ferrule M20x120 \Pwith 15mm Crosshole\P\PProduct Ordering Codes:  \PZinc Plated Gold Passivated:  FF20120ZH}
 73
     1
 44
1.0
  0
LINE
  5
1739F
330
18
100
AcDbEntity
  8
Construction
  6
CENTER
100
AcDbLine
 10
276.9317217051794
 20
861.1874370045239
 30
0.0
 11
169.721812986857
 21
861.1874370045239
 31
0.0
  0
LINE
  5
173A0
330
18
100
AcDbEntity
  8
Construction
  6
CENTER
100
AcDbLine
 10
227.9317217051794
 20
885.6874370045238
 30
0.0
 11
227.9317217051794
 21
938.5107729634528
 31
0.0
  0
LINE
  5
173A1
330
18
100
AcDbEntity
  8
Construction
  6
CENTER
100
AcDbLine
 10
227.9317217051794
 20
814.4877392176759
 30
0.0
 11
227.9317217051794
 21
895.5859190363254
 31
0.0
  0
LINE
  5
173A2
330
18
100
AcDbEntity
  8
Insert
100
AcDbLine
 10
297.3960725080634
 20
876.1874370045239
 30
0.0
 11
408.4112449507618
 21
876.1874370045241
 31
0.0
  0
LINE
  5
173A3
330
18
100
AcDbEntity
  8
Insert
100
AcDbLine
 10
297.3960725080632
 20
846.1874370045237
 30
0.0
 11
408.4112449507618
 21
846.1874370045238
 31
0.0
  0
CIRCLE
  5
173A4
330
18
100
AcDbEntity
  8
Insert
100
AcDbCircle
 10
227.9317217051794
 20
861.1874370045239
 30
0.0
 40
10.0
  0
CIRCLE
  5
173A5
330
18
100
AcDbEntity
  8
Insert
100
AcDbCircle
 10
227.9317217051794
 20
861.1874370045239
 30
0.0
 40
24.5
  0
LINE
  5
173A6
330
18
100
AcDbEntity
  8
Insert
100
AcDbLine
 10
297.3960725080633
 20
876.1874370045239
 30
0.0
 11
297.3960725080633
 21
846.1874370045238
 31
0.0
  0
LINE
  5
173A7
330
18
100
AcDbEntity
  8
Insert
  6
HIDDEN
100
AcDbLine
 10
216.0839895073619
 20
853.7288016220427
 30
0.0
 11
239.779453902997
 21
853.7288016220429
 31
0.0
  0
LINE
  5
173A8
330
18
100
AcDbEntity
  8
Construction
  6
ACAD_ISO02W100
100
AcDbLine
 10
227.9317217051794
 20
861.1874370045239
 30
0.0
 11
276.9317217051794
 21
861.1874370045239
 31
0.0
  0
LINE
  5
173A9
330
18
100
AcDbEntity
  8
Insert
  6
HIDDEN
100
AcDbLine
 10
216.0839886751739
 20
868.6460710651088
 30
0.0
 11
239.7794547351847
 21
868.646071065109
 31
0.0
  0
INSERT
  5
173AA
330
18
100
AcDbEntity
  8
Insert
100
AcDbBlockReference
  2
A$C3FDE73E2
 10
322.3960725080633
 20
861.1874370045239
 30
0.0
  0
LINE
  5
173AB
330
18
100
AcDbEntity
  8
Insert
100
AcDbLine
 10
408.4112449507618
 20
876.1874370045241
 30
0.0
 11
408.4112449507621
 21
846.1874370045238
 31
0.0
  0
CIRCLE
  5
173AC
330
18
100
AcDbEntity
  8
Insert
100
AcDbCircle
 10
397.8960725080633
 20
861.1874370045239
 30
0.0
 40
7.5
  0
LINE
  5
173AD
330
18
100
AcDbEntity
  8
Construction
  6
CENTER
100
AcDbLine
 10
228.9317217051794
 20
947.2343430952133
 30
0.0
 11
393.3960725080633
 21
946.9843430952133
 31
0.0
  0
CIRCLE
  5
173AE
330
18
100
AcDbEntity
  8
Insert
100
AcDbCircle
 10
227.9317217051794
 20
947.2343430952133
 30
0.0
 40
25.0
  0
LINE
  5
173AF
330
18
100
AcDbEntity
  8
Insert
100
AcDbLine
 10
413.8960725080632
 20
972.2343430952133
 30
0.0
 11
408.4112449507618
 21
962.2343430952135
 31
0.0
  0
LINE
  5
173B0
330
18
100
AcDbEntity
  8
Insert
100
AcDbLine
 10
413.8960725080632
 20
947.4843430952132
 30
0.0
 11
413.8960725080632
 21
972.2343430952133
 31
0.0
  0
LINE
  5
173B1
330
18
100
AcDbEntity
  8
Insert
100
AcDbLine
 10
417.3960725080632
 20
947.4843430952132
 30
0.0
 11
417.3960725080632
 21
972.2343430952133
 31
0.0
  0
LINE
  5
173B2
330
18
100
AcDbEntity
  8
Insert
100
AcDbLine
 10
297.3960725080633
 20
937.2245142365327
 30
0.0
 11
347.3960725080633
 21
937.2183992657674
 31
0.0
  0
LINE
  5
173B3
330
18
100
AcDbEntity
  8
Insert
100
AcDbLine
 10
297.3960725080633
 20
957.2227664588938
 30
0.0
 11
347.3960725080633
 21
957.2182498192864
 31
0.0
  0
LINE
  5
173B4
330
18
100
AcDbEntity
  8
Insert
100
AcDbLine
 10
297.3960725080633
 20
932.2343430952132
 30
0.0
 11
384.4112449507621
 21
932.2343430952132
 31
0.0
  0
LINE
  5
173B5
330
18
100
AcDbEntity
  8
Insert
100
AcDbLine
 10
297.3960725080633
 20
962.2343430952133
 30
0.0
 11
408.4112449507618
 21
962.2343430952136
 31
0.0
  0
LINE
  5
173B6
330
18
100
AcDbEntity
  8
Insert
  6
HIDDEN
100
AcDbLine
 10
214.2800586153461
 20
944.1307814506371
 30
0.0
 11
231.0352833497551
 21
960.8860061850466
 31
0.0
  0
LINE
  5
173B7
330
18
100
AcDbEntity
  8
Insert
  6
HIDDEN
100
AcDbLine
 10
224.8281615837708
 20
933.5826796591041
 30
0.0
 11
241.5833851412886
 21
950.3379032166222
 31
0.0
  0
CIRCLE
  5
173B8
330
18
100
AcDbEntity
  8
Insert
100
AcDbCircle
 10
227.9317217051794
 20
947.2343430952133
 30
0.0
 40
10.0
  0
LINE
  5
173B9
330
18
100
AcDbEntity
  8
Insert
100
AcDbLine
 10
297.3960725080633
 20
962.2343430952133
 30
0.0
 11
297.3960725080633
 21
932.2343430952132
 31
0.0
  0
LINE
  5
173BA
330
18
100
AcDbEntity
  8
Insert
100
AcDbLine
 10
417.3960725080632
 20
946.9843430952133
 30
0.0
 11
417.3960725080632
 21
922.2343430952133
 31
0.0
  0
LINE
  5
173BB
330
18
100
AcDbEntity
  8
Insert
100
AcDbLine
 10
413.8960725080632
 20
946.9843430952133
 30
0.0
 11
413.8960725080632
 21
922.2343430952133
 31
0.0
  0
LINE
  5
173BC
330
18
100
AcDbEntity
  8
Insert
100
AcDbLine
 10
413.8960725080632
 20
922.2343430952133
 30
0.0
 11
408.4112449507618
 21
932.2343430952132
 31
0.0
  0
LINE
  5
173BD
330
18
100
AcDbEntity
  8
Insert
100
AcDbLine
 10
417.3960725080632
 20
922.2343430952133
 30
0.0
 11
413.8960725080632
 21
922.2343430952133
 31
0.0
  0
ELLIPSE
  5
173BE
330
18
100
AcDbEntity
  8
Insert
100
AcDbEllipse
 10
397.8960725080633
 20
957.133838031825
 30
0.0
 11
-7.5
 21
0.0
 31
0.0
210
0.0
220
0.0
230
1.0
 40
0.9061246420270588
 41
0.0
 42
3.141592653589793
  0
ELLIPSE
  5
173BF
330
18
100
AcDbEntity
  8
Insert
100
AcDbEllipse
 10
397.8960725080633
 20
957.133838031825
 30
0.0
 11
-7.5
 21
-0.0000000000001137
 31
0.0
210
0.0
220
0.0
230
1.0
 40
0.5002890870961969
 41
3.141592653589793
 42
6.283185307179586
  0
LINE
  5
173C0
330
18
100
AcDbEntity
  8
Insert
  6
HIDDEN
100
AcDbLine
 10
405.3960725080632
 20
957.1338380318252
 30
0.0
 11
405.3960725080631
 21
932.2343430952132
 31
0.0
  0
LINE
  5
173C1
330
18
100
AcDbEntity
  8
Insert
  6
HIDDEN
100
AcDbLine
 10
390.3960725080633
 20
957.133838031825
 30
0.0
 11
390.3960725080634
 21
932.2343430952132
 31
0.0
  0
LINE
  5
173C2
330
18
100
AcDbEntity
  8
Insert
100
AcDbLine
 10
408.4112449507618
 20
962.2343430952135
 30
0.0
 11
408.4112449507621
 21
932.2343430952132
 31
0.0
  0
LINE
  5
173C3
330
18
100
AcDbEntity
  8
Construction
  6
CENTER
100
AcDbLine
 10
227.9317217051794
 20
971.7343430952132
 30
0.0
 11
227.9317217051794
 21
1024.557679054142
 31
0.0
  0
LINE
  5
173C4
330
18
100
AcDbEntity
  8
Insert
100
AcDbLine
 10
417.3960725080632
 20
972.2343430952133
 30
0.0
 11
413.8960725080632
 21
972.2343430952133
 31
0.0
  0
LINE
  5
173C5
330
18
100
AcDbEntity
  8
InsertDims
100
AcDbLine
 10
347.3960725080633
 20
947.2343430952133
 30
0.0
 11
347.3960725080633
 21
962.2343430952135
 31
0.0
  0
LINE
  5
173C6
330
18
100
AcDbEntity
  8
Insert
100
AcDbLine
 10
347.3960725080633
 20
957.2182498192864
 30
0.0
 11
347.3960725080633
 21
937.2183992657674
 31
0.0
  0
CIRCLE
  5
173C7
330
18
100
AcDbEntity
  8
Insert
100
AcDbCircle
 10
227.9317217051794
 20
947.2343430952133
 30
0.0
 40
14.0
  0
CIRCLE
  5
173C8
330
18
100
AcDbEntity
  8
Insert
100
AcDbCircle
 10
227.9317217051794
 20
861.1874370045239
 30
0.0
 40
14.0
  0
LINE
  5
173CC
330
18
100
AcDbEntity
  8
Construction
  6
CENTER
100
AcDbLine
 10
542.0006060144888
 20
861.1874370045239
 30
0.0
 11
434.7906972961664
 21
861.1874370045239
 31
0.0
  0
LINE
  5
173CD
330
18
100
AcDbEntity
  8
Construction
  6
CENTER
100
AcDbLine
 10
493.0006060144887
 20
885.6874370045238
 30
0.0
 11
493.0006060144887
 21
938.5107729634528
 31
0.0
  0
LINE
  5
173CE
330
18
100
AcDbEntity
  8
Construction
  6
CENTER
100
AcDbLine
 10
493.0006060144887
 20
814.4877392176759
 30
0.0
 11
493.0006060144887
 21
895.5859190363254
 31
0.0
  0
LINE
  5
173CF
330
18
100
AcDbEntity
  8
Insert
100
AcDbLine
 10
562.4649568173727
 20
876.1874370045239
 30
0.0
 11
673.4801292600713
 21
876.1874370045241
 31
0.0
  0
LINE
  5
173D0
330
18
100
AcDbEntity
  8
Insert
100
AcDbLine
 10
562.4649568173725
 20
846.1874370045235
 30
0.0
 11
673.4801292600715
 21
846.1874370045238
 31
0.0
  0
CIRCLE
  5
173D1
330
18
100
AcDbEntity
  8
Insert
100
AcDbCircle
 10
493.0006060144887
 20
861.1874370045239
 30
0.0
 40
10.0
  0
CIRCLE
  5
173D2
330
18
100
AcDbEntity
  8
Insert
100
AcDbCircle
 10
493.0006060144887
 20
861.1874370045239
 30
0.0
 40
24.5
  0
LINE
  5
173D3
330
18
100
AcDbEntity
  8
Insert
100
AcDbLine
 10
562.4649568173727
 20
876.1874370045239
 30
0.0
 11
562.4649568173727
 21
846.1874370045238
 31
0.0
  0
LINE
  5
173D4
330
18
100
AcDbEntity
  8
Insert
  6
HIDDEN
100
AcDbLine
 10
481.1528738166713
 20
853.7288016220427
 30
0.0
 11
504.8483382123063
 21
853.7288016220429
 31
0.0
  0
LINE
  5
173D5
330
18
100
AcDbEntity
  8
Construction
  6
ACAD_ISO02W100
100
AcDbLine
 10
493.0006060144887
 20
861.1874370045239
 30
0.0
 11
542.0006060144888
 21
861.1874370045239
 31
0.0
  0
LINE
  5
173D6
330
18
100
AcDbEntity
  8
Insert
  6
HIDDEN
100
AcDbLine
 10
481.1528729844833
 20
868.6460710651088
 30
0.0
 11
504.8483390444941
 21
868.646071065109
 31
0.0
  0
INSERT
  5
173D7
330
18
100
AcDbEntity
  8
Insert
100
AcDbBlockReference
  2
A$C3FDE73E2
 10
587.4649568173727
 20
861.1874370045239
 30
0.0
  0
LINE
  5
173D8
330
18
100
AcDbEntity
  8
Insert
100
AcDbLine
 10
673.4801292600713
 20
876.1874370045241
 30
0.0
 11
673.4801292600715
 21
846.1874370045238
 31
0.0
  0
CIRCLE
  5
173D9
330
18
100
AcDbEntity
  8
Insert
100
AcDbCircle
 10
662.9649568173727
 20
861.1874370045239
 30
0.0
 40
7.5
  0
LINE
  5
173DA
330
18
100
AcDbEntity
  8
Construction
  6
CENTER
100
AcDbLine
 10
518.0006060144887
 20
947.2343430952133
 30
0.0
 11
682.4649568173726
 21
946.9843430952133
 31
0.0
  0
CIRCLE
  5
173DB
330
18
100
AcDbEntity
  8
Insert
100
AcDbCircle
 10
493.0006060144887
 20
947.2343430952133
 30
0.0
 40
25.0
  0
LINE
  5
173DC
330
18
100
AcDbEntity
  8
Insert
100
AcDbLine
 10
678.9649568173727
 20
972.2343430952133
 30
0.0
 11
673.4801292600713
 21
962.2343430952135
 31
0.0
  0
LINE
  5
173DD
330
18
100
AcDbEntity
  8
Insert
100
AcDbLine
 10
678.9649568173727
 20
947.4843430952132
 30
0.0
 11
678.9649568173727
 21
972.2343430952133
 31
0.0
  0
LINE
  5
173DE
330
18
100
AcDbEntity
  8
Insert
100
AcDbLine
 10
682.4649568173726
 20
947.4843430952132
 30
0.0
 11
682.4649568173726
 21
972.2343430952133
 31
0.0
  0
LINE
  5
173DF
330
18
100
AcDbEntity
  8
Insert
100
AcDbLine
 10
562.4649568173727
 20
937.2245142365327
 30
0.0
 11
612.4649568173727
 21
937.2183992657674
 31
0.0
  0
LINE
  5
173E0
330
18
100
AcDbEntity
  8
Insert
100
AcDbLine
 10
562.4649568173727
 20
957.2227664588938
 30
0.0
 11
612.4649568173727
 21
957.2182498192864
 31
0.0
  0
LINE
  5
173E1
330
18
100
AcDbEntity
  8
Insert
100
AcDbLine
 10
562.4649568173725
 20
932.234343095213
 30
0.0
 11
673.4801292600715
 21
932.2343430952132
 31
0.0
  0
LINE
  5
173E2
330
18
100
AcDbEntity
  8
Insert
100
AcDbLine
 10
562.4649568173727
 20
962.2343430952131
 30
0.0
 11
673.4801292600713
 21
962.2343430952135
 31
0.0
  0
LINE
  5
173E3
330
18
100
AcDbEntity
  8
Insert
  6
HIDDEN
100
AcDbLine
 10
479.3489429246554
 20
944.1307814506371
 30
0.0
 11
496.1041676590645
 21
960.8860061850466
 31
0.0
  0
LINE
  5
173E4
330
18
100
AcDbEntity
  8
Insert
  6
HIDDEN
100
AcDbLine
 10
489.8970458930802
 20
933.5826796591041
 30
0.0
 11
506.6522694505979
 21
950.3379032166222
 31
0.0
  0
CIRCLE
  5
173E5
330
18
100
AcDbEntity
  8
Insert
100
AcDbCircle
 10
493.0006060144887
 20
947.2343430952133
 30
0.0
 40
10.0
  0
LINE
  5
173E6
330
18
100
AcDbEntity
  8
Insert
100
AcDbLine
 10
562.4649568173727
 20
962.2343430952133
 30
0.0
 11
562.4649568173727
 21
932.2343430952132
 31
0.0
  0
LINE
  5
173E7
330
18
100
AcDbEntity
  8
Insert
100
AcDbLine
 10
682.4649568173726
 20
946.9843430952133
 30
0.0
 11
682.4649568173726
 21
922.2343430952133
 31
0.0
  0
LINE
  5
173E8
330
18
100
AcDbEntity
  8
Insert
100
AcDbLine
 10
678.9649568173727
 20
946.9843430952133
 30
0.0
 11
678.9649568173727
 21
922.2343430952133
 31
0.0
  0
LINE
  5
173E9
330
18
100
AcDbEntity
  8
Insert
100
AcDbLine
 10
678.9649568173727
 20
922.2343430952133
 30
0.0
 11
673.4801292600713
 21
932.2343430952132
 31
0.0
  0
LINE
  5
173EA
330
18
100
AcDbEntity
  8
Insert
100
AcDbLine
 10
682.4649568173726
 20
922.2343430952133
 30
0.0
 11
678.9649568173727
 21
922.2343430952133
 31
0.0
  0
ELLIPSE
  5
173EB
330
18
100
AcDbEntity
  8
Insert
100
AcDbEllipse
 10
662.9649568173727
 20
957.133838031825
 30
0.0
 11
-7.5
 21
0.0
 31
0.0
210
0.0
220
0.0
230
1.0
 40
0.9061246420270588
 41
0.0
 42
3.141592653589793
  0
ELLIPSE
  5
173EC
330
18
100
AcDbEntity
  8
Insert
100
AcDbEllipse
 10
662.9649568173727
 20
957.133838031825
 30
0.0
 11
-7.5
 21
-0.0000000000001137
 31
0.0
210
0.0
220
0.0
230
1.0
 40
0.5002890870961969
 41
3.141592653589793
 42
6.283185307179586
  0
LINE
  5
173ED
330
18
100
AcDbEntity
  8
Insert
  6
HIDDEN
100
AcDbLine
 10
670.4649568173727
 20
957.1338380318252
 30
0.0
 11
670.4649568173725
 21
932.2343430952132
 31
0.0
  0
LINE
  5
173EE
330
18
100
AcDbEntity
  8
Insert
  6
HIDDEN
100
AcDbLine
 10
655.4649568173727
 20
957.133838031825
 30
0.0
 11
655.4649568173727
 21
932.2343430952132
 31
0.0
  0
LINE
  5
173EF
330
18
100
AcDbEntity
  8
Insert
100
AcDbLine
 10
673.4801292600713
 20
962.2343430952135
 30
0.0
 11
673.4801292600715
 21
932.2343430952132
 31
0.0
  0
LINE
  5
173F0
330
18
100
AcDbEntity
  8
Construction
  6
CENTER
100
AcDbLine
 10
493.0006060144887
 20
971.7343430952132
 30
0.0
 11
493.0006060144887
 21
1024.557679054142
 31
0.0
  0
LINE
  5
173F1
330
18
100
AcDbEntity
  8
Insert
100
AcDbLine
 10
682.4649568173726
 20
972.2343430952133
 30
0.0
 11
678.9649568173727
 21
972.2343430952133
 31
0.0
  0
LINE
  5
173F2
330
18
100
AcDbEntity
  8
InsertDims
100
AcDbLine
 10
612.4649568173727
 20
947.2343430952133
 30
0.0
 11
612.4649568173727
 21
962.2343430952135
 31
0.0
  0
LINE
  5
173F3
330
18
100
AcDbEntity
  8
Insert
100
AcDbLine
 10
612.4649568173727
 20
957.2182498192864
 30
0.0
 11
612.4649568173727
 21
937.2183992657674
 31
0.0
  0
CIRCLE
  5
173F4
330
18
100
AcDbEntity
  8
Insert
100
AcDbCircle
 10
493.0006060144887
 20
947.2343430952133
 30
0.0
 40
14.0
  0
CIRCLE
  5
173F5
330
18
100
AcDbEntity
  8
Insert
100
AcDbCircle
 10
493.0006060144887
 20
861.1874370045239
 30
0.0
 40
14.0
  0
INSERT
  5
17444
330
18
100
AcDbEntity
  8
InsertDims
100
AcDbBlockReference
  2
ANcon Contact Detail
 10
2954.984564378422
 20
813.637622435807
 30
0.0
 41
0.1663886238274912
 42
0.1663886238274912
 43
16.63886238274911
  0
INSERT
  5
17445
330
18
100
AcDbEntity
  8
InsertDims
100
AcDbBlockReference
  2
ANcon Contact Detail
 10
2947.254360794349
 20
1119.898994963075
 30
0.0
 41
0.1663886238274912
 42
0.1663886238274912
 43
16.63886238274911
  0
INSERT
  5
17446
330
18
100
AcDbEntity
  8
InsertDims
100
AcDbBlockReference
  2
ANcon Contact Detail
 10
2945.310517959129
 20
1443.118898001596
 30
0.0
 41
0.1663886238274912
 42
0.1663886238274912
 43
16.63886238274911
  0
INSERT
  5
17447
330
18
100
AcDbEntity
  8
InsertDims
100
AcDbBlockReference
  2
ANcon Contact Detail
 10
3904.20724113006
 20
1438.275411491591
 30
0.0
 41
0.1663886238274912
 42
0.1663886238274912
 43
16.63886238274911
  0
INSERT
  5
17448
330
18
100
AcDbEntity
  8
InsertDims
100
AcDbBlockReference
  2
ANcon Contact Detail
 10
1933.905924866746
 20
1429.022229701292
 30
0.0
 41
0.1663886238274912
 42
0.1663886238274912
 43
16.63886238274911
  0
INSERT
  5
17449
330
18
100
AcDbEntity
  8
InsertDims
100
AcDbBlockReference
  2
ANcon Contact Detail
 10
1936.998002689547
 20
1121.163286691514
 30
0.0
 41
0.1663886238274912
 42
0.1663886238274912
 43
16.63886238274911
  0
INSERT
  5
1744B
330
18
100
AcDbEntity
  8
InsertDims
100
AcDbBlockReference
  2
ANcon Contact Detail
 10
712.9666938349077
 20
1425.327785394174
 30
0.0
 41
0.1663886238274912
 42
0.1663886238274912
 43
16.63886238274911
  0
INSERT
  5
1744C
330
18
100
AcDbEntity
  8
InsertDims
100
AcDbBlockReference
  2
ANcon Contact Detail
 10
712.9666938349077
 20
1108.36429828181
 30
0.0
 41
0.1663886238274912
 42
0.1663886238274912
 43
16.63886238274911
  0
INSERT
  5
1744D
330
18
100
AcDbEntity
  8
InsertDims
100
AcDbBlockReference
  2
ANcon Contact Detail
 10
712.6001014894759
 20
781.0545351947135
 30
0.0
 41
0.1663886238274912
 42
0.1663886238274912
 43
16.63886238274911
  0
INSERT
  5
1744E
330
18
100
AcDbEntity
  8
InsertDims
100
AcDbBlockReference
  2
ANcon Contact Detail
 10
-353.6281015950958
 20
1145.049529197484
 30
0.0
 41
0.1663886238274912
 42
0.1663886238274912
 43
16.63886238274911
  0
INSERT
  5
1744F
330
18
100
AcDbEntity
  8
InsertDims
100
AcDbBlockReference
  2
ANcon Contact Detail
 10
-356.1713034744457
 20
1425.070839457205
 30
0.0
 41
0.1663886238274912
 42
0.1663886238274912
 43
16.63886238274911
  0
MTEXT
  5
174AA
330
18
100
AcDbEntity
  8
InsertDims
100
AcDbMText
 10
493.564157584462
 20
1425.604353841488
 30
0.0
 40
5.0
 41
228.6511412453456
 46
0.0
 71
     1
 72
     5
  1
{\fArial|b0|i0|c0|p34;QwikFoot Ferrule M20x70 \Pwith 15mm Crosshole\P\PProduct Ordering Codes:  \PHot Dip Galvanised 50 micron:  FF2070G }
 73
     1
 44
1.0
  0
MTEXT
  5
174AD
330
18
100
AcDbEntity
  8
InsertDims
100
AcDbMText
 10
492.3899106058542
 20
1108.37901042181
 30
0.0
 40
5.0
 41
228.6511412453456
 46
0.0
 71
     1
 72
     5
  1
{\fArial|b0|i0|c0|p34;QwikFoot Ferrule M20x96 \Pwith 15mm Crosshole\P\PProduct Ordering Codes:  \PHot Dip Galvanised 50 micron:  FF2096G}
 73
     1
 44
1.0
  0
MTEXT
  5
174AE
330
18
100
AcDbEntity
  8
InsertDims
100
AcDbMText
 10
492.3899106058542
 20
786.699965043354
 30
0.0
 40
5.0
 41
228.6511412453456
 46
0.0
 71
     1
 72
     5
  1
{\fArial|b0|i0|c0|p34;QwikFoot Ferrule M20x120 \Pwith 15mm Crosshole\P\PProduct Ordering Codes:  \PHot Dip Galvanised 50 micron:  FF20120G}
 73
     1
 44
1.0
  0
LWPOLYLINE
  5
174AF
330
18
100
AcDbEntity
  8
Dimensions Table
100
AcDbPolyline
 90
        4
 70
     1
 43
0.0
 10
-690.7814611760332
 20
1657.97657925788
 10
-191.1730566242713
 20
1657.97657925788
 10
-191.1730566242713
 20
1380.120188932642
 10
-690.7814611760332
 20
1380.120188932642
  0
LWPOLYLINE
  5
174B0
330
18
100
AcDbEntity
  8
Dimensions Table
100
AcDbPolyline
 90
        4
 70
     1
 43
0.0
 10
-690.7814611760332
 20
1361.840163431516
 10
-191.1730566242713
 20
1361.840163431516
 10
-191.1730566242713
 20
1083.983773106278
 10
-690.7814611760332
 20
1083.983773106278
  0
LWPOLYLINE
  5
174B1
330
18
100
AcDbEntity
  8
Dimensions Table
100
AcDbPolyline
 90
        4
 70
     1
 43
0.0
 10
129.0759315238974
 20
1657.97657925788
 10
857.0558408314573
 20
1657.97657925788
 10
857.0558408314573
 20
1372.883621553039
 10
129.0759315238974
 20
1372.883621553039
  0
LWPOLYLINE
  5
174B2
330
18
100
AcDbEntity
  8
Dimensions Table
100
AcDbPolyline
 90
        4
 70
     1
 43
0.0
 10
129.0759315238974
 20
1346.77742570444
 10
857.0558408314573
 20
1346.77742570444
 10
857.0558408314573
 20
1061.684467999599
 10
129.0759315238974
 20
1061.684467999599
  0
LWPOLYLINE
  5
174B3
330
18
100
AcDbEntity
  8
Dimensions Table
100
AcDbPolyline
 90
        4
 70
     1
 43
0.0
 10
129.0759315238974
 20
1026.91620881692
 10
857.0558408314573
 20
1026.91620881692
 10
857.0558408314573
 20
710.5580450919896
 10
129.0759315238974
 20
710.5580450919896
  0
LWPOLYLINE
  5
174BA
330
18
100
AcDbEntity
  8
Dimensions Table
100
AcDbPolyline
 90
        4
 70
     1
 43
0.0
 10
1349.652912385478
 20
1657.97657925788
 10
2077.632821693038
 20
1657.97657925788
 10
2077.632821693038
 20
1372.883621553039
 10
1349.652912385478
 20
1372.883621553039
  0
LWPOLYLINE
  5
174BB
330
18
100
AcDbEntity
  8
Dimensions Table
100
AcDbPolyline
 90
        4
 70
     1
 43
0.0
 10
1349.652912385478
 20
1346.77742570444
 10
2077.632821693038
 20
1346.77742570444
 10
2077.632821693038
 20
1061.684467999599
 10
1349.652912385478
 20
1061.684467999599
  0
LWPOLYLINE
  5
174BC
330
18
100
AcDbEntity
  8
Dimensions Table
100
AcDbPolyline
 90
        4
 70
     1
 43
0.0
 10
2394.758949715404
 20
1657.97657925788
 10
3122.738859022964
 20
1657.97657925788
 10
3122.738859022964
 20
1372.883621553039
 10
2394.758949715404
 20
1372.883621553039
  0
LWPOLYLINE
  5
174BD
330
18
100
AcDbEntity
  8
Dimensions Table
100
AcDbPolyline
 90
        4
 70
     1
 43
0.0
 10
2394.758949715404
 20
1346.77742570444
 10
3122.738859022964
 20
1346.77742570444
 10
3122.738859022964
 20
1061.684467999599
 10
2394.758949715404
 20
1061.684467999599
  0
LWPOLYLINE
  5
174BE
330
18
100
AcDbEntity
  8
Dimensions Table
100
AcDbPolyline
 90
        4
 70
     1
 43
0.0
 10
3323.78126647018
 20
1657.97657925788
 10
4051.761175777739
 20
1657.97657925788
 10
4051.761175777739
 20
1372.883621553039
 10
3323.78126647018
 20
1372.883621553039
  0
LWPOLYLINE
  5
174BF
330
18
100
AcDbEntity
  8
Dimensions Table
100
AcDbPolyline
 90
        4
 70
     1
 43
0.0
 10
2394.758949715404
 20
1035.578272151
 10
3122.738859022964
 20
1035.578272151
 10
3122.738859022964
 20
750.4853144461594
 10
2394.758949715404
 20
750.4853144461594
  0
MTEXT
  5
174C0
330
18
100
AcDbEntity
  8
InsertDims
100
AcDbMText
 10
1417.600337039772
 20
1488.788587413624
 30
0.0
 40
5.0
 41
228.6511412453456
 46
0.0
 71
     1
 72
     5
  1
{\fArial|b0|i0|c0|p34;QwikFoot Ferrule M16x70 \Pwith 11mm Crosshole\P\PProduct Ordering Codes:  \PZinc Plated Gold Passivated:  FF1670ZH }
 73
     1
 44
1.0
  0
MTEXT
  5
174C1
330
18
100
AcDbEntity
  8
InsertDims
100
AcDbMText
 10
1715.348472726693
 20
1488.225966352989
 30
0.0
 40
5.0
 41
228.6511412453456
 46
0.0
 71
     1
 72
     5
  1
{\fArial|b0|i0|c0|p34;QwikFoot Ferrule M16x70 \Pwith 11mm Crosshole\P\PProduct Ordering Codes:  \PHot Dip Galvanised 50 micron:  FF1670G }
 73
     1
 44
1.0
  0
MTEXT
  5
174C2
330
18
100
AcDbEntity
  8
InsertDims
100
AcDbMText
 10
1417.600337039772
 20
1126.100254769185
 30
0.0
 40
5.0
 41
228.6511412453456
 46
0.0
 71
     1
 72
     5
  1
{\fArial|b0|i0|c0|p34;QwikFoot Ferrule M16x96 \Pwith 11mm Crosshole\P\PProduct Ordering Codes:  \PZinc Plated Gold Passivated:  FF1696ZH }
 73
     1
 44
1.0
  0
MTEXT
  5
174C3
330
18
100
AcDbEntity
  8
InsertDims
100
AcDbMText
 10
1769.804623500531
 20
1198.277619406348
 30
0.0
 40
5.0
 41
228.6511412453456
 46
0.0
 71
     1
 72
     5
  1
{\fArial|b0|i0|c0|p34;QwikFoot Ferrule M16x96\Pwith 11mm Crosshole\P\PProduct Ordering Codes:  \PHot Dip Galvanised 50 micron:  FF1696G }
 73
     1
 44
1.0
  0
MTEXT
  5
174C5
330
18
100
AcDbEntity
  8
InsertDims
100
AcDbMText
 10
2456.608526524382
 20
1498.828000833253
 30
0.0
 40
5.0
 41
228.6511412453456
 46
0.0
 71
     1
 72
     5
  1
{\fArial|b0|i0|c0|p34;QwikFoot Ferrule M12x50 \Pwith 35mm foot &11mm Crosshole\P\PProduct Ordering Codes:  \PZinc Plated Gold Passivated:  FF1250ZH }
 73
     1
 44
1.0
  0
MTEXT
  5
174C6
330
18
100
AcDbEntity
  8
InsertDims
100
AcDbMText
 10
2730.380290296436
 20
1500.692401876926
 30
0.0
 40
5.0
 41
228.6511412453456
 46
0.0
 71
     1
 72
     5
  1
{\fArial|b0|i0|c0|p34;QwikFoot Ferrule M12x50 \Pwith 35mm foot &11mm Crosshole\P\PProduct Ordering Codes:  \PHot Dip Galvanised 50 micron:  FF1250G }
 73
     1
 44
1.0
  0
MTEXT
  5
174C7
330
18
100
AcDbEntity
  8
InsertDims
100
AcDbMText
 10
2453.294093954515
 20
1201.706343688321
 30
0.0
 40
5.0
 41
228.6511412453456
 46
0.0
 71
     1
 72
     5
  1
{\fArial|b0|i0|c0|p34;QwikFoot Ferrule M12x70 \P11mm Crosshole\P\PProduct Ordering Codes:  \PZinc Plated Gold Passivated:  FF1270ZH }
 73
     1
 44
1.0
  0
MTEXT
  5
174C8
330
18
100
AcDbEntity
  8
InsertDims
100
AcDbMText
 10
2727.06585772657
 20
1203.570744731995
 30
0.0
 40
5.0
 41
228.6511412453456
 46
0.0
 71
     1
 72
     5
  1
{\fArial|b0|i0|c0|p34;QwikFoot Ferrule M12x70 \P11mm Crosshole\P\PProduct Ordering Codes:  \PHot Dip Galvanised 50 micron:  FF1270G }
 73
     1
 44
1.0
  0
MTEXT
  5
174C9
330
18
100
AcDbEntity
  8
InsertDims
100
AcDbMText
 10
2458.524458587606
 20
805.3542723471268
 30
0.0
 40
5.0
 41
228.6511412453456
 46
0.0
 71
     1
 72
     5
  1
{\fArial|b0|i0|c0|p34;QwikFoot Ferrule M12x96\P11mm Crosshole\P\PProduct Ordering Codes:  \PZinc Plated Gold Passivated:  FF1296ZH }
 73
     1
 44
1.0
  0
MTEXT
  5
174CA
330
18
100
AcDbEntity
  8
InsertDims
100
AcDbMText
 10
2732.296222359661
 20
807.2186733908006
 30
0.0
 40
5.0
 41
228.6511412453456
 46
0.0
 71
     1
 72
     5
  1
{\fArial|b0|i0|c0|p34;QwikFoot Ferrule M12x96\P11mm Crosshole\P\PProduct Ordering Codes:  \PHot Dip Galvanised 50 micron:  FF1296G }
 73
     1
 44
1.0
  0
MTEXT
  5
174CB
330
18
100
AcDbEntity
  8
InsertDims
100
AcDbMText
 10
3410.78157359407
 20
1505.372386154035
 30
0.0
 40
5.0
 41
228.6511412453456
 46
0.0
 71
     1
 72
     5
  1
{\fArial|b0|i0|c0|p34;QwikFoot Ferrule M10x50 \Pwith 35mm foot &11mm Crosshole\P\PProduct Ordering Codes:  \PZinc Plated Gold Passivated:  FF1050ZH }
 73
     1
 44
1.0
  0
MTEXT
  5
174CC
330
18
100
AcDbEntity
  8
InsertDims
100
AcDbMText
 10
3684.553337366124
 20
1507.236787197709
 30
0.0
 40
5.0
 41
228.6511412453456
 46
0.0
 71
     1
 72
     5
  1
{\fArial|b0|i0|c0|p34;QwikFoot Ferrule M10x50 \Pwith 35mm foot &11mm Crosshole\P\PProduct Ordering Codes:  \PHot Dip Galvanised 50 micron:  FF1050G }
 73
     1
 44
1.0
  0
VIEWPORT
  5
17421
102
{ACAD_XDICTIONARY
360
17422
102
}
330
1741A
100
AcDbEntity
 67
     1
  8
0
100
AcDbViewport
 10
181.3825095593122
 20
134.6575232899485
 30
0.0
 40
1082.88364310834
 41
473.2686057289313
 68
     2
 69
     1
 12
181.3825095593122
 22
134.6575232899485
 13
0.0
 23
0.0
 14
10.0
 24
10.0
 15
10.0
 25
10.0
 16
0.0
 26
0.0
 36
1.0
 17
0.0
 27
0.0
 37
0.0
 42
50.0
 43
0.0
 44
0.0
 45
473.2686057289313
 50
0.0
 51
0.0
 72
   100
 90
   557088
  1

281
     0
 71
     1
 74
     0
110
0.0
120
0.0
130
0.0
111
1.0
121
0.0
131
0.0
112
0.0
122
1.0
132
0.0
 79
     0
146
0.0
170
     0
 61
     5
348
15818
292
     1
282
     1
141
0.0
142
0.0
 63
   250
421
  3355443
  0
VIEWPORT
  5
17425
102
{ACAD_XDICTIONARY
360
17426
102
}
330
1741A
100
AcDbEntity
 67
     1
  8
InsertDims
100
AcDbViewport
 10
212.7250152826309
 20
136.5250030755996
 30
0.0
 40
340.3600244522095
 41
218.4400049209595
 68
     1
 69
     2
 12
1617.50942280534
 22
918.700091478183
 13
0.0
 23
0.0
 14
10.0
 24
10.0
 15
10.0
 25
10.0
 16
0.0
 26
0.0
 36
1.0
 17
0.0
 27
0.0
 37
0.0
 42
50.0
 43
0.0
 44
0.0
 45
2913.241422993581
 50
0.0
 51
0.0
 72
   100
 90
   819232
  1

281
     0
 71
     1
 74
     0
110
0.0
120
0.0
130
0.0
111
1.0
121
0.0
131
0.0
112
0.0
122
1.0
132
0.0
 79
     0
146
0.0
170
     0
 61
     5
348
15818
292
     1
282
     1
141
0.0
142
0.0
 63
   250
421
  3355443
  0
ENDSEC
  0
SECTION
  2
OBJECTS
  0
DICTIONARY
  5
C
330
0
100
AcDbDictionary
281
     1
  3
ACAD_CIP_PREVIOUS_PRODUCT_INFO
350
169C5
  3
ACAD_COLOR
350
D64E
  3
ACAD_DETAILVIEWSTYLE
350
169B7
  3
ACAD_GROUP
350
D
  3
ACAD_LAYOUT
350
26A7
  3
ACAD_MATERIAL
350
D64D
  3
ACAD_MLEADERSTYLE
350
169B3
  3
ACAD_MLINESTYLE
350
1B
  3
ACAD_PLOTSETTINGS
350
26A8
  3
ACAD_PLOTSTYLENAME
350
26A5
  3
ACAD_SCALELIST
350
169A1
  3
ACAD_SECTIONVIEWSTYLE
350
169B5
  3
ACAD_TABLESTYLE
350
15823
  3
ACAD_VISUALSTYLE
350
15812
  3
ACDB_RECOMPOSE_DATA
350
174CF
  3
ACDBVARIABLEDICTIONARY
350
1633
  3
ASE_INDEX_DICTIONARY
350
D4ED
  0
DICTIONARY
  5
12626
330
2
100
AcDbDictionary
280
     1
281
     1
  3
ACAD_LAYERFILTERS
360
16289
  3
ACAD_LAYERSTATES
360
12627
  3
ACLYDICTIONARY
360
16288
  0
DICTIONARY
  5
17458
330
E
100
AcDbDictionary
280
     1
281
     1
  3
ADSK_XREC_LAYER_RECONCILED
360
17459
  0
DICTIONARY
  5
1745A
330
1600
100
AcDbDictionary
280
     1
281
     1
  3
ADSK_XREC_LAYER_RECONCILED
360
1745B
  0
DICTIONARY
  5
1745C
330
2D49
100
AcDbDictionary
280
     1
281
     1
  3
ADSK_XREC_LAYER_RECONCILED
360
1745D
  0
DICTIONARY
  5
1745E
330
2D4A
100
AcDbDictionary
280
     1
281
     1
  3
ADSK_XREC_LAYER_RECONCILED
360
1745F
  0
DICTIONARY
  5
17460
330
2D4B
100
AcDbDictionary
280
     1
281
     1
  3
ADSK_XREC_LAYER_RECONCILED
360
17461
  0
DICTIONARY
  5
17462
330
D7C2
100
AcDbDictionary
280
     1
281
     1
  3
ADSK_XREC_LAYER_RECONCILED
360
17463
  0
DICTIONARY
  5
17464
330
D7C3
100
AcDbDictionary
280
     1
281
     1
  3
ADSK_XREC_LAYER_RECONCILED
360
17465
  0
DICTIONARY
  5
17466
330
D806
100
AcDbDictionary
280
     1
281
     1
  3
ADSK_XREC_LAYER_RECONCILED
360
17467
  0
DICTIONARY
  5
17468
330
13B64
100
AcDbDictionary
280
     1
281
     1
  3
ADSK_XREC_LAYER_RECONCILED
360
17469
  0
DICTIONARY
  5
1746A
330
13B65
100
AcDbDictionary
280
     1
281
     1
  3
ADSK_XREC_LAYER_RECONCILED
360
1746B
  0
DICTIONARY
  5
1746C
330
13B9C
100
AcDbDictionary
280
     1
281
     1
  3
ADSK_XREC_LAYER_RECONCILED
360
1746D
  0
DICTIONARY
  5
1746E
330
13C06
100
AcDbDictionary
280
     1
281
     1
  3
ADSK_XREC_LAYER_RECONCILED
360
1746F
  0
DICTIONARY
  5
17470
330
13EED
100
AcDbDictionary
280
     1
281
     1
  3
ADSK_XREC_LAYER_RECONCILED
360
17471
  0
DICTIONARY
  5
16089
330
16088
100
AcDbDictionary
280
     1
281
     1
  3
ADSK_XREC_LAYER_RECONCILED
360
1608A
  0
DICTIONARY
  5
17441
330
17440
100
AcDbDictionary
280
     1
281
     1
  3
ADSK_XREC_LAYER_RECONCILED
360
17442
  0
DICTIONARY
  5
16BD7
330
18
100
AcDbDictionary
280
     1
281
     1
  3
ACAD_SORTENTS
360
16BD8
  0
DICTIONARY
  5
1749C
330
1743D
100
AcDbDictionary
280
     1
281
     1
  0
DICTIONARY
  5
17422
330
17421
100
AcDbDictionary
280
     1
281
     1
  3
ASDK_XREC_ANNOTATION_SCALE_INFO
360
17423
  0
DICTIONARY
  5
17426
330
17425
100
AcDbDictionary
280
     1
281
     1
  3
ASDK_XREC_ANNOTATION_SCALE_INFO
360
17427
  0
XRECORD
  5
169C5
102
{ACAD_REACTORS
330
C
102
}
330
C
100
AcDbXrecord
280
     1
300
ACDLT
300
2020
300

  0
DICTIONARY
  5
D64E
102
{ACAD_REACTORS
330
C
102
}
330
C
100
AcDbDictionary
281
     1
  0
DICTIONARY
  5
169B7
102
{ACAD_REACTORS
330
C
102
}
330
C
100
AcDbDictionary
281
     1
  3
Metric50
350
169B8
  0
DICTIONARY
  5
D
102
{ACAD_REACTORS
330
C
102
}
330
C
100
AcDbDictionary
281
     1
  0
DICTIONARY
  5
26A7
102
{ACAD_REACTORS
330
C
102
}
330
C
100
AcDbDictionary
281
     1
  3
Layout1
350
1741B
  3
Model
350
26A9
  0
DICTIONARY
  5
D64D
102
{ACAD_REACTORS
330
C
102
}
330
C
100
AcDbDictionary
281
     1
  3
ByBlock
350
15811
  3
ByLayer
350
15810
  3
Global
350
12623
  0
DICTIONARY
  5
169B3
102
{ACAD_REACTORS
330
C
102
}
330
C
100
AcDbDictionary
281
     1
  3
Standard
350
169B4
  0
DICTIONARY
  5
1B
102
{ACAD_REACTORS
330
C
102
}
330
C
100
AcDbDictionary
281
     1
  3
STANDARD
350
1C
  0
DICTIONARY
  5
26A8
102
{ACAD_REACTORS
330
C
102
}
330
C
100
AcDbDictionary
281
     1
  0
ACDBDICTIONARYWDFLT
  5
26A5
102
{ACAD_REACTORS
330
C
102
}
330
C
100
AcDbDictionary
281
     1
  3
Normal
350
26A6
100
AcDbDictionaryWithDefault
340
26A6
  0
DICTIONARY
  5
169A1
102
{ACAD_REACTORS
330
C
102
}
330
C
100
AcDbDictionary
281
     1
  3
A0
350
169A2
  3
A1
350
169A3
  3
A2
350
169A4
  3
A3
350
169A5
  3
A4
350
169A6
  3
A5
350
169A7
  3
A6
350
169A8
  3
A7
350
169A9
  3
A8
350
169AA
  3
A9
350
169AB
  3
B0
350
169AC
  3
B1
350
169AD
  3
B2
350
169AE
  3
B3
350
169AF
  3
B4
350
169B0
  3
B5
350
169B1
  3
B6
350
169B2
  0
DICTIONARY
  5
169B5
102
{ACAD_REACTORS
330
C
102
}
330
C
100
AcDbDictionary
281
     1
  3
Metric50
350
169B6
  0
DICTIONARY
  5
15823
102
{ACAD_REACTORS
330
C
102
}
330
C
100
AcDbDictionary
281
     1
  3
Standard
350
15824
  0
DICTIONARY
  5
15812
102
{ACAD_REACTORS
330
C
102
}
330
C
100
AcDbDictionary
281
     1
  3
2dWireframe
350
15818
  3
3D Hidden
350
1581A
  3
3dWireframe
350
15819
  3
Basic
350
15817
  3
Brighten
350
1581E
  3
ColorChange
350
15822
  3
Conceptual
350
1581B
  3
Dim
350
1581D
  3
EdgeColorOff
350
169A0
  3
Facepattern
350
15821
  3
Flat
350
15813
  3
FlatWithEdges
350
15814
  3
Gouraud
350
15815
  3
GouraudWithEdges
350
15816
  3
Hidden
350
16998
  3
JitterOff
350
1699E
  3
Linepattern
350
15820
  3
OverhangOff
350
1699F
  3
Realistic
350
1581C
  3
Shaded
350
1699D
  3
Shaded with edges
350
1699C
  3
Shades of Gray
350
16999
  3
Sketchy
350
1699A
  3
Thicken
350
1581F
  3
Wireframe
350
16997
  3
X-Ray
350
1699B
  0
XRECORD
  5
174CF
102
{ACAD_REACTORS
330
C
102
}
330
C
100
AcDbXrecord
280
     1
 90
        1
330
15824
  0
DICTIONARY
  5
1633
102
{ACAD_REACTORS
330
C
102
}
330
C
100
AcDbDictionary
281
     1
  3
CANNOSCALE
350
17476
  3
CMLEADERSTYLE
350
17472
  3
CTABLESTYLE
350
15FDD
  3
CVIEWDETAILSTYLE
350
17473
  3
CVIEWSECTIONSTYLE
350
17474
  3
DIMASSOC
350
B5DA
  3
LAYEREVAL
350
17478
  3
LAYERNOTIFY
350
17479
  3
LIGHTINGUNITS
350
17477
  3
MSLTSCALE
350
17475
  3
SORTENTS
350
1634
  0
DICTIONARY
  5
D4ED
102
{ACAD_REACTORS
330
C
102
}
330
C
100
AcDbDictionary
281
     1
  3
ASEBlockHierarchyIndexRecord
350
D4EF
1001
DCO15
1040
1553252747.725
  0
DICTIONARY
  5
16289
102
{ACAD_REACTORS
330
12626
102
}
330
12626
100
AcDbDictionary
281
     1
  0
DICTIONARY
  5
12627
102
{ACAD_REACTORS
330
12626
102
}
330
12626
100
AcDbDictionary
281
     1
  0
DICTIONARY
  5
16288
102
{ACAD_REACTORS
330
12626
102
}
330
12626
100
AcDbDictionary
281
     1
1001
ACAD
1000
<All
  0
XRECORD
  5
17459
102
{ACAD_REACTORS
330
17458
102
}
330
17458
100
AcDbXrecord
280
     1
290
     1
  0
XRECORD
  5
1745B
102
{ACAD_REACTORS
330
1745A
102
}
330
1745A
100
AcDbXrecord
280
     1
290
     1
  0
XRECORD
  5
1745D
102
{ACAD_REACTORS
330
1745C
102
}
330
1745C
100
AcDbXrecord
280
     1
290
     1
  0
XRECORD
  5
1745F
102
{ACAD_REACTORS
330
1745E
102
}
330
1745E
100
AcDbXrecord
280
     1
290
     1
  0
XRECORD
  5
17461
102
{ACAD_REACTORS
330
17460
102
}
330
17460
100
AcDbXrecord
280
     1
290
     1
  0
XRECORD
  5
17463
102
{ACAD_REACTORS
330
17462
102
}
330
17462
100
AcDbXrecord
280
     1
290
     1
  0
XRECORD
  5
17465
102
{ACAD_REACTORS
330
17464
102
}
330
17464
100
AcDbXrecord
280
     1
290
     1
  0
XRECORD
  5
17467
102
{ACAD_REACTORS
330
17466
102
}
330
17466
100
AcDbXrecord
280
     1
290
     1
  0
XRECORD
  5
17469
102
{ACAD_REACTORS
330
17468
102
}
330
17468
100
AcDbXrecord
280
     1
290
     1
  0
XRECORD
  5
1746B
102
{ACAD_REACTORS
330
1746A
102
}
330
1746A
100
AcDbXrecord
280
     1
290
     1
  0
XRECORD
  5
1746D
102
{ACAD_REACTORS
330
1746C
102
}
330
1746C
100
AcDbXrecord
280
     1
290
     1
  0
XRECORD
  5
1746F
102
{ACAD_REACTORS
330
1746E
102
}
330
1746E
100
AcDbXrecord
280
     1
290
     1
  0
XRECORD
  5
17471
102
{ACAD_REACTORS
330
17470
102
}
330
17470
100
AcDbXrecord
280
     1
290
     1
  0
XRECORD
  5
1608A
102
{ACAD_REACTORS
330
16089
102
}
330
16089
100
AcDbXrecord
280
     1
290
     1
  0
XRECORD
  5
17442
102
{ACAD_REACTORS
330
17441
102
}
330
17441
100
AcDbXrecord
280
     1
290
     1
  0
SORTENTSTABLE
  5
16BD8
102
{ACAD_REACTORS
330
16BD7
102
}
330
16BD7
100
AcDbSortentsTable
330
18
331
EF68
  5
EF77
331
EF74
  5
EF79
331
EF75
  5
EF7A
331
EF76
  5
EF7D
331
EF77
  5
EF7E
331
EF79
  5
EF82
331
EF7A
  5
EF83
331
EF7D
  5
EF84
331
EF7E
  5
EF85
331
EF83
  5
EF88
331
EF84
  5
EF89
331
EF85
  5
EF8A
331
EF87
  5
EF8C
331
EF88
  5
EF8D
331
EF8A
  5
EF91
331
EF8B
  5
EF95
331
EF8C
  5
EFA3
331
EF8E
  5
EFA5
331
EF91
  5
EFA9
331
EF95
  5
EFAA
331
FB3F
  5
FB51
331
FB40
  5
FB52
331
FB44
  5
FB53
331
FB48
  5
FB55
331
FB51
  5
FB5D
331
FB52
  5
FB5F
331
FB53
  5
FB60
331
FB55
  5
FB61
331
FB56
  5
FB6A
331
FB5D
  5
FB6B
331
FB5F
  5
FB73
331
FB60
  5
FB74
331
FB61
  5
FB75
331
FB6A
  5
FB7A
331
FB84
  5
FB8F
331
FB85
  5
FB90
331
FB87
  5
FB95
331
FB8D
  5
FE9C
331
FB8F
  5
FEA4
331
FB90
  5
FEA5
331
FB95
  5
FEAC
331
FE95
  5
FEAD
331
FE9C
  5
FEB7
331
FEA4
  5
FEB8
331
FEA5
  5
FEB9
331
FEAC
  5
FEC5
331
FEAD
  5
FF81
331
FEB7
  5
FF87
331
FEB8
  5
FF8C
331
FEB9
  5
FF8D
331
FF81
  5
FF90
331
FF87
  5
FF91
331
FF8D
  5
FF93
331
FF8E
  5
FF94
331
FF90
  5
FF95
331
FF91
  5
FF96
331
FF92
  5
FF9A
331
FF95
  5
FFA0
331
FF96
  5
FFA1
331
FF9A
  5
FFA2
331
FFA0
  5
100D6
331
FFA1
  5
100D7
331
FFA2
  5
100D9
331
FFA3
  5
100DA
331
100DB
  5
100E1
331
100DC
  5
100E2
331
100DD
  5
100E3
331
100DF
  5
100E5
331
100E0
  5
100E6
331
100E2
  5
100EC
331
100E3
  5
10238
331
100E5
  5
10239
331
100E6
  5
1023A
331
100EB
  5
1023B
331
100EC
  5
1023C
331
10238
  5
1023D
331
1023B
  5
10870
331
1023C
  5
10884
331
10A7C
  5
10AD8
331
10A7D
  5
10AE7
331
10A7F
  5
10BC0
331
10A80
  5
10C01
331
10A9D
  5
10C27
331
10CF2
  5
10CF7
331
10CF5
  5
10D50
331
10CF6
  5
10D51
331
10E0A
  5
10E0F
331
10E0C
  5
10E11
331
10E0F
  5
10ED3
331
10ED2
  5
10ED7
331
10ED4
  5
10ED9
331
10ED7
  5
11B56
331
10ED8
  5
124A1
331
10ED9
  5
124CA
331
12B6E
  5
12B7D
331
12B7B
  5
12B82
331
12B7E
  5
12B85
331
12B82
  5
12B87
331
12B83
  5
12B89
331
12B84
  5
12B8C
331
12B85
  5
12B8D
331
12B86
  5
12B90
331
12B87
  5
12B96
331
12B89
  5
12B97
331
12B90
  5
12B9A
331
12B98
  5
12B9F
331
12B99
  5
12BA0
331
12B9A
  5
12BA1
331
12B9B
  5
12BA2
331
12B9D
  5
12BA3
331
12B9F
  5
12BA4
331
12BA0
  5
12BA5
331
12BA1
  5
12BA6
331
12BA2
  5
12BA7
331
12BA3
  5
12BA8
331
12BA4
  5
12BA9
331
12BAA
  5
12BB0
331
12BAC
  5
12BB1
331
12BAD
  5
12BB2
331
12BAE
  5
12BB3
331
12BAF
  5
12BB4
331
12BB0
  5
12BB5
331
12BB1
  5
12BB6
331
12BB2
  5
12BB7
331
12BB3
  5
12BB8
331
12BB4
  5
13031
331
12BB5
  5
1303E
331
12BB6
  5
130CE
331
12BB7
  5
130D0
331
12BB8
  5
130D1
331
130CE
  5
130D4
331
130D0
  5
130D5
331
130D1
  5
130D6
331
130D2
  5
130D7
331
130D3
  5
130DC
331
130D4
  5
130E0
331
130D5
  5
130E2
331
130D6
  5
1322B
331
130D7
  5
1322C
331
130DC
  5
1322D
331
130E0
  5
1322E
331
130E2
  5
13230
331
1322B
  5
13231
331
1322D
  5
13233
331
1322E
  5
13234
331
13230
  5
13235
331
13233
  5
13238
331
13235
  5
1323F
331
13236
  5
13241
331
13237
  5
13243
331
1323F
  5
13246
331
13244
  5
13249
331
13245
  5
1324A
331
13247
  5
1324C
331
13248
  5
1324D
331
13249
  5
1324E
331
1324A
  5
1324F
331
1324B
  5
13251
331
13251
  5
13256
331
13252
  5
13258
331
13253
  5
13259
331
13254
  5
1325A
331
13255
  5
1325B
331
13258
  5
1325F
331
1325A
  5
13261
331
1325E
  5
13263
331
1325F
  5
13264
331
13260
  5
13265
331
13263
  5
13268
331
13266
  5
1339C
331
13267
  5
1339D
331
13268
  5
133A4
331
1326B
  5
133A5
331
13392
  5
133A6
331
1339C
  5
133E3
331
1339D
  5
13404
331
133A4
  5
13405
331
133A5
  5
13406
331
13404
  5
1340E
331
13405
  5
1340F
331
13406
  5
13410
331
13407
  5
13411
331
13409
  5
13412
331
1340E
  5
13418
331
1340F
  5
13419
331
13410
  5
13468
331
13411
  5
1348E
331
13412
  5
137B7
331
13418
  5
137B8
331
13419
  5
137B9
331
13468
  5
137BA
331
143B7
  5
14A01
331
143BD
  5
14A03
331
14966
  5
14A04
331
149C7
  5
14A06
331
149DD
  5
14A07
331
149E0
  5
14A0A
331
149E4
  5
14A0B
331
149E5
  5
14A0C
331
149E6
  5
14A0D
331
149E8
  5
14A0E
331
149EA
  5
14A11
331
149EB
  5
14A12
331
149EC
  5
14A13
331
149ED
  5
14A14
331
149EE
  5
14A15
331
149EF
  5
14A16
331
149F1
  5
14A19
331
149FE
  5
14A1A
331
14A03
  5
14A1F
331
14A04
  5
14A20
331
14A05
  5
14A22
331
14A06
  5
14B24
331
14A07
  5
14B25
331
14A0A
  5
14B26
331
14A0B
  5
14B27
331
14A0C
  5
14B28
331
14A0D
  5
14B2A
331
14A0E
  5
14B2D
331
14A11
  5
14B2E
331
14A12
  5
14B2F
331
14A13
  5
14B30
331
14A14
  5
14B31
331
14A15
  5
14B32
331
14A16
  5
14B38
331
14A19
  5
14B39
331
14A1A
  5
14B3A
331
14A1D
  5
14B3B
331
14A1E
  5
14B3D
331
14A1F
  5
14B3E
331
14A20
  5
14B40
331
14A22
  5
14B42
331
14B28
  5
14B48
331
14B29
  5
14B49
331
14B2A
  5
14B4A
331
14B2B
  5
14B4B
331
14B2C
  5
14B4D
331
14B2D
  5
14B4E
331
14B30
  5
14B51
331
14B31
  5
14B55
331
14B32
  5
14B56
331
14B39
  5
14B59
331
14B3B
  5
14B5B
331
14B3D
  5
14B60
331
14B3E
  5
14B65
331
14B3F
  5
14B69
331
14B40
  5
14B6A
331
14B41
  5
14B6B
331
14B42
  5
14B6C
331
14B48
  5
14B6D
331
14B49
  5
14B6E
331
14B4A
  5
14B6F
331
14B4C
  5
14B72
331
14B50
  5
14B74
331
14B51
  5
1514D
331
14B52
  5
15239
331
14B53
  5
15246
331
14B55
  5
15247
331
14B5B
  5
15248
331
14B5C
  5
1524A
331
14B60
  5
153CF
331
14B65
  5
153D1
331
14B66
  5
153D2
331
14B67
  5
153D3
331
14B68
  5
153D4
331
14B69
  5
153D5
331
14B6A
  5
153D6
331
14B6D
  5
153D7
331
14B6F
  5
153D8
331
14B70
  5
153D9
331
14B71
  5
153DA
331
14B72
  5
153EC
331
14B73
  5
153ED
331
14B74
  5
153EE
331
153C0
  5
153F0
331
153CD
  5
153FA
331
153CF
  5
153FB
331
153D0
  5
153FE
331
153D1
  5
15401
331
153D2
  5
15402
331
153D3
  5
15605
331
153D4
  5
156AA
331
153D5
  5
156FD
331
153D6
  5
156FE
331
153D7
  5
15732
331
153D8
  5
15B4D
331
153ED
  5
15B52
331
153F1
  5
15B54
331
153F2
  5
15B55
331
153F5
  5
15B56
331
153F8
  5
15B57
331
153F9
  5
15B58
331
153FA
  5
15B59
331
153FD
  5
15B5A
331
153FE
  5
15B5B
331
153FF
  5
15B5C
331
15401
  5
15B5D
331
15402
  5
15B5E
331
156FD
  5
15B64
331
156FE
  5
15B65
331
16A4B
  5
16A8B
331
16A4C
  5
16A8C
331
16A6D
  5
16A8D
331
16A76
  5
16A8E
331
16A77
  5
16A8F
331
16A79
  5
16A91
331
16A7A
  5
16A92
331
16A7B
  5
16A93
331
16A7C
  5
16A94
331
16A7D
  5
16A95
331
16A7E
  5
16A96
331
16A7F
  5
16A97
331
16A80
  5
16A98
331
16A81
  5
16A99
331
16A82
  5
16A9A
331
16A83
  5
16A9B
331
16A84
  5
16A9C
331
16A85
  5
16A9D
331
16A86
  5
16AF3
331
16A87
  5
16AF4
331
16A88
  5
16AF5
331
16A89
  5
16AF6
331
16A8A
  5
16AF7
331
16A8B
  5
16AF9
331
16A8C
  5
16AFA
331
16A8D
  5
16AFB
331
16A90
  5
16AFF
331
16A91
  5
16B00
331
16A92
  5
16B01
331
16A93
  5
16B02
331
16A94
  5
16B03
331
16A95
  5
16B04
331
16A96
  5
16B05
331
16A97
  5
16B06
331
16A98
  5
16B07
331
16A99
  5
16B08
331
16A9A
  5
16B09
331
16A9B
  5
16B0A
331
16A9C
  5
16B0B
331
16A9D
  5
16B0C
331
16AF5
  5
16B11
331
16AF6
  5
16B12
331
16AF7
  5
16B13
331
16AF8
  5
16B14
331
16AF9
  5
16B15
331
16AFA
  5
16B16
331
16AFB
  5
16B17
331
16AFC
  5
16B18
331
16AFD
  5
16B19
331
16AFE
  5
16B1A
331
16AFF
  5
16B1B
331
16B00
  5
16B1C
331
16B01
  5
16B1D
331
16B02
  5
16B1E
331
16B03
  5
16B1F
331
16B06
  5
16B22
331
16B07
  5
16B23
331
16B08
  5
16B24
331
16B09
  5
16B25
331
16B0A
  5
16B26
331
16B0B
  5
16B27
331
16B0C
  5
16B28
331
16B0D
  5
16B29
331
16B0E
  5
16B2B
331
16B0F
  5
16B2C
331
16B10
  5
16B2D
331
16B11
  5
16B2F
331
16B12
  5
16B30
331
16B13
  5
16B31
331
16B14
  5
16B32
331
16B15
  5
16B33
331
16B16
  5
16B34
331
16B17
  5
16B35
331
16B18
  5
16B36
331
16B19
  5
16B37
331
16B1A
  5
16B38
331
16B1B
  5
16B39
331
16B1C
  5
16B3A
331
16B1D
  5
16B3B
331
16B1E
  5
16B3C
331
16B1F
  5
16B3D
331
16B20
  5
16B3E
331
16B23
  5
16B43
331
16B24
  5
16B44
331
16B25
  5
16B45
331
16B26
  5
16B46
331
16B27
  5
16B47
331
16B28
  5
16BD2
331
16B29
  5
16BD3
331
16B2A
  5
16BD4
331
16B2B
  5
16BD5
331
16B2C
  5
16BD6
331
16B2D
  5
16BD9
331
16B2E
  5
16BDA
331
16B2F
  5
16BDB
331
16B30
  5
16BDC
331
16B31
  5
16BDD
331
16B32
  5
16BDE
331
16B33
  5
16BDF
331
16B34
  5
16BE0
331
16B35
  5
16BE1
331
16B36
  5
16BE2
331
16B37
  5
16BE4
331
16B3A
  5
16BE7
331
16B3B
  5
16C67
331
16B3C
  5
16C68
331
16B3D
  5
16E20
331
16B3E
  5
16F26
331
16B3F
  5
16F27
331
16B40
  5
16F28
331
16B41
  5
16F29
331
16B42
  5
16F2B
331
16B43
  5
16F2C
331
16B44
  5
16F2D
331
16B45
  5
16F2E
331
16B46
  5
16F2F
331
16B47
  5
16F30
331
16F26
  5
16F36
331
16F2D
  5
16F3C
331
16F2E
  5
16F3D
331
16F2F
  5
16F3E
331
16F30
  5
16F3F
331
16F31
  5
16F40
331
16F32
  5
16F41
331
16F33
  5
16F42
331
16F34
  5
16F43
331
16F35
  5
16F44
331
16F36
  5
16F45
331
16F37
  5
16F46
331
16F3A
  5
1712B
331
16F3C
  5
1712D
331
16F3D
  5
1712E
331
16F3E
  5
1712F
331
16F3F
  5
17130
331
16F40
  5
17131
331
16F41
  5
17132
331
16F42
  5
17133
331
16F43
  5
17134
331
16F44
  5
17135
331
16F45
  5
17136
331
16F46
  5
17137
331
1712B
  5
1713A
331
1712C
  5
1713B
331
1712D
  5
1713C
331
1712E
  5
1713D
331
1712F
  5
1713E
331
17130
  5
1713F
331
17131
  5
17140
331
17134
  5
17143
331
17135
  5
17144
331
17136
  5
17145
331
17137
  5
17146
331
17138
  5
1717A
331
17139
  5
1717B
331
1713A
  5
1717C
331
1713B
  5
1717D
331
1713C
  5
1717E
331
1713D
  5
1717F
331
1713E
  5
17180
331
1713F
  5
17181
331
17140
  5
171FD
331
17141
  5
171FE
331
17142
  5
171FF
331
17143
  5
17200
331
17144
  5
17201
331
171FC
  5
17208
331
171FE
  5
17209
331
171FF
  5
17247
331
17200
  5
1724C
331
17201
  5
1724D
331
17203
  5
1724E
331
17204
  5
1724F
331
17205
  5
17250
331
1724C
  5
17251
331
1724D
  5
17252
331
1724E
  5
17253
331
1724F
  5
17254
331
17250
  5
17255
331
17251
  5
17256
331
17252
  5
17257
331
17253
  5
17258
331
17254
  5
17259
331
17255
  5
1725C
331
17256
  5
1725D
331
17257
  5
1725E
331
17258
  5
1725F
331
17259
  5
17260
331
1725C
  5
17261
331
1725D
  5
17262
331
1725E
  5
17263
331
1725F
  5
17264
331
17260
  5
17265
331
17261
  5
17266
331
17262
  5
17267
331
17263
  5
17268
331
17264
  5
17269
331
17265
  5
1726A
331
17266
  5
1726B
331
17267
  5
1726C
331
17268
  5
1726D
331
17269
  5
1726E
331
1726A
  5
1726F
331
1726B
  5
17270
331
1726C
  5
17271
331
1726D
  5
17273
331
1726E
  5
17274
331
17274
  5
172B1
331
17275
  5
172B2
331
172A4
  5
172B3
331
172A5
  5
172B4
331
172B0
  5
172B5
331
172B1
  5
172B6
331
172B2
  5
172B7
331
172B3
  5
172B8
331
172B4
  5
172B9
331
172B5
  5
172BA
331
172B6
  5
172BB
331
172B7
  5
172BC
331
172B8
  5
172BD
331
172B9
  5
172BF
331
172BA
  5
172C0
331
172BB
  5
172C1
331
172BC
  5
172C2
331
172BD
  5
172C3
331
172BF
  5
172C9
331
172C0
  5
172CA
331
172C1
  5
172CB
331
172C2
  5
172CC
331
172C3
  5
172CD
331
172C4
  5
172CE
331
172C5
  5
172CF
331
172C6
  5
172D0
331
172C7
  5
172D1
  0
XRECORD
  5
17423
102
{ACAD_REACTORS
330
17422
102
}
330
17422
100
AcDbXrecord
280
     1
 90
        1
340
169A2
  0
XRECORD
  5
17427
102
{ACAD_REACTORS
330
17426
102
}
330
17426
100
AcDbXrecord
280
     1
 90
        1
340
169A2
  0
ACDBDETAILVIEWSTYLE
  5
169B8
102
{ACAD_REACTORS
330
169B7
102
}
330
169B7
100
AcDbModelDocViewStyle
 70
     0
  3
Metric50
290
     1
300
Metric50
 90
        0
100
AcDbDetailViewStyle
 70
     0
 71
     0
 90
        3
 71
     1
340
F
 62
   256
 40
5.0
340
0
 62
   256
 40
5.0
300

 40
0.0
280
     1
 71
     2
340
14
 90
       25
 62
   256
 71
     3
340
F
 62
   256
 40
5.0
 90
        0
 40
15.0
 90
        1
300
%<\AcVar ViewDetailId>% (%<\AcVar ViewScale \f "%sn">%)
 71
     4
340
14
 90
       25
 62
   256
340
14
 90
       25
 62
   256
280
     0
  0
LAYOUT
  5
1741B
102
{ACAD_REACTORS
330
26A7
102
}
330
26A7
100
AcDbPlotSettings
  1

  2
Bluebeam PDF
  4
Tabloid
  6

 40
3.174999952316284
 41
3.174999952316284
 42
3.17498779296875
 43
3.17498779296875
 44
279.3999938964844
 45
431.8000183105469
 46
0.0
 47
0.0
 48
0.0
 49
0.0
140
0.0
141
0.0
142
1.0
143
1.0
 70
   688
 72
     1
 73
     1
 74
     5
  7

 75
    16
147
1.0
 76
     0
 77
     2
 78
   300
148
0.0
149
0.0
100
AcDbLayout
  1
Layout1
 70
     1
 71
     1
 10
-3.17498779296875
 20
-3.174999952316284
 11
428.6250305175781
 21
276.2249939441681
 12
0.0
 22
0.0
 32
0.0
 14
42.54500305652618
 24
27.30500061511992
 34
0.0
 15
382.9050275087356
 25
245.7450055360794
 35
0.0
146
0.0
 13
0.0
 23
0.0
 33
0.0
 16
1.0
 26
0.0
 36
0.0
 17
0.0
 27
1.0
 37
0.0
 76
     0
330
1741A
331
17425
1001
ACAD_PSEXT
1000
Bluebeam PDF
1000
BluebeamPSDriver
1000
BLUEBEAMPDFPORT
1000

1070
     0
  0
LAYOUT
  5
26A9
102
{ACAD_REACTORS
330
26A7
102
}
330
26A7
100
AcDbPlotSettings
  1

  2
Adobe PDF
  4
A3
  6

 40
3.174999952316284
 41
3.174999952316284
 42
3.17498779296875
 43
3.17498779296875
 44
297.0318298339844
 45
420.1583251953125
 46
0.0
 47
6.429999999999999
 48
30.0
 49
7.0
140
830.0
141
587.0
142
1.0
143
1.995308670924885
 70
 11956
 72
     1
 73
     1
 74
     4
  7
monochrome.ctb
 75
     0
147
0.5011755898081023
 76
     0
 77
     2
 78
   300
148
-30.0
149
-7.0
100
AcDbLayout
  1
Model
 70
     1
 71
     0
 10
0.0
 20
0.0
 11
12.0
 21
9.0
 12
0.0
 22
0.0
 32
0.0
 14
0.0
 24
0.0
 34
0.0
 15
0.0
 25
0.0
 35
0.0
146
0.0
 13
0.0
 23
0.0
 33
0.0
 16
1.0
 26
0.0
 36
0.0
 17
0.0
 27
1.0
 37
0.0
 76
     0
330
18
331
1580E
  0
MATERIAL
  5
15811
102
{ACAD_REACTORS
330
D64D
102
}
330
D64D
100
AcDbMaterial
  1
ByBlock
 73
     1
 78
     1
172
     1
176
     1
270
     1
274
     1
 94
       63
  0
MATERIAL
  5
15810
102
{ACAD_REACTORS
330
D64D
102
}
330
D64D
100
AcDbMaterial
  1
ByLayer
 73
     1
 78
     1
172
     1
176
     1
270
     1
274
     1
 94
       63
  0
MATERIAL
  5
12623
102
{ACAD_REACTORS
330
D64D
102
}
330
D64D
100
AcDbMaterial
  1
Global
 73
     1
 78
     1
172
     1
176
     1
270
     1
274
     1
 94
       63
  0
MLEADERSTYLE
  5
169B4
102
{ACAD_REACTORS
330
169B3
102
}
330
169B3
100
AcDbMLeaderStyle
179
     2
170
     2
171
     1
172
     0
 90
        2
 40
0.0
 41
0.0
173
     1
 91
-1056964608
340
12
 92
       -2
290
     1
 42
2.0
291
     1
 43
0.36
  3
Standard
 44
4.0
300

342
F
174
     1
178
     6
175
     1
176
     0
 93
-1056964608
 45
4.0
292
     0
297
     0
 46
4.0
 94
-1056964608
 47
1.0
 49
1.0
140
1.0
293
     1
141
0.0
294
     1
177
     0
142
1.0
295
     1
296
     0
143
0.125
271
     0
272
     9
273
     9
298
     1
  0
MLINESTYLE
  5
1C
102
{ACAD_REACTORS
330
1B
102
}
330
1B
100
AcDbMlineStyle
  2
STANDARD
 70
     0
  3

 62
   256
 51
90.0
 52
90.0
 71
     2
 49
0.5
 62
   256
  6
BYLAYER
 49
-0.5
 62
   256
  6
BYLAYER
  0
ACDBPLACEHOLDER
  5
26A6
102
{ACAD_REACTORS
330
26A5
102
}
330
26A5
  0
SCALE
  5
169A2
102
{ACAD_REACTORS
330
169A1
102
}
330
169A1
100
AcDbScale
 70
     0
300
1:1
140
1.0
141
1.0
290
     1
  0
SCALE
  5
169A3
102
{ACAD_REACTORS
330
169A1
102
}
330
169A1
100
AcDbScale
 70
     0
300
1:2
140
1.0
141
2.0
290
     0
  0
SCALE
  5
169A4
102
{ACAD_REACTORS
330
169A1
102
}
330
169A1
100
AcDbScale
 70
     0
300
1:4
140
1.0
141
4.0
290
     0
  0
SCALE
  5
169A5
102
{ACAD_REACTORS
330
169A1
102
}
330
169A1
100
AcDbScale
 70
     0
300
1:5
140
1.0
141
5.0
290
     0
  0
SCALE
  5
169A6
102
{ACAD_REACTORS
330
169A1
102
}
330
169A1
100
AcDbScale
 70
     0
300
1:8
140
1.0
141
8.0
290
     0
  0
SCALE
  5
169A7
102
{ACAD_REACTORS
330
169A1
102
}
330
169A1
100
AcDbScale
 70
     0
300
1:10
140
1.0
141
10.0
290
     0
  0
SCALE
  5
169A8
102
{ACAD_REACTORS
330
169A1
102
}
330
169A1
100
AcDbScale
 70
     0
300
1:16
140
1.0
141
16.0
290
     0
  0
SCALE
  5
169A9
102
{ACAD_REACTORS
330
169A1
102
}
330
169A1
100
AcDbScale
 70
     0
300
1:20
140
1.0
141
20.0
290
     0
  0
SCALE
  5
169AA
102
{ACAD_REACTORS
330
169A1
102
}
330
169A1
100
AcDbScale
 70
     0
300
1:30
140
1.0
141
30.0
290
     0
  0
SCALE
  5
169AB
102
{ACAD_REACTORS
330
169A1
102
}
330
169A1
100
AcDbScale
 70
     0
300
1:40
140
1.0
141
40.0
290
     0
  0
SCALE
  5
169AC
102
{ACAD_REACTORS
330
169A1
102
}
330
169A1
100
AcDbScale
 70
     0
300
1:50
140
1.0
141
50.0
290
     0
  0
SCALE
  5
169AD
102
{ACAD_REACTORS
330
169A1
102
}
330
169A1
100
AcDbScale
 70
     0
300
1:100
140
1.0
141
100.0
290
     0
  0
SCALE
  5
169AE
102
{ACAD_REACTORS
330
169A1
102
}
330
169A1
100
AcDbScale
 70
     0
300
2:1
140
2.0
141
1.0
290
     0
  0
SCALE
  5
169AF
102
{ACAD_REACTORS
330
169A1
102
}
330
169A1
100
AcDbScale
 70
     0
300
4:1
140
4.0
141
1.0
290
     0
  0
SCALE
  5
169B0
102
{ACAD_REACTORS
330
169A1
102
}
330
169A1
100
AcDbScale
 70
     0
300
8:1
140
8.0
141
1.0
290
     0
  0
SCALE
  5
169B1
102
{ACAD_REACTORS
330
169A1
102
}
330
169A1
100
AcDbScale
 70
     0
300
10:1
140
10.0
141
1.0
290
     0
  0
SCALE
  5
169B2
102
{ACAD_REACTORS
330
169A1
102
}
330
169A1
100
AcDbScale
 70
     0
300
100:1
140
100.0
141
1.0
290
     0
  0
ACDBSECTIONVIEWSTYLE
  5
169B6
102
{ACAD_REACTORS
330
169B5
102
}
330
169B5
100
AcDbModelDocViewStyle
 70
     0
  3
Metric50
290
     1
300
Metric50
 90
        0
100
AcDbSectionViewStyle
 70
     0
 71
     0
 90
      102
 71
     1
340
F
 62
   256
 40
5.0
340
0
340
0
 62
   256
 40
5.0
300
I, O, Q, S, X, Z
 40
10.0
 90
        0
 40
2.5
 90
        0
 71
     2
340
14
 90
       25
 62
   256
340
14
 90
       50
 62
   256
 40
5.0
 40
2.5
 40
5.0
 71
     3
340
F
 62
   256
 40
5.0
 90
        0
 40
15.0
 90
        1
300
%<\AcVar ViewSectionStartId>%-%<\AcVar ViewSectionEndId>% (%<\AcVar ViewScale \f "%sn">%)
 71
     4
 62
   256
 62
   257
300
ANSI31
 40
1.0
 90
        0
290
     0
290
     0
 90
        6
 40
0.0
 40
1.570796326794896
 40
0.2617993877991494
 40
1.308996938995747
 40
-0.2617993877991494
 40
1.832595714594046
  0
TABLESTYLE
  5
15824
102
{ACAD_XDICTIONARY
360
174CD
102
}
102
{ACAD_REACTORS
330
15823
102
}
330
15823
100
AcDbTableStyle
280
     0
  3
Standard
 70
     0
 71
     0
 40
1.5
 41
1.5
280
     0
281
     0
  7
STANDARD
140
4.5
170
     2
 62
     0
 63
     7
283
     0
 90
      512
 91
        0
  1

274
    -2
284
     1
 64
     0
275
    -2
285
     1
 65
     0
276
    -2
286
     1
 66
     0
277
    -2
287
     1
 67
     0
278
    -2
288
     1
 68
     0
279
    -2
289
     1
 69
     0
  7
STANDARD
140
6.0
170
     5
 62
     0
 63
     7
283
     0
 90
      512
 91
        0
  1

274
    -2
284
     1
 64
     0
275
    -2
285
     1
 65
     0
276
    -2
286
     1
 66
     0
277
    -2
287
     1
 67
     0
278
    -2
288
     1
 68
     0
279
    -2
289
     1
 69
     0
  7
STANDARD
140
4.5
170
     5
 62
     0
 63
     7
283
     0
 90
      512
 91
        0
  1

274
    -2
284
     1
 64
     0
275
    -2
285
     1
 65
     0
276
    -2
286
     1
 66
     0
277
    -2
287
     1
 67
     0
278
    -2
288
     1
 68
     0
279
    -2
289
     1
 69
     0
  0
VISUALSTYLE
  5
15818
102
{ACAD_REACTORS
330
15812
102
}
330
15812
100
AcDbVisualStyle
  2
2dWireframe
 70
     4
177
     3
291
     0
 70
    58
 90
        0
176
     1
 90
        2
176
     1
 90
        0
176
     1
 90
        0
176
     1
 40
0.6
176
     1
 40
30.0
176
     1
 62
     7
420
 16777215
176
     1
 90
        1
176
     1
 90
        4
176
     1
 62
     7
176
     1
 62
   257
176
     1
 90
        1
176
     1
 90
        1
176
     1
 40
1.0
176
     1
 90
        0
176
     1
 62
   257
176
     1
 40
1.0
176
     1
 90
        1
176
     1
 90
        6
176
     1
 90
        2
176
     1
 62
     7
176
     1
 90
        5
176
     1
 90
        0
176
     1
 90
        0
176
     1
290
     0
176
     1
 90
        1
176
     1
 40
0.0
176
     1
 90
        0
176
     1
290
     1
176
     1
290
     1
176
     1
290
     0
176
     1
290
     0
176
     1
290
     0
176
     1
290
     0
176
     1
290
     0
176
     1
290
     0
176
     1
290
     0
176
     1
 90
       50
176
     1
 40
0.0
176
     1
 40
1.0
176
     1
 90
        0
176
     1
 62
    18
420
        0
176
     1
 90
       50
176
     1
 90
        3
176
     1
 62
     5
420
      255
176
     1
290
     0
176
     1
 90
       50
176
     1
 90
       50
176
     1
 90
       50
176
     1
290
     0
176
     1
 90
       50
176
     1
 62
   256
176
     0
 40
1.0
176
     0
 90
        2
176
     1
  1
strokes_ogs.tif
176
     1
290
     0
176
     1
 40
1.0
176
     1
 40
1.0
176
     1
  0
VISUALSTYLE
  5
1581A
102
{ACAD_REACTORS
330
15812
102
}
330
15812
100
AcDbVisualStyle
  2
3D Hidden
 70
     6
177
     3
291
     0
 70
    58
 90
        1
176
     1
 90
        2
176
     1
 90
        2
176
     1
 90
        0
176
     1
 40
0.6
176
     1
 40
30.0
176
     1
 62
     7
420
 16777215
176
     1
 90
        2
176
     1
 90
        2
176
     1
 62
     7
176
     1
 62
   257
176
     1
 90
        2
176
     1
 90
        1
176
     1
 40
40.0
176
     1
 90
        0
176
     1
 62
   257
176
     1
 40
1.0
176
     1
 90
        1
176
     1
 90
        6
176
     1
 90
        2
176
     1
 62
     7
176
     1
 90
        3
176
     1
 90
        0
176
     1
 90
        0
176
     1
290
     0
176
     1
 90
        1
176
     1
 40
0.0
176
     1
 90
        0
176
     1
290
     0
176
     1
290
     1
176
     1
290
     1
176
     1
290
     0
176
     1
290
     0
176
     1
290
     0
176
     1
290
     0
176
     1
290
     0
176
     1
290
     0
176
     1
 90
       50
176
     1
 40
0.0
176
     1
 40
1.0
176
     1
 90
        0
176
     1
 62
    18
420
        0
176
     1
 90
       50
176
     1
 90
        3
176
     1
 62
     5
420
      255
176
     1
290
     0
176
     1
 90
       50
176
     1
 90
       50
176
     1
 90
       50
176
     1
290
     0
176
     1
 90
       50
176
     1
 62
   256
176
     0
 40
1.0
176
     0
 90
        2
176
     1
  1
strokes_ogs.tif
176
     1
290
     0
176
     1
 40
1.0
176
     1
 40
1.0
176
     1
  0
VISUALSTYLE
  5
15819
102
{ACAD_REACTORS
330
15812
102
}
330
15812
100
AcDbVisualStyle
  2
3dWireframe
 70
     5
177
     3
291
     0
 70
    58
 90
        0
176
     1
 90
        2
176
     1
 90
        0
176
     1
 90
        0
176
     1
 40
0.6
176
     1
 40
30.0
176
     1
 62
     7
420
 16777215
176
     1
 90
        1
176
     1
 90
        4
176
     1
 62
     7
176
     1
 62
   257
176
     1
 90
        1
176
     1
 90
        1
176
     1
 40
1.0
176
     1
 90
        0
176
     1
 62
   257
176
     1
 40
1.0
176
     1
 90
        1
176
     1
 90
        6
176
     1
 90
        2
176
     1
 62
     7
176
     1
 90
        5
176
     1
 90
        0
176
     1
 90
        0
176
     1
290
     0
176
     1
 90
        1
176
     1
 40
0.0
176
     1
 90
        0
176
     1
290
     0
176
     1
290
     1
176
     1
290
     1
176
     1
290
     0
176
     1
290
     0
176
     1
290
     0
176
     1
290
     0
176
     1
290
     0
176
     1
290
     0
176
     1
 90
       50
176
     1
 40
0.0
176
     1
 40
1.0
176
     1
 90
        0
176
     1
 62
    18
420
        0
176
     1
 90
       50
176
     1
 90
        3
176
     1
 62
     5
420
      255
176
     1
290
     0
176
     1
 90
       50
176
     1
 90
       50
176
     1
 90
       50
176
     1
290
     0
176
     1
 90
       50
176
     1
 62
   256
176
     0
 40
1.0
176
     0
 90
        2
176
     1
  1
strokes_ogs.tif
176
     1
290
     0
176
     1
 40
1.0
176
     1
 40
1.0
176
     1
  0
VISUALSTYLE
  5
15817
102
{ACAD_REACTORS
330
15812
102
}
330
15812
100
AcDbVisualStyle
  2
Basic
 70
     7
177
     3
291
     1
 70
    58
 90
        1
176
     1
 90
        0
176
     1
 90
        1
176
     1
 90
        0
176
     1
 40
0.6
176
     1
 40
30.0
176
     1
 62
     7
420
 16777215
176
     1
 90
        0
176
     1
 90
        4
176
     1
 62
     7
176
     1
 62
   257
176
     1
 90
        1
176
     1
 90
        1
176
     1
 40
1.0
176
     1
 90
        8
176
     1
 62
     7
176
     1
 40
1.0
176
     1
 90
        1
176
     1
 90
        6
176
     1
 90
        2
176
     1
 62
     7
176
     1
 90
        5
176
     1
 90
        0
176
     1
 90
        0
176
     1
290
     0
176
     1
 90
        1
176
     1
 40
0.0
176
     1
 90
        0
176
     1
290
     0
176
     1
290
     1
176
     1
290
     1
176
     1
290
     0
176
     1
290
     0
176
     1
290
     0
176
     1
290
     0
176
     1
290
     0
176
     1
290
     0
176
     1
 90
       50
176
     1
 40
0.0
176
     1
 40
1.0
176
     1
 90
        0
176
     1
 62
    18
420
        0
176
     1
 90
       50
176
     1
 90
        3
176
     1
 62
     5
420
      255
176
     1
290
     0
176
     1
 90
       50
176
     1
 90
       50
176
     1
 90
       50
176
     1
290
     0
176
     1
 90
       50
176
     1
 62
   256
176
     0
 40
1.0
176
     0
 90
        2
176
     1
  1
strokes_ogs.tif
176
     1
290
     0
176
     1
 40
1.0
176
     1
 40
1.0
176
     1
  0
VISUALSTYLE
  5
1581E
102
{ACAD_REACTORS
330
15812
102
}
330
15812
100
AcDbVisualStyle
  2
Brighten
 70
    12
177
     3
291
     1
 70
    58
 90
        2
176
     1
 90
        2
176
     1
 90
        0
176
     1
 90
        0
176
     1
 40
0.6
176
     1
 40
30.0
176
     1
 62
     7
420
 16777215
176
     1
 90
        1
176
     1
 90
        4
176
     1
 62
     7
176
     1
 62
   257
176
     1
 90
        1
176
     1
 90
        1
176
     1
 40
1.0
176
     1
 90
        8
176
     1
 62
     7
176
     1
 40
1.0
176
     1
 90
        1
176
     1
 90
        6
176
     1
 90
        2
176
     1
 62
     7
176
     1
 90
        5
176
     1
 90
        0
176
     1
 90
        0
176
     1
290
     0
176
     1
 90
        1
176
     1
 40
50.0
176
     1
 90
        0
176
     1
290
     0
176
     1
290
     1
176
     1
290
     1
176
     1
290
     0
176
     1
290
     0
176
     1
290
     0
176
     1
290
     0
176
     1
290
     0
176
     1
290
     0
176
     1
 90
       50
176
     1
 40
0.0
176
     1
 40
1.0
176
     1
 90
        0
176
     1
 62
    18
420
        0
176
     1
 90
       50
176
     1
 90
        3
176
     1
 62
     5
420
      255
176
     1
290
     0
176
     1
 90
       50
176
     1
 90
       50
176
     1
 90
       50
176
     1
290
     0
176
     1
 90
       50
176
     1
 62
   256
176
     0
 40
1.0
176
     0
 90
        2
176
     1
  1
strokes_ogs.tif
176
     1
290
     0
176
     1
 40
1.0
176
     1
 40
1.0
176
     1
  0
VISUALSTYLE
  5
15822
102
{ACAD_REACTORS
330
15812
102
}
330
15812
100
AcDbVisualStyle
  2
ColorChange
 70
    16
177
     3
291
     1
 70
    58
 90
        2
176
     1
 90
        2
176
     1
 90
        3
176
     1
 90
        0
176
     1
 40
0.6
176
     1
 40
30.0
176
     1
 62
     8
420
  8421504
176
     1
 90
        1
176
     1
 90
        4
176
     1
 62
     7
176
     1
 62
   257
176
     1
 90
        1
176
     1
 90
        1
176
     1
 40
1.0
176
     1
 90
        8
176
     1
 62
     8
420
  8421504
176
     1
 40
1.0
176
     1
 90
        1
176
     1
 90
        6
176
     1
 90
        2
176
     1
 62
     7
176
     1
 90
        5
176
     1
 90
        0
176
     1
 90
        0
176
     1
290
     0
176
     1
 90
        1
176
     1
 40
0.0
176
     1
 90
        0
176
     1
290
     0
176
     1
290
     1
176
     1
290
     1
176
     1
290
     0
176
     1
290
     0
176
     1
290
     0
176
     1
290
     0
176
     1
290
     0
176
     1
290
     0
176
     1
 90
       50
176
     1
 40
0.0
176
     1
 40
1.0
176
     1
 90
        0
176
     1
 62
    18
420
        0
176
     1
 90
       50
176
     1
 90
        3
176
     1
 62
     5
420
      255
176
     1
290
     0
176
     1
 90
       50
176
     1
 90
       50
176
     1
 90
       50
176
     1
290
     0
176
     1
 90
       50
176
     1
 62
   256
176
     0
 40
1.0
176
     0
 90
        2
176
     1
  1
strokes_ogs.tif
176
     1
290
     0
176
     1
 40
1.0
176
     1
 40
1.0
176
     1
  0
VISUALSTYLE
  5
1581B
102
{ACAD_REACTORS
330
15812
102
}
330
15812
100
AcDbVisualStyle
  2
Conceptual
 70
     9
177
     3
291
     0
 70
    58
 90
        3
176
     1
 90
        2
176
     1
 90
        0
176
     1
 90
        0
176
     1
 40
0.6
176
     1
 40
30.0
176
     1
 62
     7
420
 16777215
176
     1
 90
        2
176
     1
 90
        2
176
     1
 62
     7
176
     1
 62
   257
176
     1
 90
        1
176
     1
 90
        1
176
     1
 40
40.0
176
     1
 90
        8
176
     1
 62
     7
176
     1
 40
1.0
176
     1
 90
        1
176
     1
 90
        6
176
     1
 90
        2
176
     1
 62
     7
176
     1
 90
        3
176
     1
 90
        0
176
     1
 90
        0
176
     1
290
     0
176
     1
 90
        1
176
     1
 40
0.0
176
     1
 90
        0
176
     1
290
     0
176
     1
290
     1
176
     1
290
     1
176
     1
290
     0
176
     1
290
     0
176
     1
290
     0
176
     1
290
     0
176
     1
290
     0
176
     1
290
     0
176
     1
 90
       50
176
     1
 40
0.0
176
     1
 40
1.0
176
     1
 90
        0
176
     1
 62
    18
420
        0
176
     1
 90
       50
176
     1
 90
        3
176
     1
 62
     5
420
      255
176
     1
290
     0
176
     1
 90
       50
176
     1
 90
       50
176
     1
 90
       50
176
     1
290
     0
176
     1
 90
       50
176
     1
 62
   256
176
     0
 40
1.0
176
     0
 90
        2
176
     1
  1
strokes_ogs.tif
176
     1
290
     0
176
     1
 40
1.0
176
     1
 40
1.0
176
     1
  0
VISUALSTYLE
  5
1581D
102
{ACAD_REACTORS
330
15812
102
}
330
15812
100
AcDbVisualStyle
  2
Dim
 70
    11
177
     3
291
     1
 70
    58
 90
        2
176
     1
 90
        2
176
     1
 90
        0
176
     1
 90
        0
176
     1
 40
0.6
176
     1
 40
30.0
176
     1
 62
     7
420
 16777215
176
     1
 90
        1
176
     1
 90
        4
176
     1
 62
     7
176
     1
 62
   257
176
     1
 90
        1
176
     1
 90
        1
176
     1
 40
1.0
176
     1
 90
        8
176
     1
 62
     7
176
     1
 40
1.0
176
     1
 90
        1
176
     1
 90
        6
176
     1
 90
        2
176
     1
 62
     7
176
     1
 90
        5
176
     1
 90
        0
176
     1
 90
        0
176
     1
290
     0
176
     1
 90
        1
176
     1
 40
-50.0
176
     1
 90
        0
176
     1
290
     0
176
     1
290
     1
176
     1
290
     1
176
     1
290
     0
176
     1
290
     0
176
     1
290
     0
176
     1
290
     0
176
     1
290
     0
176
     1
290
     0
176
     1
 90
       50
176
     1
 40
0.0
176
     1
 40
1.0
176
     1
 90
        0
176
     1
 62
    18
420
        0
176
     1
 90
       50
176
     1
 90
        3
176
     1
 62
     5
420
      255
176
     1
290
     0
176
     1
 90
       50
176
     1
 90
       50
176
     1
 90
       50
176
     1
290
     0
176
     1
 90
       50
176
     1
 62
   256
176
     0
 40
1.0
176
     0
 90
        2
176
     1
  1
strokes_ogs.tif
176
     1
290
     0
176
     1
 40
1.0
176
     1
 40
1.0
176
     1
  0
VISUALSTYLE
  5
169A0
102
{ACAD_REACTORS
330
15812
102
}
330
15812
100
AcDbVisualStyle
  2
EdgeColorOff
 70
    22
177
     3
291
     1
 70
    58
 90
        2
176
     0
 90
        2
176
     0
 90
        0
176
     0
 90
        0
176
     0
 40
0.6
176
     0
 40
30.0
176
     0
 62
     7
420
 16777215
176
     0
 90
        1
176
     0
 90
        4
176
     0
 62
     7
176
     0
 62
   257
176
     0
 90
        1
176
     0
 90
        1
176
     0
 40
1.0
176
     0
 90
        8
176
     2
 62
     7
176
     0
 40
1.0
176
     0
 90
        1
176
     0
 90
        6
176
     0
 90
        2
176
     0
 62
     7
176
     0
 90
        5
176
     0
 90
        0
176
     0
 90
        0
176
     0
290
     0
176
     0
 90
        1
176
     0
 40
0.0
176
     0
 90
        0
176
     0
290
     0
176
     0
290
     1
176
     0
290
     1
176
     0
290
     0
176
     0
290
     0
176
     0
290
     0
176
     0
290
     0
176
     0
290
     0
176
     0
290
     0
176
     0
 90
       50
176
     0
 40
0.0
176
     0
 40
1.0
176
     0
 90
        0
176
     0
 62
    18
420
        0
176
     0
 90
       50
176
     0
 90
        3
176
     0
 62
     5
420
      255
176
     0
290
     0
176
     0
 90
       50
176
     0
 90
       50
176
     0
 90
       50
176
     0
290
     0
176
     0
 90
       50
176
     0
 62
   256
176
     0
 40
1.0
176
     0
 90
        2
176
     0
  1
strokes_ogs.tif
176
     0
290
     0
176
     0
 40
1.0
176
     0
 40
1.0
176
     0
  0
VISUALSTYLE
  5
15821
102
{ACAD_REACTORS
330
15812
102
}
330
15812
100
AcDbVisualStyle
  2
Facepattern
 70
    15
177
     3
291
     1
 70
    58
 90
        2
176
     1
 90
        2
176
     1
 90
        0
176
     1
 90
        0
176
     1
 40
0.6
176
     1
 40
30.0
176
     1
 62
     7
420
 16777215
176
     1
 90
        1
176
     1
 90
        4
176
     1
 62
     7
176
     1
 62
   257
176
     1
 90
        1
176
     1
 90
        1
176
     1
 40
1.0
176
     1
 90
        8
176
     1
 62
     7
176
     1
 40
1.0
176
     1
 90
        1
176
     1
 90
        6
176
     1
 90
        2
176
     1
 62
     7
176
     1
 90
        5
176
     1
 90
        0
176
     1
 90
        0
176
     1
290
     0
176
     1
 90
        1
176
     1
 40
0.0
176
     1
 90
        0
176
     1
290
     0
176
     1
290
     1
176
     1
290
     1
176
     1
290
     0
176
     1
290
     0
176
     1
290
     0
176
     1
290
     0
176
     1
290
     0
176
     1
290
     0
176
     1
 90
       50
176
     1
 40
0.0
176
     1
 40
1.0
176
     1
 90
        0
176
     1
 62
    18
420
        0
176
     1
 90
       50
176
     1
 90
        3
176
     1
 62
     5
420
      255
176
     1
290
     0
176
     1
 90
       50
176
     1
 90
       50
176
     1
 90
       50
176
     1
290
     0
176
     1
 90
       50
176
     1
 62
   256
176
     0
 40
1.0
176
     0
 90
        2
176
     1
  1
strokes_ogs.tif
176
     1
290
     0
176
     1
 40
1.0
176
     1
 40
1.0
176
     1
  0
VISUALSTYLE
  5
15813
102
{ACAD_REACTORS
330
15812
102
}
330
15812
100
AcDbVisualStyle
  2
Flat
 70
     0
177
     3
291
     1
 70
    58
 90
        2
176
     1
 90
        1
176
     1
 90
        1
176
     1
 90
        2
176
     1
 40
0.6
176
     1
 40
30.0
176
     1
 62
     7
420
 16777215
176
     1
 90
        0
176
     1
 90
        4
176
     1
 62
     7
176
     1
 62
   257
176
     1
 90
        1
176
     1
 90
        1
176
     1
 40
1.0
176
     1
 90
        8
176
     1
 62
     7
176
     1
 40
1.0
176
     1
 90
        1
176
     1
 90
        6
176
     1
 90
        2
176
     1
 62
     7
176
     1
 90
        5
176
     1
 90
        0
176
     1
 90
        0
176
     1
290
     0
176
     1
 90
       13
176
     1
 40
0.0
176
     1
 90
        0
176
     1
290
     0
176
     1
290
     1
176
     1
290
     1
176
     1
290
     0
176
     1
290
     0
176
     1
290
     0
176
     1
290
     0
176
     1
290
     0
176
     1
290
     0
176
     1
 90
       50
176
     1
 40
0.0
176
     1
 40
1.0
176
     1
 90
        0
176
     1
 62
    18
420
        0
176
     1
 90
       50
176
     1
 90
        3
176
     1
 62
     5
420
      255
176
     1
290
     0
176
     1
 90
       50
176
     1
 90
       50
176
     1
 90
       50
176
     1
290
     0
176
     1
 90
       50
176
     1
 62
   256
176
     0
 40
1.0
176
     0
 90
        2
176
     1
  1
strokes_ogs.tif
176
     1
290
     0
176
     1
 40
1.0
176
     1
 40
1.0
176
     1
  0
VISUALSTYLE
  5
15814
102
{ACAD_REACTORS
330
15812
102
}
330
15812
100
AcDbVisualStyle
  2
FlatWithEdges
 70
     1
177
     3
291
     1
 70
    58
 90
        2
176
     1
 90
        1
176
     1
 90
        1
176
     1
 90
        2
176
     1
 40
0.6
176
     1
 40
30.0
176
     1
 62
     7
420
 16777215
176
     1
 90
        1
176
     1
 90
        4
176
     1
 62
     7
176
     1
 62
   257
176
     1
 90
        1
176
     1
 90
        1
176
     1
 40
1.0
176
     1
 90
        0
176
     1
 62
   257
176
     1
 40
1.0
176
     1
 90
        1
176
     1
 90
        6
176
     1
 90
        2
176
     1
 62
     7
176
     1
 90
        5
176
     1
 90
        0
176
     1
 90
        0
176
     1
290
     0
176
     1
 90
       13
176
     1
 40
0.0
176
     1
 90
        0
176
     1
290
     0
176
     1
290
     1
176
     1
290
     1
176
     1
290
     0
176
     1
290
     0
176
     1
290
     0
176
     1
290
     0
176
     1
290
     0
176
     1
290
     0
176
     1
 90
       50
176
     1
 40
0.0
176
     1
 40
1.0
176
     1
 90
        0
176
     1
 62
    18
420
        0
176
     1
 90
       50
176
     1
 90
        3
176
     1
 62
     5
420
      255
176
     1
290
     0
176
     1
 90
       50
176
     1
 90
       50
176
     1
 90
       50
176
     1
290
     0
176
     1
 90
       50
176
     1
 62
   256
176
     0
 40
1.0
176
     0
 90
        2
176
     1
  1
strokes_ogs.tif
176
     1
290
     0
176
     1
 40
1.0
176
     1
 40
1.0
176
     1
  0
VISUALSTYLE
  5
15815
102
{ACAD_REACTORS
330
15812
102
}
330
15812
100
AcDbVisualStyle
  2
Gouraud
 70
     2
177
     3
291
     1
 70
    58
 90
        2
176
     1
 90
        2
176
     1
 90
        1
176
     1
 90
        2
176
     1
 40
0.6
176
     1
 40
30.0
176
     1
 62
     7
420
 16777215
176
     1
 90
        0
176
     1
 90
        4
176
     1
 62
     7
176
     1
 62
   257
176
     1
 90
        1
176
     1
 90
        1
176
     1
 40
1.0
176
     1
 90
        0
176
     1
 62
     7
176
     1
 40
1.0
176
     1
 90
        1
176
     1
 90
        6
176
     1
 90
        2
176
     1
 62
     7
176
     1
 90
        5
176
     1
 90
        0
176
     1
 90
        0
176
     1
290
     0
176
     1
 90
       13
176
     1
 40
0.0
176
     1
 90
        0
176
     1
290
     0
176
     1
290
     1
176
     1
290
     1
176
     1
290
     0
176
     1
290
     0
176
     1
290
     0
176
     1
290
     0
176
     1
290
     0
176
     1
290
     0
176
     1
 90
       50
176
     1
 40
0.0
176
     1
 40
1.0
176
     1
 90
        0
176
     1
 62
    18
420
        0
176
     1
 90
       50
176
     1
 90
        3
176
     1
 62
     5
420
      255
176
     1
290
     0
176
     1
 90
       50
176
     1
 90
       50
176
     1
 90
       50
176
     1
290
     0
176
     1
 90
       50
176
     1
 62
   256
176
     0
 40
1.0
176
     0
 90
        2
176
     1
  1
strokes_ogs.tif
176
     1
290
     0
176
     1
 40
1.0
176
     1
 40
1.0
176
     1
  0
VISUALSTYLE
  5
15816
102
{ACAD_REACTORS
330
15812
102
}
330
15812
100
AcDbVisualStyle
  2
GouraudWithEdges
 70
     3
177
     3
291
     1
 70
    58
 90
        2
176
     1
 90
        2
176
     1
 90
        1
176
     1
 90
        2
176
     1
 40
0.6
176
     1
 40
30.0
176
     1
 62
     7
420
 16777215
176
     1
 90
        1
176
     1
 90
        4
176
     1
 62
     7
176
     1
 62
   257
176
     1
 90
        1
176
     1
 90
        1
176
     1
 40
1.0
176
     1
 90
        0
176
     1
 62
   257
176
     1
 40
1.0
176
     1
 90
        1
176
     1
 90
        6
176
     1
 90
        2
176
     1
 62
     7
176
     1
 90
        5
176
     1
 90
        0
176
     1
 90
        0
176
     1
290
     0
176
     1
 90
       13
176
     1
 40
0.0
176
     1
 90
        0
176
     1
290
     0
176
     1
290
     1
176
     1
290
     1
176
     1
290
     0
176
     1
290
     0
176
     1
290
     0
176
     1
290
     0
176
     1
290
     0
176
     1
290
     0
176
     1
 90
       50
176
     1
 40
0.0
176
     1
 40
1.0
176
     1
 90
        0
176
     1
 62
    18
420
        0
176
     1
 90
       50
176
     1
 90
        3
176
     1
 62
     5
420
      255
176
     1
290
     0
176
     1
 90
       50
176
     1
 90
       50
176
     1
 90
       50
176
     1
290
     0
176
     1
 90
       50
176
     1
 62
   256
176
     0
 40
1.0
176
     0
 90
        2
176
     1
  1
strokes_ogs.tif
176
     1
290
     0
176
     1
 40
1.0
176
     1
 40
1.0
176
     1
  0
VISUALSTYLE
  5
16998
102
{ACAD_REACTORS
330
15812
102
}
330
15812
100
AcDbVisualStyle
  2
Hidden
 70
     6
177
     3
291
     0
 70
    58
 90
        1
176
     1
 90
        2
176
     1
 90
        2
176
     1
 90
        0
176
     1
 40
0.6
176
     1
 40
30.0
176
     1
 62
     7
420
 16777215
176
     1
 90
        2
176
     1
 90
        2
176
     1
 62
     7
176
     1
 62
   257
176
     1
 90
        2
176
     1
 90
        1
176
     1
 40
40.0
176
     1
 90
        0
176
     1
 62
   257
176
     1
 40
1.0
176
     1
 90
        1
176
     1
 90
        6
176
     1
 90
        2
176
     1
 62
     7
176
     1
 90
        3
176
     1
 90
        0
176
     1
 90
        0
176
     1
290
     0
176
     1
 90
        1
176
     1
 40
0.0
176
     1
 90
        0
176
     1
290
     0
176
     1
290
     1
176
     1
290
     1
176
     1
290
     0
176
     1
290
     0
176
     1
290
     0
176
     1
290
     0
176
     1
290
     0
176
     1
290
     0
176
     1
 90
       50
176
     1
 40
0.0
176
     1
 40
1.0
176
     1
 90
        0
176
     1
 62
    18
420
        0
176
     1
 90
       50
176
     1
 90
        3
176
     1
 62
     5
420
      255
176
     1
290
     0
176
     1
 90
       50
176
     1
 90
       50
176
     1
 90
       50
176
     1
290
     0
176
     1
 90
       50
176
     1
 62
   256
176
     0
 40
1.0
176
     0
 90
        2
176
     1
  1
strokes_ogs.tif
176
     1
290
     0
176
     1
 40
1.0
176
     1
 40
1.0
176
     1
  0
VISUALSTYLE
  5
1699E
102
{ACAD_REACTORS
330
15812
102
}
330
15812
100
AcDbVisualStyle
  2
JitterOff
 70
    20
177
     3
291
     1
 70
    58
 90
        2
176
     0
 90
        2
176
     0
 90
        0
176
     0
 90
        0
176
     0
 40
0.6
176
     0
 40
30.0
176
     0
 62
     7
420
 16777215
176
     0
 90
        1
176
     0
 90
        4
176
     0
 62
     7
176
     0
 62
   257
176
     0
 90
        1
176
     0
 90
        1
176
     0
 40
1.0
176
     0
 90
       10
176
     2
 62
     7
176
     0
 40
1.0
176
     0
 90
        1
176
     0
 90
        6
176
     0
 90
        2
176
     0
 62
     7
176
     0
 90
        5
176
     0
 90
        0
176
     0
 90
        0
176
     0
290
     0
176
     0
 90
        1
176
     0
 40
0.0
176
     0
 90
        0
176
     0
290
     0
176
     0
290
     1
176
     0
290
     1
176
     0
290
     0
176
     0
290
     0
176
     0
290
     0
176
     0
290
     0
176
     0
290
     0
176
     0
290
     0
176
     0
 90
       50
176
     0
 40
0.0
176
     0
 40
1.0
176
     0
 90
        0
176
     0
 62
    18
420
        0
176
     0
 90
       50
176
     0
 90
        3
176
     0
 62
     5
420
      255
176
     0
290
     0
176
     0
 90
       50
176
     0
 90
       50
176
     0
 90
       50
176
     0
290
     0
176
     0
 90
       50
176
     0
 62
   256
176
     0
 40
1.0
176
     0
 90
        2
176
     0
  1
strokes_ogs.tif
176
     0
290
     0
176
     0
 40
1.0
176
     0
 40
1.0
176
     0
  0
VISUALSTYLE
  5
15820
102
{ACAD_REACTORS
330
15812
102
}
330
15812
100
AcDbVisualStyle
  2
Linepattern
 70
    14
177
     3
291
     1
 70
    58
 90
        2
176
     1
 90
        2
176
     1
 90
        0
176
     1
 90
        0
176
     1
 40
0.6
176
     1
 40
30.0
176
     1
 62
     7
420
 16777215
176
     1
 90
        1
176
     1
 90
        4
176
     1
 62
     7
176
     1
 62
   257
176
     1
 90
        7
176
     1
 90
        7
176
     1
 40
1.0
176
     1
 90
        8
176
     1
 62
     7
176
     1
 40
1.0
176
     1
 90
        1
176
     1
 90
        6
176
     1
 90
        2
176
     1
 62
     7
176
     1
 90
        5
176
     1
 90
        0
176
     1
 90
        0
176
     1
290
     0
176
     1
 90
        1
176
     1
 40
0.0
176
     1
 90
        0
176
     1
290
     0
176
     1
290
     1
176
     1
290
     1
176
     1
290
     0
176
     1
290
     0
176
     1
290
     0
176
     1
290
     0
176
     1
290
     0
176
     1
290
     0
176
     1
 90
       50
176
     1
 40
0.0
176
     1
 40
1.0
176
     1
 90
        0
176
     1
 62
    18
420
        0
176
     1
 90
       50
176
     1
 90
        3
176
     1
 62
     5
420
      255
176
     1
290
     0
176
     1
 90
       50
176
     1
 90
       50
176
     1
 90
       50
176
     1
290
     0
176
     1
 90
       50
176
     1
 62
   256
176
     0
 40
1.0
176
     0
 90
        2
176
     1
  1
strokes_ogs.tif
176
     1
290
     0
176
     1
 40
1.0
176
     1
 40
1.0
176
     1
  0
VISUALSTYLE
  5
1699F
102
{ACAD_REACTORS
330
15812
102
}
330
15812
100
AcDbVisualStyle
  2
OverhangOff
 70
    21
177
     3
291
     1
 70
    58
 90
        2
176
     0
 90
        2
176
     0
 90
        0
176
     0
 90
        0
176
     0
 40
0.6
176
     0
 40
30.0
176
     0
 62
     7
420
 16777215
176
     0
 90
        1
176
     0
 90
        4
176
     0
 62
     7
176
     0
 62
   257
176
     0
 90
        1
176
     0
 90
        1
176
     0
 40
1.0
176
     0
 90
        9
176
     2
 62
     7
176
     0
 40
1.0
176
     0
 90
        1
176
     0
 90
        6
176
     0
 90
        2
176
     0
 62
     7
176
     0
 90
        5
176
     0
 90
        0
176
     0
 90
        0
176
     0
290
     0
176
     0
 90
        1
176
     0
 40
0.0
176
     0
 90
        0
176
     0
290
     0
176
     0
290
     1
176
     0
290
     1
176
     0
290
     0
176
     0
290
     0
176
     0
290
     0
176
     0
290
     0
176
     0
290
     0
176
     0
290
     0
176
     0
 90
       50
176
     0
 40
0.0
176
     0
 40
1.0
176
     0
 90
        0
176
     0
 62
    18
420
        0
176
     0
 90
       50
176
     0
 90
        3
176
     0
 62
     5
420
      255
176
     0
290
     0
176
     0
 90
       50
176
     0
 90
       50
176
     0
 90
       50
176
     0
290
     0
176
     0
 90
       50
176
     0
 62
   256
176
     0
 40
1.0
176
     0
 90
        2
176
     0
  1
strokes_ogs.tif
176
     0
290
     0
176
     0
 40
1.0
176
     0
 40
1.0
176
     0
  0
VISUALSTYLE
  5
1581C
102
{ACAD_REACTORS
330
15812
102
}
330
15812
100
AcDbVisualStyle
  2
Realistic
 70
     8
177
     3
291
     0
 70
    58
 90
        2
176
     1
 90
        2
176
     1
 90
        0
176
     1
 90
        0
176
     1
 40
0.6
176
     1
 40
30.0
176
     1
 62
     7
420
 16777215
176
     1
 90
        1
176
     1
 90
        0
176
     1
 62
     7
176
     1
 62
   257
176
     1
 90
        1
176
     1
 90
        1
176
     1
 40
1.0
176
     1
 90
        8
176
     1
 62
     8
420
  7895160
176
     1
 40
1.0
176
     1
 90
        1
176
     1
 90
        6
176
     1
 90
        2
176
     1
 62
     7
176
     1
 90
        5
176
     1
 90
        0
176
     1
 90
        0
176
     1
290
     0
176
     1
 90
       13
176
     1
 40
0.0
176
     1
 90
        0
176
     1
290
     0
176
     1
290
     1
176
     1
290
     1
176
     1
290
     0
176
     1
290
     0
176
     1
290
     0
176
     1
290
     0
176
     1
290
     0
176
     1
290
     0
176
     1
 90
       50
176
     1
 40
0.0
176
     1
 40
1.0
176
     1
 90
        0
176
     1
 62
    18
420
        0
176
     1
 90
       50
176
     1
 90
        3
176
     1
 62
     5
420
      255
176
     1
290
     0
176
     1
 90
       50
176
     1
 90
       50
176
     1
 90
       50
176
     1
290
     0
176
     1
 90
       50
176
     1
 62
   256
176
     0
 40
1.0
176
     0
 90
        2
176
     1
  1
strokes_ogs.tif
176
     1
290
     0
176
     1
 40
1.0
176
     1
 40
1.0
176
     1
  0
VISUALSTYLE
  5
1699D
102
{ACAD_REACTORS
330
15812
102
}
330
15812
100
AcDbVisualStyle
  2
Shaded
 70
    27
177
     3
291
     0
 70
    58
 90
        2
176
     1
 90
        2
176
     1
 90
        1
176
     1
 90
        2
176
     1
 40
0.6
176
     1
 40
30.0
176
     1
 62
     7
420
 16777215
176
     1
 90
        0
176
     1
 90
        4
176
     1
 62
     7
176
     1
 62
   257
176
     1
 90
        1
176
     1
 90
        1
176
     1
 40
1.0
176
     1
 90
        8
176
     1
 62
   257
176
     1
 40
1.0
176
     1
 90
        1
176
     1
 90
        6
176
     1
 90
        2
176
     1
 62
     8
420
  7895160
176
     1
 90
        3
176
     1
 90
        0
176
     1
 90
        0
176
     1
290
     0
176
     1
 90
        5
176
     1
 40
0.0
176
     1
 90
        0
176
     1
290
     0
176
     1
290
     1
176
     1
290
     1
176
     1
290
     0
176
     1
290
     0
176
     1
290
     0
176
     1
290
     0
176
     1
290
     0
176
     1
290
     0
176
     1
 90
       50
176
     1
 40
0.0
176
     1
 40
1.0
176
     1
 90
        0
176
     1
 62
    18
420
        0
176
     1
 90
       50
176
     1
 90
        3
176
     1
 62
     5
420
      255
176
     1
290
     0
176
     1
 90
       50
176
     1
 90
       50
176
     1
 90
       50
176
     1
290
     0
176
     1
 90
       50
176
     1
 62
   256
176
     0
 40
1.0
176
     0
 90
        2
176
     1
  1
strokes_ogs.tif
176
     1
290
     0
176
     1
 40
1.0
176
     1
 40
1.0
176
     1
  0
VISUALSTYLE
  5
1699C
102
{ACAD_REACTORS
330
15812
102
}
330
15812
100
AcDbVisualStyle
  2
Shaded with edges
 70
    26
177
     3
291
     0
 70
    58
 90
        2
176
     1
 90
        2
176
     1
 90
        1
176
     1
 90
        2
176
     1
 40
0.6
176
     1
 40
30.0
176
     1
 62
     7
420
 16777215
176
     1
 90
        1
176
     1
 90
        2
176
     1
 62
     7
176
     1
 62
   257
176
     1
 90
        2
176
     1
 90
        1
176
     1
 40
1.0
176
     1
 90
        8
176
     1
 62
   257
176
     1
 40
1.0
176
     1
 90
        1
176
     1
 90
        6
176
     1
 90
        2
176
     1
 62
     7
176
     1
 90
        3
176
     1
 90
        0
176
     1
 90
        0
176
     1
290
     0
176
     1
 90
        5
176
     1
 40
0.0
176
     1
 90
        0
176
     1
290
     0
176
     1
290
     1
176
     1
290
     1
176
     1
290
     0
176
     1
290
     0
176
     1
290
     0
176
     1
290
     0
176
     1
290
     0
176
     1
290
     0
176
     1
 90
       50
176
     1
 40
0.0
176
     1
 40
1.0
176
     1
 90
        0
176
     1
 62
    18
420
        0
176
     1
 90
       50
176
     1
 90
        3
176
     1
 62
     5
420
      255
176
     1
290
     0
176
     1
 90
       50
176
     1
 90
       50
176
     1
 90
       50
176
     1
290
     0
176
     1
 90
       50
176
     1
 62
   256
176
     0
 40
1.0
176
     0
 90
        2
176
     1
  1
strokes_ogs.tif
176
     1
290
     0
176
     1
 40
1.0
176
     1
 40
1.0
176
     1
  0
VISUALSTYLE
  5
16999
102
{ACAD_REACTORS
330
15812
102
}
330
15812
100
AcDbVisualStyle
  2
Shades of Gray
 70
    23
177
     3
291
     0
 70
    58
 90
        2
176
     1
 90
        2
176
     1
 90
        3
176
     1
 90
        0
176
     1
 40
0.6
176
     1
 40
30.0
176
     1
 62
     7
420
 16777215
176
     1
 90
        2
176
     1
 90
        2
176
     1
 62
     7
176
     1
 62
     7
176
     1
 90
        1
176
     1
 90
        1
176
     1
 40
40.0
176
     1
 90
        8
176
     1
 62
     7
176
     1
 40
1.0
176
     1
 90
        1
176
     1
 90
        6
176
     1
 90
        2
176
     1
 62
     7
176
     1
 90
        3
176
     1
 90
        0
176
     1
 90
        0
176
     1
290
     0
176
     1
 90
        1
176
     1
 40
0.0
176
     1
 90
        0
176
     1
290
     0
176
     1
290
     1
176
     1
290
     1
176
     1
290
     0
176
     1
290
     0
176
     1
290
     0
176
     1
290
     0
176
     1
290
     0
176
     1
290
     0
176
     1
 90
       50
176
     1
 40
0.0
176
     1
 40
1.0
176
     1
 90
        0
176
     1
 62
    18
420
        0
176
     1
 90
       50
176
     1
 90
        3
176
     1
 62
     5
420
      255
176
     1
290
     0
176
     1
 90
       50
176
     1
 90
       50
176
     1
 90
       50
176
     1
290
     0
176
     1
 90
       50
176
     1
 62
   256
176
     0
 40
1.0
176
     0
 90
        2
176
     1
  1
strokes_ogs.tif
176
     1
290
     0
176
     1
 40
1.0
176
     1
 40
1.0
176
     1
  0
VISUALSTYLE
  5
1699A
102
{ACAD_REACTORS
330
15812
102
}
330
15812
100
AcDbVisualStyle
  2
Sketchy
 70
    24
177
     3
291
     0
 70
    58
 90
        1
176
     1
 90
        2
176
     1
 90
        2
176
     1
 90
        0
176
     1
 40
0.6
176
     1
 40
30.0
176
     1
 62
     7
420
 16777215
176
     1
 90
        2
176
     1
 90
        2
176
     1
 62
     7
176
     1
 62
     7
176
     1
 90
        1
176
     1
 90
        1
176
     1
 40
40.0
176
     1
 90
       11
176
     1
 62
     7
176
     1
 40
1.0
176
     1
 90
        1
176
     1
 90
        6
176
     1
 90
        2
176
     1
 62
     7
176
     1
 90
        6
176
     1
 90
        0
176
     1
 90
        0
176
     1
290
     0
176
     1
 90
        1
176
     1
 40
0.0
176
     1
 90
        0
176
     1
290
     0
176
     1
290
     1
176
     1
290
     1
176
     1
290
     0
176
     1
290
     0
176
     1
290
     0
176
     1
290
     0
176
     1
290
     0
176
     1
290
     0
176
     1
 90
       50
176
     1
 40
0.0
176
     1
 40
1.0
176
     1
 90
        0
176
     1
 62
    18
420
        0
176
     1
 90
       50
176
     1
 90
        3
176
     1
 62
     5
420
      255
176
     1
290
     0
176
     1
 90
       50
176
     1
 90
       50
176
     1
 90
       50
176
     1
290
     0
176
     1
 90
       50
176
     1
 62
   256
176
     0
 40
1.0
176
     0
 90
        2
176
     1
  1
strokes_ogs.tif
176
     1
290
     0
176
     1
 40
1.0
176
     1
 40
1.0
176
     1
  0
VISUALSTYLE
  5
1581F
102
{ACAD_REACTORS
330
15812
102
}
330
15812
100
AcDbVisualStyle
  2
Thicken
 70
    13
177
     3
291
     1
 70
    58
 90
        2
176
     1
 90
        2
176
     1
 90
        0
176
     1
 90
        0
176
     1
 40
0.6
176
     1
 40
30.0
176
     1
 62
     7
420
 16777215
176
     1
 90
        1
176
     1
 90
        4
176
     1
 62
     7
176
     1
 62
   257
176
     1
 90
        1
176
     1
 90
        1
176
     1
 40
1.0
176
     1
 90
       12
176
     1
 62
     7
176
     1
 40
1.0
176
     1
 90
        1
176
     1
 90
        6
176
     1
 90
        2
176
     1
 62
     7
176
     1
 90
        5
176
     1
 90
        0
176
     1
 90
        0
176
     1
290
     0
176
     1
 90
        1
176
     1
 40
0.0
176
     1
 90
        0
176
     1
290
     0
176
     1
290
     1
176
     1
290
     1
176
     1
290
     0
176
     1
290
     0
176
     1
290
     0
176
     1
290
     0
176
     1
290
     0
176
     1
290
     0
176
     1
 90
       50
176
     1
 40
0.0
176
     1
 40
1.0
176
     1
 90
        0
176
     1
 62
    18
420
        0
176
     1
 90
       50
176
     1
 90
        3
176
     1
 62
     5
420
      255
176
     1
290
     0
176
     1
 90
       50
176
     1
 90
       50
176
     1
 90
       50
176
     1
290
     0
176
     1
 90
       50
176
     1
 62
   256
176
     0
 40
1.0
176
     0
 90
        2
176
     1
  1
strokes_ogs.tif
176
     1
290
     0
176
     1
 40
1.0
176
     1
 40
1.0
176
     1
  0
VISUALSTYLE
  5
16997
102
{ACAD_REACTORS
330
15812
102
}
330
15812
100
AcDbVisualStyle
  2
Wireframe
 70
     5
177
     3
291
     0
 70
    58
 90
        0
176
     1
 90
        2
176
     1
 90
        0
176
     1
 90
        0
176
     1
 40
0.6
176
     1
 40
30.0
176
     1
 62
     7
420
 16777215
176
     1
 90
        1
176
     1
 90
        4
176
     1
 62
     7
176
     1
 62
   257
176
     1
 90
        1
176
     1
 90
        1
176
     1
 40
1.0
176
     1
 90
        0
176
     1
 62
   257
176
     1
 40
1.0
176
     1
 90
        1
176
     1
 90
        6
176
     1
 90
        2
176
     1
 62
     7
176
     1
 90
        3
176
     1
 90
        0
176
     1
 90
        0
176
     1
290
     0
176
     1
 90
        1
176
     1
 40
0.0
176
     1
 90
        0
176
     1
290
     0
176
     1
290
     1
176
     1
290
     1
176
     1
290
     0
176
     1
290
     0
176
     1
290
     0
176
     1
290
     0
176
     1
290
     0
176
     1
290
     0
176
     1
 90
       50
176
     1
 40
0.0
176
     1
 40
1.0
176
     1
 90
        0
176
     1
 62
    18
420
        0
176
     1
 90
       50
176
     1
 90
        3
176
     1
 62
     5
420
      255
176
     1
290
     0
176
     1
 90
       50
176
     1
 90
       50
176
     1
 90
       50
176
     1
290
     0
176
     1
 90
       50
176
     1
 62
   256
176
     0
 40
1.0
176
     0
 90
        2
176
     1
  1
strokes_ogs.tif
176
     1
290
     0
176
     1
 40
1.0
176
     1
 40
1.0
176
     1
  0
VISUALSTYLE
  5
1699B
102
{ACAD_REACTORS
330
15812
102
}
330
15812
100
AcDbVisualStyle
  2
X-Ray
 70
    25
177
     3
291
     0
 70
    58
 90
        2
176
     1
 90
        2
176
     1
 90
        1
176
     1
 90
        1
176
     1
 40
0.5
176
     1
 40
30.0
176
     1
 62
     7
420
 16777215
176
     1
 90
        1
176
     1
 90
        0
176
     1
 62
     7
176
     1
 62
   257
176
     1
 90
        1
176
     1
 90
        1
176
     1
 40
1.0
176
     1
 90
        8
176
     1
 62
     7
176
     1
 40
1.0
176
     1
 90
        1
176
     1
 90
        6
176
     1
 90
        2
176
     1
 62
     7
176
     1
 90
        3
176
     1
 90
        0
176
     1
 90
        0
176
     1
290
     0
176
     1
 90
       13
176
     1
 40
0.0
176
     1
 90
        0
176
     1
290
     0
176
     1
290
     1
176
     1
290
     1
176
     1
290
     0
176
     1
290
     0
176
     1
290
     0
176
     1
290
     0
176
     1
290
     0
176
     1
290
     0
176
     1
 90
       50
176
     1
 40
0.0
176
     1
 40
1.0
176
     1
 90
        0
176
     1
 62
    18
420
        0
176
     1
 90
       50
176
     1
 90
        3
176
     1
 62
     5
420
      255
176
     1
290
     0
176
     1
 90
       50
176
     1
 90
       50
176
     1
 90
       50
176
     1
290
     0
176
     1
 90
       50
176
     1
 62
   256
176
     0
 40
1.0
176
     0
 90
        2
176
     1
  1
strokes_ogs.tif
176
     1
290
     0
176
     1
 40
1.0
176
     1
 40
1.0
176
     1
  0
DICTIONARYVAR
  5
17476
102
{ACAD_REACTORS
330
1633
102
}
330
1633
100
DictionaryVariables
280
     0
  1
1:1
  0
DICTIONARYVAR
  5
17472
102
{ACAD_REACTORS
330
1633
102
}
330
1633
100
DictionaryVariables
280
     0
  1
STANDARD
  0
DICTIONARYVAR
  5
15FDD
102
{ACAD_REACTORS
330
1633
102
}
330
1633
100
DictionaryVariables
280
     0
  1
STANDARD
  0
DICTIONARYVAR
  5
17473
102
{ACAD_REACTORS
330
1633
102
}
330
1633
100
DictionaryVariables
280
     0
  1
Metric50
  0
DICTIONARYVAR
  5
17474
102
{ACAD_REACTORS
330
1633
102
}
330
1633
100
DictionaryVariables
280
     0
  1
Metric50
  0
DICTIONARYVAR
  5
B5DA
102
{ACAD_REACTORS
330
1633
102
}
330
1633
100
DictionaryVariables
280
     0
  1
1
  0
DICTIONARYVAR
  5
17478
102
{ACAD_REACTORS
330
1633
102
}
330
1633
100
DictionaryVariables
280
     0
  1
1
  0
DICTIONARYVAR
  5
17479
102
{ACAD_REACTORS
330
1633
102
}
330
1633
100
DictionaryVariables
280
     0
  1
15
  0
DICTIONARYVAR
  5
17477
102
{ACAD_REACTORS
330
1633
102
}
330
1633
100
DictionaryVariables
280
     0
  1
0
  0
DICTIONARYVAR
  5
17475
102
{ACAD_REACTORS
330
1633
102
}
330
1633
100
DictionaryVariables
280
     0
  1
0
  0
DICTIONARYVAR
  5
1634
102
{ACAD_REACTORS
330
1633
102
}
330
1633
100
DictionaryVariables
280
     0
  1
96
  0
XRECORD
  5
D4EF
102
{ACAD_REACTORS
330
D4ED
102
}
330
D4ED
100
AcDbXrecord
280
     1
  0
DICTIONARY
  5
174CD
330
15824
100
AcDbDictionary
280
     1
281
     1
  3
ACAD_ROUNDTRIP_2008_TABLESTYLE_CELLSTYLEMAP
360
174CE
  0
CELLSTYLEMAP
  5
174CE
102
{ACAD_REACTORS
330
174CD
102
}
330
174CD
100
AcDbCellStyleMap
 90
        3
300
CELLSTYLE
  1
TABLEFORMAT_BEGIN
 90
        5
170
     1
 91
        0
 92
    32768
 62
   257
 93
        1
300
CONTENTFORMAT
  1
CONTENTFORMAT_BEGIN
 90
        0
 91
        0
 92
      512
 93
        0
300

 40
0.0
140
1.0
 94
        5
 62
     0
340
F
144
6.0
309
CONTENTFORMAT_END
171
     1
301
MARGIN
  1
CELLMARGIN_BEGIN
 40
1.5
 40
1.5
 40
1.5
 40
1.5
 40
0.18
 40
0.18
309
CELLMARGIN_END
 94
        6
 95
        1
302
GRIDFORMAT
  1
GRIDFORMAT_BEGIN
 90
        0
 91
        1
 62
     0
 92
       -2
340
0
 93
        0
 40
0.045
309
GRIDFORMAT_END
 95
        2
302
GRIDFORMAT
  1
GRIDFORMAT_BEGIN
 90
        0
 91
        1
 62
     0
 92
       -2
340
0
 93
        0
 40
0.045
309
GRIDFORMAT_END
 95
        4
302
GRIDFORMAT
  1
GRIDFORMAT_BEGIN
 90
        0
 91
        1
 62
     0
 92
       -2
340
0
 93
        0
 40
0.045
309
GRIDFORMAT_END
 95
        8
302
GRIDFORMAT
  1
GRIDFORMAT_BEGIN
 90
        0
 91
        1
 62
     0
 92
       -2
340
0
 93
        0
 40
0.045
309
GRIDFORMAT_END
 95
       16
302
GRIDFORMAT
  1
GRIDFORMAT_BEGIN
 90
        0
 91
        1
 62
     0
 92
       -2
340
0
 93
        0
 40
0.045
309
GRIDFORMAT_END
 95
       32
302
GRIDFORMAT
  1
GRIDFORMAT_BEGIN
 90
        0
 91
        1
 62
     0
 92
       -2
340
0
 93
        0
 40
0.045
309
GRIDFORMAT_END
309
TABLEFORMAT_END
  1
CELLSTYLE_BEGIN
 90
        1
 91
        1
300
_TITLE
309
CELLSTYLE_END
300
CELLSTYLE
  1
TABLEFORMAT_BEGIN
 90
        5
170
     1
 91
        0
 92
        0
 62
   257
 93
        1
300
CONTENTFORMAT
  1
CONTENTFORMAT_BEGIN
 90
        0
 91
        0
 92
      512
 93
        0
300

 40
0.0
140
1.0
 94
        5
 62
     0
340
F
144
4.5
309
CONTENTFORMAT_END
171
     1
301
MARGIN
  1
CELLMARGIN_BEGIN
 40
1.5
 40
1.5
 40
1.5
 40
1.5
 40
0.18
 40
0.18
309
CELLMARGIN_END
 94
        6
 95
        1
302
GRIDFORMAT
  1
GRIDFORMAT_BEGIN
 90
        0
 91
        1
 62
     0
 92
       -2
340
0
 93
        0
 40
0.045
309
GRIDFORMAT_END
 95
        2
302
GRIDFORMAT
  1
GRIDFORMAT_BEGIN
 90
        0
 91
        1
 62
     0
 92
       -2
340
0
 93
        0
 40
0.045
309
GRIDFORMAT_END
 95
        4
302
GRIDFORMAT
  1
GRIDFORMAT_BEGIN
 90
        0
 91
        1
 62
     0
 92
       -2
340
0
 93
        0
 40
0.045
309
GRIDFORMAT_END
 95
        8
302
GRIDFORMAT
  1
GRIDFORMAT_BEGIN
 90
        0
 91
        1
 62
     0
 92
       -2
340
0
 93
        0
 40
0.045
309
GRIDFORMAT_END
 95
       16
302
GRIDFORMAT
  1
GRIDFORMAT_BEGIN
 90
        0
 91
        1
 62
     0
 92
       -2
340
0
 93
        0
 40
0.045
309
GRIDFORMAT_END
 95
       32
302
GRIDFORMAT
  1
GRIDFORMAT_BEGIN
 90
        0
 91
        1
 62
     0
 92
       -2
340
0
 93
        0
 40
0.045
309
GRIDFORMAT_END
309
TABLEFORMAT_END
  1
CELLSTYLE_BEGIN
 90
        2
 91
        1
300
_HEADER
309
CELLSTYLE_END
300
CELLSTYLE
  1
TABLEFORMAT_BEGIN
 90
        5
170
     1
 91
        0
 92
        0
 62
   257
 93
        1
300
CONTENTFORMAT
  1
CONTENTFORMAT_BEGIN
 90
        0
 91
        0
 92
      512
 93
        0
300

 40
0.0
140
1.0
 94
        2
 62
     0
340
F
144
4.5
309
CONTENTFORMAT_END
171
     1
301
MARGIN
  1
CELLMARGIN_BEGIN
 40
1.5
 40
1.5
 40
1.5
 40
1.5
 40
0.18
 40
0.18
309
CELLMARGIN_END
 94
        6
 95
        1
302
GRIDFORMAT
  1
GRIDFORMAT_BEGIN
 90
        0
 91
        1
 62
     0
 92
       -2
340
0
 93
        0
 40
0.045
309
GRIDFORMAT_END
 95
        2
302
GRIDFORMAT
  1
GRIDFORMAT_BEGIN
 90
        0
 91
        1
 62
     0
 92
       -2
340
0
 93
        0
 40
0.045
309
GRIDFORMAT_END
 95
        4
302
GRIDFORMAT
  1
GRIDFORMAT_BEGIN
 90
        0
 91
        1
 62
     0
 92
       -2
340
0
 93
        0
 40
0.045
309
GRIDFORMAT_END
 95
        8
302
GRIDFORMAT
  1
GRIDFORMAT_BEGIN
 90
        0
 91
        1
 62
     0
 92
       -2
340
0
 93
        0
 40
0.045
309
GRIDFORMAT_END
 95
       16
302
GRIDFORMAT
  1
GRIDFORMAT_BEGIN
 90
        0
 91
        1
 62
     0
 92
       -2
340
0
 93
        0
 40
0.045
309
GRIDFORMAT_END
 95
       32
302
GRIDFORMAT
  1
GRIDFORMAT_BEGIN
 90
        0
 91
        1
 62
     0
 92
       -2
340
0
 93
        0
 40
0.045
309
GRIDFORMAT_END
309
TABLEFORMAT_END
  1
CELLSTYLE_BEGIN
 90
        3
 91
        2
300
_DATA
309
CELLSTYLE_END
  0
ENDSEC
  0
SECTION
  2
ACDSDATA
 70
     2
 71
     8
  0
ACDSSCHEMA
 90
        0
  1
AcDb_Thumbnail_Schema
  2
AcDbDs::ID
280
    10
 91
        8
  2
Thumbnail_Data
280
    15
 91
        0
101
ACDSRECORD
 95
        0
 90
        1
  2
AcDbDs::TreatedAsObjectData
280
     1
291
     1
101
ACDSRECORD
 95
        0
 90
        2
  2
AcDbDs::Legacy
280
     1
291
     1
101
ACDSRECORD
  1
AcDbDs::ID
 90
        3
  2
AcDs:Indexable
280
     1
291
     1
101
ACDSRECORD
  1
AcDbDs::ID
 90
        4
  2
AcDbDs::HandleAttribute
280
     7
282
     1
  0
ACDSSCHEMA
 90
        1
  1
AcDbDs::TreatedAsObjectDataSchema
  2
AcDbDs::TreatedAsObjectData
280
     1
 91
        0
  0
ACDSSCHEMA
 90
        2
  1
AcDbDs::LegacySchema
  2
AcDbDs::Legacy
280
     1
 91
        0
  0
ACDSSCHEMA
 90
        3
  1
AcDbDs::IndexedPropertySchema
  2
AcDs:Indexable
280
     1
 91
        0
  0
ACDSSCHEMA
 90
        4
  1
AcDbDs::HandleAttributeSchema
  2
AcDbDs::HandleAttribute
280
     7
 91
        1
284
     1
  0
ACDSRECORD
 90
        0
  2
AcDbDs::ID
280
    10
320
1741B
  2
Thumbnail_Data
280
    15
 94
     1660
310
89504E470D0A1A0A0000000D4948445200000100000000A50803000000840AD3BD00000300504C5445FFFFFFFFFFFFFFFFFF0000000000000000000000000000000000000000000000000000330000660000990000CC0000FF0033000033330033660033990033CC0033FF0066000066330066660066990066CC0066FF0099
310
000099330099660099990099CC0099FF00CC0000CC3300CC6600CC9900CCCC00CCFF00FF0000FF3300FF6600FF9900FFCC00FFFF3300003300333300663300993300CC3300FF3333003333333333663333993333CC3333FF3366003366333366663366993366CC3366FF3399003399333399663399993399CC3399FF33CC00
310
33CC3333CC6633CC9933CCCC33CCFF33FF0033FF3333FF6633FF9933FFCC33FFFF6600006600336600666600996600CC6600FF6633006633336633666633996633CC6633FF6666006666336666666666996666CC6666FF6699006699336699666699996699CC6699FF66CC0066CC3366CC6666CC9966CCCC66CCFF66FF0066
310
FF3366FF6666FF9966FFCC66FFFF9900009900339900669900999900CC9900FF9933009933339933669933999933CC9933FF9966009966339966669966999966CC9966FF9999009999339999669999999999CC9999FF99CC0099CC3399CC6699CC9999CCCC99CCFF99FF0099FF3399FF6699FF9999FFCC99FFFFCC0000CC00
310
33CC0066CC0099CC00CCCC00FFCC3300CC3333CC3366CC3399CC33CCCC33FFCC6600CC6633CC6666CC6699CC66CCCC66FFCC9900CC9933CC9966CC9999CC99CCCC99FFCCCC00CCCC33CCCC66CCCC99CCCCCCCCCCFFCCFF00CCFF33CCFF66CCFF99CCFFCCCCFFFFFF0000FF0033FF0066FF0099FF00CCFF00FFFF3300FF3333
310
FF3366FF3399FF33CCFF33FFFF6600FF6633FF6666FF6699FF66CCFF66FFFF9900FF9933FF9966FF9999FF99CCFF99FFFFCC00FFCC33FFCC66FFCC99FFCCCCFFCCFFFFFF00FFFF33FFFF66FFFF99FFFFCCFFFFFF0000000D0D0D1A1A1A2828283535354343435050505D5D5D6B6B6B787878868686939393A1A1A1AEAEAEBB
310
BBBBC9C9C9D6D6D6E4E4E4F1F1F1FFFFFF000000000000000000000000000000000000000000000000000000000000AD4AB4E4000003374944415478DAED9C6D9283200C86398EF7BF426E92DF7B88D5A2181D2B41F1A3FA301DCB4E530B4FC99B44E986BF97B7F017DEDC3E0034046DDB1B8F09C04B1B00DE0EA0D7800000
310
5C00000000002208005C000000000022685BF394B619C043BEE666AB0B00000000783680D78B2051000D00000088024401A2001A000000208200C00500000000208200C00500000000208200C005C6377A364FE86217008F022059006200481134073775DBCA527F0F0091F6D1B5F50F6D9A68D11E9BA19F1F683AAFD83F96
310
ADD3ABB262AAED0BDABFA82AAAD1728708F627EC9EBECFA5B389938EE679009F816A3F91CF307505C03095D9B4F2A824EC0630F0CEAD80C16230F7AD80F42C194793B9D1D74FB09BA252FF8E2258A60176B7D7FACEAF45CB5D00F21A2076058873054C2691DBCB761D80EEE775BA0EA0734AE9BD3275BD00FA6964F7F34DAD
310
4F0D83A39E6415DDB8B4948DC9B1A1F1B254D833B025DDD931A63B02707BA8FBBBBC078023CAE1A6AAD9736B813200FE541800D5A380A316D051FAD51134EC98643229391B80A316889940FCB97D261596E0E3154F6D0D259741CBB47072651A95A2807832C194FD8CB553AE1468869C49FBB6F6AE64346B77D10053A54870
310
5C3FB02E50500C2D1CCF01E0A90687B948A906C83C95BA5718EC56A6DA127BB116482E10CB7C870B74D70FACA12FD52A4C36ABD502DE6A70BB08066F3154946C9E570BECC8039C6A7E3980FA1EDA1CECF6D55CC05D0C955683BF02A06481165583075F02381580D58063CAE10B6B815200BF550C55BA396AB21F094E752F03
310
30B9225E143FCE00600A80B15B15403AAD9AB44BFCE5C0D12E6092A5D4ADBE02647EEF457E5B03C22D34E0C215106EA1013500F45ED90D4CFA7B9EABC5D396EFDF5C7150F7258773A3C0F12BE0100DA804E0780DB8B01C2E1CDE41E92D0016EEF9367703B0B5587F403174FBC6464900E00200000000104100E00200000000
310
104100E00200000000104100E002000000001041A2001A00000010058802440134000000400401800B00000000400401800B00000000400401800B00000000400401800B8CBF03FDF5B615C0E31B00DE0E20278200C00500000000208200C005000000003C5A04E3BFA67CE79130D8027879FB07A7DB3E834A607A0A000000
310
0049454E44AE426082
  0
ACDSRECORD
 90
        0
  2
AcDbDs::ID
280
    10
320
26A9
  2
Thumbnail_Data
280
    15
 94
     1639
310
89504E470D0A1A0A0000000D4948445200000100000000B308030000005185323B00000300504C5445212830FFFFFF2128300000000000000000000000000000000000000000000000000000330000660000990000CC0000FF0033000033330033660033990033CC0033FF0066000066330066660066990066CC0066FF0099
310
000099330099660099990099CC0099FF00CC0000CC3300CC6600CC9900CCCC00CCFF00FF0000FF3300FF6600FF9900FFCC00FFFF3300003300333300663300993300CC3300FF3333003333333333663333993333CC3333FF3366003366333366663366993366CC3366FF3399003399333399663399993399CC3399FF33CC00
310
33CC3333CC6633CC9933CCCC33CCFF33FF0033FF3333FF6633FF9933FFCC33FFFF6600006600336600666600996600CC6600FF6633006633336633666633996633CC6633FF6666006666336666666666996666CC6666FF6699006699336699666699996699CC6699FF66CC0066CC3366CC6666CC9966CCCC66CCFF66FF0066
310
FF3366FF6666FF9966FFCC66FFFF9900009900339900669900999900CC9900FF9933009933339933669933999933CC9933FF9966009966339966669966999966CC9966FF9999009999339999669999999999CC9999FF99CC0099CC3399CC6699CC9999CCCC99CCFF99FF0099FF3399FF6699FF9999FFCC99FFFFCC0000CC00
310
33CC0066CC0099CC00CCCC00FFCC3300CC3333CC3366CC3399CC33CCCC33FFCC6600CC6633CC6666CC6699CC66CCCC66FFCC9900CC9933CC9966CC9999CC99CCCC99FFCCCC00CCCC33CCCC66CCCC99CCCCCCCCCCFFCCFF00CCFF33CCFF66CCFF99CCFFCCCCFFFFFF0000FF0033FF0066FF0099FF00CCFF00FFFF3300FF3333
310
FF3366FF3399FF33CCFF33FFFF6600FF6633FF6666FF6699FF66CCFF66FFFF9900FF9933FF9966FF9999FF99CCFF99FFFFCC00FFCC33FFCC66FFCC99FFCCCCFFCCFFFFFF00FFFF33FFFF66FFFF99FFFFCCFFFFFF0000000D0D0D1A1A1A2828283535354343435050505D5D5D6B6B6B787878868686939393A1A1A1AEAEAEBB
310
BBBBC9C9C9D6D6D6E4E4E4F1F1F1FFFFFF0000000000000000000000000000000000000000000000000000000000002E4550F1000003224944415478DAED9B5D7A83201045590EFBDFC2AC69DEDB04AD4846C38F3460CE79693B5F1DF102835C12E70000000000000000000000000000000000000000000000000000E0BE68
310
660C0110E0F6028825805C76233948258DBDD5DA5F121AF720695312ACCDFD97490EE25509DF47B3FB4554D57B1FB524C49260F1C8520D7996075D9AA7693CFB0E8F0BF579617491AE5157D95BCB45227B01DC6BB065D4272340F6F1E284C9455B50AA6B40D212BD680AE8410DD0E61A20EFA323AC025A18FF48119C4A00FF
310
C7EFAF463404454A066FCF6570D7AC24EEA278768B7DFAAC6654220ACACA4B916AAF0167027843002912C0E708709A335A431E5D2DBB58085E2480B7E32E15E05D8B8B0570838C804484A616CFF42AEC8BA6F2C844AF7257083014564FF8C3497A63015C96006522CC3502A2278EFE3416966F12E0B54CDF6F0A7415170110
310
607C7AEE06FD7F3476E4ED30024C26C06635DA4E569300719EEAFCF626455B1A1B96F664958F77834D0244797CE48A7BA97CBDB6FDFAB8B535BB9C60544797073FE019D416017E1F34D80B2A8B151EF0BAA677655BAC2DC529850A189D2DEEFA1110E7F16E981190CC47ABAA340B703669EB6B8C1C77E7F8ABC05087AF5D47
310
C0419E2353F433664FCF1A7090A7DA15BEBAF3D783CA4585C78FE8F052B665B22E795805A2E46F05C87785CFFC9B22399755605742C40A36AC022F7952BF21DB6D3975D99DE55F65D680E4DFB5F314B8D4BD39D533E3B653ED058A05B8DB660843A447234BCE05AA47EC5D0490BADCF71901A5E7027E8253C0AEE7027EBE63
310
D04BCB17AEF0649E200220C052E4123F40C614402E3198F69EE0FA2159E7EA4B7F4F016CA3421A5E55565778316FD77DF0E6E6AA0E24C066576B6433CBDACCC5C82EF386BF7D04A41544ACAAF219AFEE9F6AC05C5F99996D199C5080EF9B02561114B3328E807D90575D04771F96DEAD7F9B9DEDC40D2280E9D76F2EBED436
310
B6E73278FD086019FCF265D0F656863A6A1C4900C9CEE98E3C413FB700655FC33913609441D5E364C83C6E75C937D3B68472DF6995E70ADFB3B6BC15E5AB9E1E0000000000000000000000000000000000000000000000000000000026E10730FDB9CA0674B0B00000000049454E44AE426082
  0
ENDSEC
  0
EOF
