  0
SECTION
  2
HEADER
  9
$ACADVER
  1
AC1032
  9
$ACADMAINTVER
 90
      155
  9
$DWGCODEPAGE
  3
ANSI_1252
  9
$LASTSAVEDBY
  1
falinoori
  9
$REQUIREDVERSIONS
160
                 0
  9
$INSBASE
 10
-172.8157996400925
 20
3075.607605431579
 30
0.0
  9
$EXTMIN
 10
-473.079891128216
 20
2640.216930972083
 30
-0.0000000000000018
  9
$EXTMAX
 10
416.6024805157735
 20
3280.982083211521
 30
0.0
  9
$LIMMIN
 10
0.0
 20
0.0
  9
$LIMMAX
 10
420.0
 20
297.0
  9
$ORTHOMODE
 70
     1
  9
$REGENMODE
 70
     1
  9
$FILLMODE
 70
     1
  9
$QTEXTMODE
 70
     0
  9
$MIRRTEXT
 70
     1
  9
$LTSCALE
 40
1.0
  9
$ATTMODE
 70
     1
  9
$TEXTSIZE
 40
2.5
  9
$TRACEWID
 40
10.0
  9
$TEXTSTYLE
  7
ROMANS
  9
$CLAYER
  8
LOCKABLE DOWEL SLEEVE
  9
$CELTYPE
  6
ByLayer
  9
$CECOLOR
 62
     0
  9
$CELTSCALE
 40
1.0
  9
$DISPSILH
 70
     0
  9
$DIMSCALE
 40
0.0
  9
$DIMASZ
 40
3.0
  9
$DIMEXO
 40
4.5
  9
$DIMDLI
 40
10.0
  9
$DIMRND
 40
0.1
  9
$DIMDLE
 40
1.25
  9
$DIMEXE
 40
1.5
  9
$DIMTP
 40
0.0
  9
$DIMTM
 40
0.0
  9
$DIMTXT
 40
2.5
  9
$DIMCEN
 40
0.0
  9
$DIMTSZ
 40
0.0
  9
$DIMTOL
 70
     0
  9
$DIMLIM
 70
     0
  9
$DIMTIH
 70
     0
  9
$DIMTOH
 70
     0
  9
$DIMSE1
 70
     0
  9
$DIMSE2
 70
     0
  9
$DIMTAD
 70
     1
  9
$DIMZIN
 70
    12
  9
$DIMBLK
  1

  9
$DIMASO
 70
     1
  9
$DIMSHO
 70
     0
  9
$DIMPOST
  1

  9
$DIMAPOST
  1

  9
$DIMALT
 70
     0
  9
$DIMALTD
 70
     2
  9
$DIMALTF
 40
0.039
  9
$DIMLFAC
 40
1.0
  9
$DIMTOFL
 70
     0
  9
$DIMTVP
 40
1.8
  9
$DIMTIX
 70
     0
  9
$DIMSOXD
 70
     0
  9
$DIMSAH
 70
     0
  9
$DIMBLK1
  1

  9
$DIMBLK2
  1

  9
$DIMSTYLE
  2
1-1
  9
$DIMCLRD
 70
     0
  9
$DIMCLRE
 70
     0
  9
$DIMCLRT
 70
     0
  9
$DIMTFAC
 40
0.9
  9
$DIMGAP
 40
1.5
  9
$DIMJUST
 70
     0
  9
$DIMSD1
 70
     0
  9
$DIMSD2
 70
     0
  9
$DIMTOLJ
 70
     1
  9
$DIMTZIN
 70
    12
  9
$DIMALTZ
 70
    12
  9
$DIMALTTZ
 70
    12
  9
$DIMUPT
 70
     0
  9
$DIMDEC
 70
     2
  9
$DIMTDEC
 70
     2
  9
$DIMALTU
 70
     2
  9
$DIMALTTD
 70
     2
  9
$DIMTXSTY
  7
STANDARD
  9
$DIMAUNIT
 70
     0
  9
$DIMADEC
 70
     4
  9
$DIMALTRND
 40
0.0
  9
$DIMAZIN
 70
     0
  9
$DIMDSEP
 70
    46
  9
$DIMATFIT
 70
     3
  9
$DIMFRAC
 70
     0
  9
$DIMLDRBLK
  1

  9
$DIMLUNIT
 70
     2
  9
$DIMLWD
 70
    -2
  9
$DIMLWE
 70
    -2
  9
$DIMTMOVE
 70
     2
  9
$DIMFXL
 40
1.0
  9
$DIMFXLON
 70
     0
  9
$DIMJOGANG
 40
0.7853981633974483
  9
$DIMTFILL
 70
     0
  9
$DIMTFILLCLR
 70
     0
  9
$DIMARCSYM
 70
     0
  9
$DIMLTYPE
  6

  9
$DIMLTEX1
  6

  9
$DIMLTEX2
  6

  9
$DIMTXTDIRECTION
 70
     0
  9
$LUNITS
 70
     2
  9
$LUPREC
 70
     2
  9
$SKETCHINC
 40
1.0
  9
$FILLETRAD
 40
0.0
  9
$AUNITS
 70
     0
  9
$AUPREC
 70
     4
  9
$MENU
  1
ACAD
  9
$ELEVATION
 40
0.0
  9
$PELEVATION
 40
0.0
  9
$THICKNESS
 40
0.0
  9
$LIMCHECK
 70
     0
  9
$CHAMFERA
 40
0.0
  9
$CHAMFERB
 40
0.0
  9
$CHAMFERC
 40
0.0
  9
$CHAMFERD
 40
0.0
  9
$SKPOLY
 70
     0
  9
$TDCREATE
 40
2449576.725081019
  9
$TDUCREATE
 40
2449576.308422917
  9
$TDUPDATE
 40
2459587.658344907
  9
$TDUUPDATE
 40
2459587.200011574
  9
$TDINDWG
 40
0.5941375231
  9
$TDUSRTIMER
 40
0.5941375231
  9
$USRTIMER
 70
     1
  9
$ANGBASE
 50
0.0
  9
$ANGDIR
 70
     0
  9
$PDMODE
 70
     3
  9
$PDSIZE
 40
0.0
  9
$PLINEWID
 40
0.0
  9
$SPLFRAME
 70
     0
  9
$SPLINETYPE
 70
     6
  9
$SPLINESEGS
 70
     6
  9
$HANDSEED
  5
E9F
  9
$SURFTAB1
 70
    12
  9
$SURFTAB2
 70
    12
  9
$SURFTYPE
 70
     6
  9
$SURFU
 70
    12
  9
$SURFV
 70
    12
  9
$UCSBASE
  2

  9
$UCSNAME
  2

  9
$UCSORG
 10
0.0
 20
0.0
 30
0.0
  9
$UCSXDIR
 10
1.0
 20
0.0
 30
0.0
  9
$UCSYDIR
 10
0.0
 20
1.0
 30
0.0
  9
$UCSORTHOREF
  2

  9
$UCSORTHOVIEW
 70
     0
  9
$UCSORGTOP
 10
0.0
 20
0.0
 30
0.0
  9
$UCSORGBOTTOM
 10
0.0
 20
0.0
 30
0.0
  9
$UCSORGLEFT
 10
0.0
 20
0.0
 30
0.0
  9
$UCSORGRIGHT
 10
0.0
 20
0.0
 30
0.0
  9
$UCSORGFRONT
 10
0.0
 20
0.0
 30
0.0
  9
$UCSORGBACK
 10
0.0
 20
0.0
 30
0.0
  9
$PUCSBASE
  2

  9
$PUCSNAME
  2

  9
$PUCSORG
 10
0.0
 20
0.0
 30
0.0
  9
$PUCSXDIR
 10
1.0
 20
0.0
 30
0.0
  9
$PUCSYDIR
 10
0.0
 20
1.0
 30
0.0
  9
$PUCSORTHOREF
  2

  9
$PUCSORTHOVIEW
 70
     0
  9
$PUCSORGTOP
 10
0.0
 20
0.0
 30
0.0
  9
$PUCSORGBOTTOM
 10
0.0
 20
0.0
 30
0.0
  9
$PUCSORGLEFT
 10
0.0
 20
0.0
 30
0.0
  9
$PUCSORGRIGHT
 10
0.0
 20
0.0
 30
0.0
  9
$PUCSORGFRONT
 10
0.0
 20
0.0
 30
0.0
  9
$PUCSORGBACK
 10
0.0
 20
0.0
 30
0.0
  9
$USERI1
 70
     0
  9
$USERI2
 70
     0
  9
$USERI3
 70
     0
  9
$USERI4
 70
     0
  9
$USERI5
 70
     0
  9
$USERR1
 40
0.0
  9
$USERR2
 40
0.0
  9
$USERR3
 40
0.0
  9
$USERR4
 40
0.0
  9
$USERR5
 40
0.0
  9
$WORLDVIEW
 70
     0
  9
$SHADEDGE
 70
     3
  9
$SHADEDIF
 70
    70
  9
$TILEMODE
 70
     1
  9
$MAXACTVP
 70
    16
  9
$PINSBASE
 10
0.0
 20
0.0
 30
0.0
  9
$PLIMCHECK
 70
     0
  9
$PEXTMIN
 10
0.0
 20
0.0
 30
0.0
  9
$PEXTMAX
 10
0.0
 20
0.0
 30
0.0
  9
$PLIMMIN
 10
0.0
 20
0.0
  9
$PLIMMAX
 10
12.0
 20
9.0
  9
$UNITMODE
 70
     0
  9
$VISRETAIN
 70
     0
  9
$PLINEGEN
 70
     0
  9
$PSLTSCALE
 70
     1
  9
$TREEDEPTH
 70
  3020
  9
$CMLSTYLE
  2
Standard
  9
$CMLJUST
 70
     0
  9
$CMLSCALE
 40
1.0
  9
$PROXYGRAPHICS
 70
     1
  9
$MEASUREMENT
 70
     0
  9
$CELWEIGHT
370
    -1
  9
$ENDCAPS
280
     0
  9
$JOINSTYLE
280
     0
  9
$LWDISPLAY
290
     0
  9
$INSUNITS
 70
     0
  9
$HYPERLINKBASE
  1

  9
$STYLESHEET
  1

  9
$XEDIT
290
     1
  9
$CEPSNTYPE
380
     0
  9
$PSTYLEMODE
290
     1
  9
$FINGERPRINTGUID
  2
{6DBE7634-FBA0-4C23-9B03-E5D4CC6DF0EB}
  9
$VERSIONGUID
  2
{471AE497-EFD9-384B-8C32-8111085EF88D}
  9
$EXTNAMES
290
     1
  9
$PSVPSCALE
 40
0.0
  9
$OLESTARTUP
290
     0
  9
$SORTENTS
280
   127
  9
$INDEXCTL
280
     0
  9
$HIDETEXT
280
     1
  9
$XCLIPFRAME
280
     0
  9
$HALOGAP
280
     0
  9
$OBSCOLOR
 70
   257
  9
$OBSLTYPE
280
     0
  9
$INTERSECTIONDISPLAY
280
     0
  9
$INTERSECTIONCOLOR
 70
   257
  9
$DIMASSOC
280
     2
  9
$PROJECTNAME
  1

  9
$CAMERADISPLAY
290
     0
  9
$LENSLENGTH
 40
50.0
  9
$CAMERAHEIGHT
 40
0.0
  9
$STEPSPERSEC
 40
2.0
  9
$STEPSIZE
 40
6.0
  9
$3DDWFPREC
 40
2.0
  9
$PSOLWIDTH
 40
0.25
  9
$PSOLHEIGHT
 40
4.0
  9
$LOFTANG1
 40
1.570796326794896
  9
$LOFTANG2
 40
1.570796326794896
  9
$LOFTMAG1
 40
0.0
  9
$LOFTMAG2
 40
0.0
  9
$LOFTPARAM
 70
     7
  9
$LOFTNORMALS
280
     1
  9
$LATITUDE
 40
37.795
  9
$LONGITUDE
 40
-122.394
  9
$NORTHDIRECTION
 40
0.0
  9
$TIMEZONE
 70
 -8000
  9
$LIGHTGLYPHDISPLAY
280
     1
  9
$TILEMODELIGHTSYNCH
280
     1
  9
$CMATERIAL
347
39
  9
$SOLIDHIST
280
     0
  9
$SHOWHIST
280
     1
  9
$DWFFRAME
280
     2
  9
$DGNFRAME
280
     0
  9
$REALWORLDSCALE
290
     1
  9
$INTERFERECOLOR
 62
     1
  9
$INTERFEREOBJVS
345
52
  9
$INTERFEREVPVS
346
D7E
  9
$CSHADOW
280
     0
  9
$SHADOWPLANELOCATION
 40
0.0
  0
ENDSEC
  0
SECTION
  2
CLASSES
  0
CLASS
  1
ACDBDICTIONARYWDFLT
  2
AcDbDictionaryWithDefault
  3
ObjectDBX Classes
 90
        0
 91
        1
280
     0
281
     0
  0
CLASS
  1
DIMASSOC
  2
AcDbDimAssoc
  3
"AcDbDimAssoc|Product Desc:     AcDim ARX App For Dimension|Company:          Autodesk, Inc.|WEB Address:      www.autodesk.com"
 90
        0
 91
        0
280
     0
281
     0
  0
CLASS
  1
MATERIAL
  2
AcDbMaterial
  3
ObjectDBX Classes
 90
     1153
 91
        3
280
     0
281
     0
  0
CLASS
  1
VISUALSTYLE
  2
AcDbVisualStyle
  3
ObjectDBX Classes
 90
     4095
 91
       26
280
     0
281
     0
  0
CLASS
  1
TABLESTYLE
  2
AcDbTableStyle
  3
ObjectDBX Classes
 90
     4095
 91
        3
280
     0
281
     0
  0
CLASS
  1
SCALE
  2
AcDbScale
  3
ObjectDBX Classes
 90
     1153
 91
       33
280
     0
281
     0
  0
CLASS
  1
MLEADERSTYLE
  2
AcDbMLeaderStyle
  3
ACDB_MLEADERSTYLE_CLASS
 90
     4095
 91
        1
280
     0
281
     0
  0
CLASS
  1
CELLSTYLEMAP
  2
AcDbCellStyleMap
  3
ObjectDBX Classes
 90
     1152
 91
        3
280
     0
281
     0
  0
CLASS
  1
DICTIONARYVAR
  2
AcDbDictionaryVar
  3
ObjectDBX Classes
 90
        0
 91
        9
280
     0
281
     0
  0
CLASS
  1
SORTENTSTABLE
  2
AcDbSortentsTable
  3
ObjectDBX Classes
 90
        0
 91
        3
280
     0
281
     0
  0
CLASS
  1
MULTILEADER
  2
AcDbMLeader
  3
ACDB_MLEADER_CLASS
 90
     1025
 91
        0
280
     0
281
     1
  0
CLASS
  1
AEC_REFEDIT_STATUS_TRACKER
  2
AecDbRefEditStatusTracker
  3
AecArchBase80|Product Desc: Autodesk Architectural Desktop 2007 |Company: Autodesk,Inc. |WEB Address: www.autodesk.com
 90
      129
 91
        0
280
     0
281
     0
  0
CLASS
  1
NPOCOLLECTION
  2
AcDbImpNonPersistentObjectsCollection
  3
ObjectDBX Classes
 90
     1153
 91
        0
280
     0
281
     0
  0
CLASS
  1
EXACXREFPANELOBJECT
  2
ExAcXREFPanelObject
  3
EXAC_ESW
 90
     1025
 91
        0
280
     0
281
     0
  0
CLASS
  1
ACDBSECTIONVIEWSTYLE
  2
AcDbSectionViewStyle
  3
ObjectDBX Classes
 90
     1025
 91
        3
280
     0
281
     0
  0
CLASS
  1
ACDBDETAILVIEWSTYLE
  2
AcDbDetailViewStyle
  3
ObjectDBX Classes
 90
     1025
 91
        3
280
     0
281
     0
  0
ENDSEC
  0
SECTION
  2
TABLES
  0
TABLE
  2
VPORT
  5
2D
102
{ACAD_XDICTIONARY
360
31
102
}
330
0
100
AcDbSymbolTable
 70
     1
  0
VPORT
  5
2E
330
2D
100
AcDbSymbolTableRecord
100
AcDbViewportTableRecord
  2
*Active
 70
     0
 10
0.0
 20
0.0
 11
1.0
 21
1.0
 12
74.70025368436336
 22
2928.402150781364
 13
0.0
 23
0.0
 14
10.0
 24
10.0
 15
0.0
 25
0.0
 16
0.0
 26
0.0
 36
1.0
 17
0.0
 27
0.0
 37
0.0
 40
686.3633664681299
 41
1.787234042553191
 42
50.0
 43
0.0
 44
0.0
 50
0.0
 51
0.0
 71
     0
 72
  2000
 73
     1
 74
     2
 75
     0
 76
     0
 77
     0
 78
     1
281
     0
 65
     1
110
0.0
120
0.0
130
0.0
111
1.0
121
0.0
131
0.0
112
0.0
122
1.0
132
0.0
 79
     0
146
0.0
348
2F
 60
     3
 61
     5
292
     1
282
     1
141
0.0
142
0.0
 63
   250
421
  3355443
1001
ACAD_NAV_VCDISPLAY
1070
     3
  0
ENDTAB
  0
TABLE
  2
LTYPE
  5
28
330
0
100
AcDbSymbolTable
 70
    20
  0
LTYPE
  5
29
330
28
100
AcDbSymbolTableRecord
100
AcDbLinetypeTableRecord
  2
ByBlock
 70
     0
  3

 72
    65
 73
     0
 40
0.0
  0
LTYPE
  5
2A
330
28
100
AcDbSymbolTableRecord
100
AcDbLinetypeTableRecord
  2
ByLayer
 70
     0
  3

 72
    65
 73
     0
 40
0.0
  0
LTYPE
  5
15
330
28
100
AcDbSymbolTableRecord
100
AcDbLinetypeTableRecord
  2
CONTINUOUS
 70
     0
  3
Solid line
 72
    65
 73
     0
 40
0.0
  0
LTYPE
  5
79
330
28
100
AcDbSymbolTableRecord
100
AcDbLinetypeTableRecord
  2
CENTER
 70
     0
  3
____ _ ____ _ ____ _ ____ _ ____ _ ____ _ ____ 
 72
    65
 73
     4
 40
50.8
 49
31.75
 74
     0
 49
-6.349999999999999
 74
     0
 49
6.349999999999999
 74
     0
 49
-6.349999999999999
 74
     0
  0
LTYPE
  5
FF
330
28
100
AcDbSymbolTableRecord
100
AcDbLinetypeTableRecord
  2
CENTER2
 70
     0
  3
___ _ ___ _ ___ _ ___ _ ___ _ ___ _ ___ _ ___ _
 72
    65
 73
     4
 40
28.575
 49
19.05
 74
     0
 49
-3.174999999999999
 74
     0
 49
3.174999999999999
 74
     0
 49
-3.174999999999999
 74
     0
  0
LTYPE
  5
117
330
28
100
AcDbSymbolTableRecord
100
AcDbLinetypeTableRecord
  2
HIDDEN2
 70
     0
  3
_ _ _ _ _ _ _ _ _ _ _ _ _ _ _ _ _ _ _ _ _ _ _ _
 72
    65
 73
     2
 40
4.762499999999999
 49
3.174999999999999
 74
     0
 49
-1.587499999999999
 74
     0
  0
LTYPE
  5
FD
330
28
100
AcDbSymbolTableRecord
100
AcDbLinetypeTableRecord
  2
HIDDENX2
 70
     0
  3
____ ____ ____ ____ ____ ____ ____ ____ ____ __
 72
    65
 73
     2
 40
19.05
 49
12.7
 74
     0
 49
-6.349999999999999
 74
     0
  0
LTYPE
  5
7B
330
28
100
AcDbSymbolTableRecord
100
AcDbLinetypeTableRecord
  2
HIDDEN1_01
 70
     0
  3
__ __ __ __ __ __ __ __ __ __ __ __ __ __ __ __
 72
    65
 73
     2
 40
5.0
 49
3.0
 74
     0
 49
-2.0
 74
     0
  0
LTYPE
  5
E14
330
28
100
AcDbSymbolTableRecord
100
AcDbLinetypeTableRecord
  2
DASHED2
 70
     0
  3
Dashed (.5x) _ _ _ _ _ _ _ _ _ _ _ _ _ _ _ _ _
 72
    65
 73
     2
 40
9.524999999999998
 49
6.349999999999999
 74
     0
 49
-3.174999999999999
 74
     0
  0
LTYPE
  5
E15
330
28
100
AcDbSymbolTableRecord
100
AcDbLinetypeTableRecord
  2
CENTER4
 70
     0
  3
Center (.25x) ___ _ ___ _ ___ _ ___ _ ___ _ ___
 72
    65
 73
     4
 40
12.7
 49
7.9375
 74
     0
 49
-1.587499999999999
 74
     0
 49
1.587499999999999
 74
     0
 49
-1.587499999999999
 74
     0
  0
LTYPE
  5
E16
330
28
100
AcDbSymbolTableRecord
100
AcDbLinetypeTableRecord
  2
HIDDEN
 70
     0
  3
Hidden __ __ __ __ __ __ __ __ __ __ __ __ __ _
 72
    65
 73
     2
 40
0.375
 49
0.25
 74
     0
 49
-0.125
 74
     0
  0
LTYPE
  5
E17
330
28
100
AcDbSymbolTableRecord
100
AcDbLinetypeTableRecord
  2
PHANTOM2
 70
     0
  3
Phantom (.5x) ___ _ _ ___ _ _ ___ _ _ ___ _ _
 72
    65
 73
     6
 40
1.25
 49
0.625
 74
     0
 49
-0.125
 74
     0
 49
0.125
 74
     0
 49
-0.125
 74
     0
 49
0.125
 74
     0
 49
-0.125
 74
     0
  0
LTYPE
  5
E18
330
28
100
AcDbSymbolTableRecord
100
AcDbLinetypeTableRecord
  2
Amconstr
 70
     0
  3
_______________________
 72
    65
 73
     2
 40
9999.0
 49
9999.0
 74
     0
 49
0.0
 74
     0
  0
LTYPE
  5
E19
330
28
100
AcDbSymbolTableRecord
100
AcDbLinetypeTableRecord
  2
Amzigzag2
 70
     0
  3
/\/-/\/-/\/-/\/-/\/-/\/
 72
    65
 73
     2
 40
0.4401
 49
0.0001
 74
     4
 75
   136
340
E40
 46
0.0016
 50
0.0
 44
0.0
 45
0.0
 49
-0.4400000000000001
 74
     0
  0
LTYPE
  5
E1A
330
28
100
AcDbSymbolTableRecord
100
AcDbLinetypeTableRecord
  2
ACANSTGB
 70
     0
  3
__ . . __ . .
 72
    65
 73
     6
 40
0.35433070866
 49
0.15748031496
 74
     0
 49
-0.03937007874
 74
     0
 49
0.03937007874
 74
     0
 49
-0.03937007874
 74
     0
 49
0.03937007874
 74
     0
 49
-0.03937007874
 74
     0
  0
LTYPE
  5
E1B
330
28
100
AcDbSymbolTableRecord
100
AcDbLinetypeTableRecord
  2
ACANSTGL
 70
     0
  3
_ _ _ _ _
 72
    65
 73
     2
 40
0.11811023622
 49
0.07874015748
 74
     0
 49
-0.03937007874
 74
     0
  0
LTYPE
  5
E1C
330
28
100
AcDbSymbolTableRecord
100
AcDbLinetypeTableRecord
  2
AM_ISO02W050
 70
     0
  3
__ __ __ __ __ __ __ __ __ __ __ __ __ __ __
 72
    65
 73
     2
 40
7.5
 49
6.0
 74
     0
 49
-1.5
 74
     0
  0
LTYPE
  5
E1D
330
28
100
AcDbSymbolTableRecord
100
AcDbLinetypeTableRecord
  2
AM_ISO08W050
 70
     0
  3
____ . ____ . ____ . ____ . ____ . ____ . ____
 72
    65
 73
     4
 40
18.0
 49
12.0
 74
     0
 49
-1.5
 74
     0
 49
3.0
 74
     0
 49
-1.5
 74
     0
  0
LTYPE
  5
E1E
330
28
100
AcDbSymbolTableRecord
100
AcDbLinetypeTableRecord
  2
AM_ISO09W050
 70
     0
  3
_____ . . _____ . . _____ . . ____ .. ____
 72
    65
 73
     6
 40
22.5
 49
12.0
 74
     0
 49
-1.5
 74
     0
 49
3.0
 74
     0
 49
-1.5
 74
     0
 49
3.0
 74
     0
 49
-1.5
 74
     0
  0
LTYPE
  5
E1F
330
28
100
AcDbSymbolTableRecord
100
AcDbLinetypeTableRecord
  2
AM_ISO08W050x2
 70
     0
  3
__ . __ . __ . __ . __ . __
 72
    65
 73
     4
 40
9.0
 49
6.0
 74
     0
 49
-0.75
 74
     0
 49
1.5
 74
     0
 49
-0.75
 74
     0
  0
LTYPE
  5
E20
330
28
100
AcDbSymbolTableRecord
100
AcDbLinetypeTableRecord
  2
AM_ISO02W050x2
 70
     0
  3
 _ _ _ _ _ _ _ _ _ _ _ _
 72
    65
 73
     2
 40
3.75
 49
3.0
 74
     0
 49
-0.75
 74
     0
  0
LTYPE
  5
E21
330
28
100
AcDbSymbolTableRecord
100
AcDbLinetypeTableRecord
  2
Amzigzag
 70
     0
  3
/\/-/\/-/\/-/\/-/\/-/\/
 72
    65
 73
     2
 40
11.0001
 49
0.0001
 74
     4
 75
   136
340
E40
 46
0.04
 50
0.0
 44
0.0
 45
0.0
 49
-11.0
 74
     0
  0
ENDTAB
  0
TABLE
  2
LAYER
  5
1F
102
{ACAD_XDICTIONARY
360
20
102
}
330
0
100
AcDbSymbolTable
 70
    24
  0
LAYER
  5
6
102
{ACAD_XDICTIONARY
360
7
102
}
330
1F
100
AcDbSymbolTableRecord
100
AcDbLayerTableRecord
  2
0
 70
     0
 62
     7
  6
CONTINUOUS
370
    -3
390
9
347
C
348
0
  0
LAYER
  5
76
102
{ACAD_XDICTIONARY
360
77
102
}
330
1F
100
AcDbSymbolTableRecord
100
AcDbLayerTableRecord
  2
GRID
 70
     0
 62
     1
  6
CONTINUOUS
370
    -3
390
9
347
C
348
0
  0
LAYER
  5
17C
330
1F
100
AcDbSymbolTableRecord
100
AcDbLayerTableRecord
  2
SPECP
 70
     0
 62
     6
  6
CONTINUOUS
370
    -3
390
9
347
C
348
0
  0
LAYER
  5
11A
330
1F
100
AcDbSymbolTableRecord
100
AcDbLayerTableRecord
  2
LOCKABLE DOWEL FORMER
 70
     0
 62
     1
  6
CONTINUOUS
370
    -3
390
9
347
C
348
0
1001
AcAecLayerStandard
1000

1000

  0
LAYER
  5
4C
330
1F
100
AcDbSymbolTableRecord
100
AcDbLayerTableRecord
  2
LOCKABLE DOWEL SLEEVE
 70
     0
 62
     1
  6
CONTINUOUS
370
    -3
390
9
347
C
348
0
1001
AcAecLayerStandard
1000

1000

  0
LAYER
  5
F8
330
1F
100
AcDbSymbolTableRecord
100
AcDbLayerTableRecord
  2
LOCKABLE DOWEL LOCKING PLATE
 70
     0
 62
     1
  6
CONTINUOUS
370
    -3
390
9
347
C
348
0
1001
AcAecLayerStandard
1000

1000

  0
LAYER
  5
88
330
1F
100
AcDbSymbolTableRecord
100
AcDbLayerTableRecord
  2
LOCKABLE DOWEL DOWEL COMPONENT
 70
     0
 62
     1
  6
CONTINUOUS
370
    -3
390
9
347
C
348
0
1001
AcAecLayerStandard
1000

1000

  0
LAYER
  5
71B
330
1F
100
AcDbSymbolTableRecord
100
AcDbLayerTableRecord
  2
DEFPOINTS
 70
     0
 62
     7
  6
CONTINUOUS
290
     0
370
    -3
390
9
347
C
348
0
  0
LAYER
  5
E22
102
{ACAD_XDICTIONARY
360
E23
102
}
330
1F
100
AcDbSymbolTableRecord
100
AcDbLayerTableRecord
  2
DIMENSIONS
 70
     0
 62
     2
  6
CONTINUOUS
370
    -3
390
9
347
C
348
0
  0
LAYER
  5
E24
102
{ACAD_XDICTIONARY
360
E25
102
}
330
1F
100
AcDbSymbolTableRecord
100
AcDbLayerTableRecord
  2
HATCH
 70
     0
 62
     9
  6
CONTINUOUS
370
    -3
390
9
347
C
348
0
  0
LAYER
  5
E26
102
{ACAD_XDICTIONARY
360
E27
102
}
330
1F
100
AcDbSymbolTableRecord
100
AcDbLayerTableRecord
  2
OUTLINE
 70
     0
 62
     4
  6
CONTINUOUS
370
    30
390
9
347
C
348
0
  0
LAYER
  5
E28
102
{ACAD_XDICTIONARY
360
E29
102
}
330
1F
100
AcDbSymbolTableRecord
100
AcDbLayerTableRecord
  2
ANCON_CENTRE
 70
     0
 62
     1
  6
CENTER
370
     9
390
9
347
C
348
0
  0
LAYER
  5
E2A
330
1F
100
AcDbSymbolTableRecord
100
AcDbLayerTableRecord
  2
AM_0
 70
     0
 62
     7
  6
CONTINUOUS
370
    30
390
9
347
C
348
0
1001
AcAecLayerStandard
1000

1000

  0
LAYER
  5
E2B
102
{ACAD_XDICTIONARY
360
E2C
102
}
330
1F
100
AcDbSymbolTableRecord
100
AcDbLayerTableRecord
  2
ANCON-TEXT
 70
     0
 62
     6
  6
CONTINUOUS
370
    -3
390
9
347
C
348
0
  0
LAYER
  5
E2D
330
1F
100
AcDbSymbolTableRecord
100
AcDbLayerTableRecord
  2
AM_5
 70
     0
 62
     3
  6
CONTINUOUS
370
    15
390
9
347
C
348
0
1001
AcAecLayerStandard
1000

1000

  0
LAYER
  5
E2E
102
{ACAD_XDICTIONARY
360
E2F
102
}
330
1F
100
AcDbSymbolTableRecord
100
AcDbLayerTableRecord
  2
CENTRE
 70
     0
 62
     1
  6
CENTER
370
    -3
390
9
347
C
348
0
  0
LAYER
  5
E30
102
{ACAD_XDICTIONARY
360
E31
102
}
330
1F
100
AcDbSymbolTableRecord
100
AcDbLayerTableRecord
  2
HIDDEN
 70
     0
 62
     9
  6
DASHED2
370
    -3
390
9
347
C
348
0
  0
LAYER
  5
E32
102
{ACAD_XDICTIONARY
360
E33
102
}
330
1F
100
AcDbSymbolTableRecord
100
AcDbLayerTableRecord
  2
TEXT
 70
     0
 62
     2
  6
CONTINUOUS
370
    -3
390
9
347
C
348
0
  0
LAYER
  5
E34
102
{ACAD_XDICTIONARY
360
E35
102
}
330
1F
100
AcDbSymbolTableRecord
100
AcDbLayerTableRecord
  2
OUTLINE1
 70
     0
 62
     9
  6
CONTINUOUS
370
    -3
390
9
347
C
348
0
  0
LAYER
  5
E36
102
{ACAD_XDICTIONARY
360
E37
102
}
330
1F
100
AcDbSymbolTableRecord
100
AcDbLayerTableRecord
  2
DIMS
 70
     0
 62
     2
  6
CONTINUOUS
370
    13
390
9
347
C
348
0
  0
LAYER
  5
E38
102
{ACAD_XDICTIONARY
360
E39
102
}
330
1F
100
AcDbSymbolTableRecord
100
AcDbLayerTableRecord
  2
ANCON_OUTLINE
 70
     0
 62
     4
  6
CONTINUOUS
370
    25
390
9
347
C
348
0
  0
LAYER
  5
E3A
102
{ACAD_XDICTIONARY
360
E3B
102
}
330
1F
100
AcDbSymbolTableRecord
100
AcDbLayerTableRecord
  2
ANCON_OUTLINE1
 70
     0
 62
     9
  6
CONTINUOUS
370
    15
390
9
347
C
348
0
  0
LAYER
  5
E3C
102
{ACAD_XDICTIONARY
360
E3D
102
}
330
1F
100
AcDbSymbolTableRecord
100
AcDbLayerTableRecord
  2
ANCON_HIDDEN
 70
     0
 62
     5
  6
HIDDEN
370
     9
390
9
347
C
348
0
  0
LAYER
  5
E3E
330
1F
100
AcDbSymbolTableRecord
100
AcDbLayerTableRecord
  2
AM_8
 70
     0
 62
     1
  6
CONTINUOUS
370
    25
390
9
347
C
348
0
1001
AcAecLayerStandard
1000

1000

  0
ENDTAB
  0
TABLE
  2
STYLE
  5
25
330
0
100
AcDbSymbolTable
 70
     7
  0
STYLE
  5
26
330
25
100
AcDbSymbolTableRecord
100
AcDbTextStyleTableRecord
  2
STANDARD
 70
     0
 40
0.0
 41
1.0
 50
0.0
 71
     0
 42
5.0
  3
simplex
  4

  0
STYLE
  5
4E
330
25
100
AcDbSymbolTableRecord
100
AcDbTextStyleTableRecord
  2
ROMANS
 70
     0
 40
0.0
 41
1.0
 50
0.0
 71
     0
 42
2.5
  3
romans
  4

  0
STYLE
  5
E3F
330
25
100
AcDbSymbolTableRecord
100
AcDbTextStyleTableRecord
  2
BOLD
 70
     0
 40
0.0
 41
1.0
 50
0.0
 71
     0
 42
3.0
  3
arial.ttf
  4

1001
ACAD
1000
Arial
1071
       34
  0
STYLE
  5
E40
330
25
100
AcDbSymbolTableRecord
100
AcDbTextStyleTableRecord
  2

 70
     1
 40
0.0
 41
1.0
 50
0.0
 71
     0
 42
2.0
  3
genltshp.shx
  4

  0
STYLE
  5
E41
330
25
100
AcDbSymbolTableRecord
100
AcDbTextStyleTableRecord
  2
ACANSGDT
 70
     0
 40
0.0
 41
1.0
 50
0.0
 71
     0
 42
2.0
  3
amgdt.shx
  4

  0
STYLE
  5
E42
330
25
100
AcDbSymbolTableRecord
100
AcDbTextStyleTableRecord
  2
ACANSTS
 70
     0
 40
0.0
 41
1.0
 50
0.0
 71
     0
 42
2.0
  3
romans.shx
  4

  0
STYLE
  5
E43
330
25
100
AcDbSymbolTableRecord
100
AcDbTextStyleTableRecord
  2
ARIAL
 70
     0
 40
0.0
 41
1.0
 50
0.0
 71
     0
 42
0.2
  3
arial.ttf
  4

1001
ACAD
1000
Arial
1071
       34
  0
ENDTAB
  0
TABLE
  2
VIEW
  5
2B
330
0
100
AcDbSymbolTable
 70
     0
  0
ENDTAB
  0
TABLE
  2
UCS
  5
2C
330
0
100
AcDbSymbolTable
 70
     0
  0
ENDTAB
  0
TABLE
  2
APPID
  5
32
330
0
100
AcDbSymbolTable
 70
    37
  0
APPID
  5
24
330
32
100
AcDbSymbolTableRecord
100
AcDbRegAppTableRecord
  2
ACAD
 70
     0
  0
APPID
  5
4D
330
32
100
AcDbSymbolTableRecord
100
AcDbRegAppTableRecord
  2
AcAecLayerStandard
 70
     0
  0
APPID
  5
256
330
32
100
AcDbSymbolTableRecord
100
AcDbRegAppTableRecord
  2
ACAD_DSTYLE_DIMJAG
 70
     0
  0
APPID
  5
257
330
32
100
AcDbSymbolTableRecord
100
AcDbRegAppTableRecord
  2
ACAD_DSTYLE_DIMBREAK
 70
     0
  0
APPID
  5
258
330
32
100
AcDbSymbolTableRecord
100
AcDbRegAppTableRecord
  2
ACAD_DSTYLE_DIMTALN
 70
     0
  0
APPID
  5
259
330
32
100
AcDbSymbolTableRecord
100
AcDbRegAppTableRecord
  2
ACAD_PSEXT
 70
     0
  0
APPID
  5
25A
330
32
100
AcDbSymbolTableRecord
100
AcDbRegAppTableRecord
  2
ACAD_DSTYLE_DIMJOGGED_JOGANGLE_SYMBOL
 70
     0
  0
APPID
  5
36A
330
32
100
AcDbSymbolTableRecord
100
AcDbRegAppTableRecord
  2
ACAD_EXEMPT_FROM_CAD_STANDARDS
 70
     0
  0
APPID
  5
8A2
330
32
100
AcDbSymbolTableRecord
100
AcDbRegAppTableRecord
  2
ACAD_DSTYLE_DIMRADIAL_EXTENSION
 70
     0
  0
APPID
  5
8A3
330
32
100
AcDbSymbolTableRecord
100
AcDbRegAppTableRecord
  2
GENIUS_GENODEF_13
 70
     0
  0
APPID
  5
8A4
330
32
100
AcDbSymbolTableRecord
100
AcDbRegAppTableRecord
  2
ACAD_NAV_VCDISPLAY
 70
     0
  0
APPID
  5
8A5
330
32
100
AcDbSymbolTableRecord
100
AcDbRegAppTableRecord
  2
ACAD_DSTYLE_DIMINSPECT
 70
     0
  0
APPID
  5
8A6
330
32
100
AcDbSymbolTableRecord
100
AcDbRegAppTableRecord
  2
GENIUS_GENOBJ-N-FIL_13
 70
     0
  0
APPID
  5
CD8
330
32
100
AcDbSymbolTableRecord
100
AcDbRegAppTableRecord
  2
ACAD_MLEADERVER
 70
     0
  0
APPID
  5
CED
330
32
100
AcDbSymbolTableRecord
100
AcDbRegAppTableRecord
  2
AcLayerTools
 70
     0
  0
APPID
  5
E50
330
32
100
AcDbSymbolTableRecord
100
AcDbRegAppTableRecord
  2
AcadAnnoPO
 70
     0
  0
APPID
  5
E51
330
32
100
AcDbSymbolTableRecord
100
AcDbRegAppTableRecord
  2
MCAD_NO_VIS
 70
     0
  0
APPID
  5
E52
330
32
100
AcDbSymbolTableRecord
100
AcDbRegAppTableRecord
  2
ACAD_TEMP_GRAPHIC
 70
     0
  0
APPID
  5
E53
330
32
100
AcDbSymbolTableRecord
100
AcDbRegAppTableRecord
  2
ACATTRIBSERVICES
 70
     0
  0
APPID
  5
E54
330
32
100
AcDbSymbolTableRecord
100
AcDbRegAppTableRecord
  2
DESIGNERASSEMBLIES
 70
     0
  0
APPID
  5
E55
330
32
100
AcDbSymbolTableRecord
100
AcDbRegAppTableRecord
  2
GENIUS_GENSCREG_15
 70
     0
  0
APPID
  5
E56
330
32
100
AcDbSymbolTableRecord
100
AcDbRegAppTableRecord
  2
GENIUS_GENOBJ-N-SDF_13
 70
     0
  0
APPID
  5
E57
330
32
100
AcDbSymbolTableRecord
100
AcDbRegAppTableRecord
  2
GradientColor1ACI
 70
     0
  0
APPID
  5
E58
330
32
100
AcDbSymbolTableRecord
100
AcDbRegAppTableRecord
  2
GradientColor2ACI
 70
     0
  0
APPID
  5
E59
330
32
100
AcDbSymbolTableRecord
100
AcDbRegAppTableRecord
  2
GEVID1539949790
 70
     0
  0
APPID
  5
E5A
330
32
100
AcDbSymbolTableRecord
100
AcDbRegAppTableRecord
  2
GENIUS_GENBH_13
 70
     0
  0
APPID
  5
E5B
330
32
100
AcDbSymbolTableRecord
100
AcDbRegAppTableRecord
  2
GENIUS_GENOENT_13
 70
     0
  0
APPID
  5
E5C
330
32
100
AcDbSymbolTableRecord
100
AcDbRegAppTableRecord
  2
GENIUS_GENOBJ-NBEHI-BHF_13
 70
     0
  0
APPID
  5
E5D
330
32
100
AcDbSymbolTableRecord
100
AcDbRegAppTableRecord
  2
GENIUS_GENOLIS_13
 70
     0
  0
APPID
  5
E5E
330
32
100
AcDbSymbolTableRecord
100
AcDbRegAppTableRecord
  2
GENIUS_GENOREF_13
 70
     0
  0
APPID
  5
E5F
330
32
100
AcDbSymbolTableRecord
100
AcDbRegAppTableRecord
  2
GENIUS_GENOBJ-NBEHI-BHB_13
 70
     0
  0
APPID
  5
E60
330
32
100
AcDbSymbolTableRecord
100
AcDbRegAppTableRecord
  2
GEVID1539949791
 70
     0
  0
APPID
  5
E61
330
32
100
AcDbSymbolTableRecord
100
AcDbRegAppTableRecord
  2
GENIUS_GENDTOL_13
 70
     0
  0
APPID
  5
E62
330
32
100
AcDbSymbolTableRecord
100
AcDbRegAppTableRecord
  2
AcadAnnoMonitorAlertIconDisabled
 70
     0
  0
APPID
  5
E63
330
32
100
AcDbSymbolTableRecord
100
AcDbRegAppTableRecord
  2
AcDbBlockRepETag
 70
     0
  0
APPID
  5
E64
330
32
100
AcDbSymbolTableRecord
100
AcDbRegAppTableRecord
  2
GENIUS_GENOBJ-N-HTC_13
 70
     0
  0
APPID
  5
E65
330
32
100
AcDbSymbolTableRecord
100
AcDbRegAppTableRecord
  2
GENIUS_GENHATCH_13
 70
     0
  0
ENDTAB
  0
TABLE
  2
DIMSTYLE
  5
33
330
0
100
AcDbSymbolTable
 70
    13
100
AcDbDimStyleTable
 71
     1
340
34
  0
DIMSTYLE
105
34
330
33
100
AcDbSymbolTableRecord
100
AcDbDimStyleTableRecord
  2
1-1
 70
     0
 40
0.0
 41
3.0
 42
4.5
 43
10.0
 44
1.5
 45
0.1
 46
1.25
 73
     0
 74
     0
 77
     1
 78
    12
140
2.5
141
0.0
143
0.039
145
1.8
146
0.9
147
1.5
271
     2
272
     2
279
     2
284
    12
285
    12
286
    12
340
26
  0
DIMSTYLE
105
E44
330
33
100
AcDbSymbolTableRecord
100
AcDbDimStyleTableRecord
  2
STANDARD
 70
     0
 41
3.0
 42
3.0
 43
10.0
 44
3.0
 73
     0
 74
     0
 77
     1
140
3.0
141
3.0
147
1.5
172
     1
176
     2
177
     2
178
   254
271
     2
272
     2
289
     0
340
26
  0
DIMSTYLE
105
E45
330
33
100
AcDbSymbolTableRecord
100
AcDbDimStyleTableRecord
  2
STD_1_1
 70
     0
 41
2.5
 42
2.0
 43
5.0
 44
2.0
 73
     0
 74
     0
 77
     1
 78
     8
140
3.0
141
0.0
143
0.0394
147
1.0
171
     4
271
     2
272
     0
273
     8
274
     4
340
26
  0
DIMSTYLE
105
E46
330
33
100
AcDbSymbolTableRecord
100
AcDbDimStyleTableRecord
  2
AM_ANSI
 70
     0
  4
mm
 41
0.12
 42
0.05
 43
0.5
 44
0.1
 47
0.1
 48
0.1
 78
     7
 79
     2
 90
     1
140
0.12
141
0.0
146
0.71
147
0.06
176
   256
177
   256
178
     2
274
     4
284
     7
340
26
345
29
346
29
347
29
371
    -1
372
    -1
1001
ACAD_DSTYLE_DIMJAG
1070
   388
1040
1.5
1001
ACAD_DSTYLE_DIMBREAK
1070
   391
1040
0.125
  0
DIMSTYLE
105
E47
330
33
100
AcDbSymbolTableRecord
100
AcDbDimStyleTableRecord
  2
AM_ANSI$3
 70
     0
  4
mm
 41
0.12
 42
0.05
 43
0.5
 44
0.1
 47
0.1
 48
0.1
 78
     7
 79
     2
 90
     1
140
0.12
141
0.0
146
0.71
147
0.06
176
   256
177
   256
178
     2
274
     4
284
     7
288
     1
289
     0
340
26
345
29
346
29
347
29
371
    -1
372
    -1
1001
ACAD_DSTYLE_DIMBREAK
1070
   391
1040
0.125
1001
ACAD_DSTYLE_DIMJAG
1070
   388
1040
1.5
  0
DIMSTYLE
105
E48
330
33
100
AcDbSymbolTableRecord
100
AcDbDimStyleTableRecord
  2
AM_ANSI$4
 70
     0
  4
mm
 41
0.12
 42
0.05
 43
0.5
 44
0.1
 47
0.1
 48
0.1
 78
     7
 79
     2
 90
     1
140
0.12
141
0.0
146
0.71
147
0.06
176
   256
177
   256
178
     2
274
     4
284
     7
288
     1
289
     0
340
26
345
29
346
29
347
29
371
    -1
372
    -1
1001
ACAD_DSTYLE_DIMBREAK
1070
   391
1040
0.125
1001
ACAD_DSTYLE_DIMJAG
1070
   388
1040
1.5
  0
DIMSTYLE
105
E49
330
33
100
AcDbSymbolTableRecord
100
AcDbDimStyleTableRecord
  2
AM_ANSI$7
 70
     0
  4
mm
 41
0.12
 42
0.05
 43
0.5
 44
0.1
 47
0.1
 48
0.1
 78
     7
 79
     2
 90
     1
140
0.12
141
0.0
146
0.71
147
0.06
176
   256
177
   256
178
     2
274
     4
284
     7
340
26
345
29
346
29
347
29
371
    -1
372
    -1
1001
ACAD_DSTYLE_DIMBREAK
1070
   391
1040
0.125
1001
ACAD_DSTYLE_DIMJAG
1070
   388
1040
1.5
  0
DIMSTYLE
105
E4A
330
33
100
AcDbSymbolTableRecord
100
AcDbDimStyleTableRecord
  2
AM_ANSI$SF
 70
     0
  4
mm
 41
0.12
 42
0.05
 43
0.5
 44
0.1
 47
0.1
 48
0.1
 75
     1
 76
     1
 78
     7
 79
     2
 90
     1
140
0.12
141
0.0
146
0.71
147
0.06
176
   256
177
   256
178
     2
274
     4
284
     7
340
26
345
29
346
29
347
29
371
    -1
372
    -1
1001
ACAD_DSTYLE_DIMBREAK
1070
   391
1040
0.125
1001
ACAD_DSTYLE_DIMJAG
1070
   388
1040
1.5
  0
DIMSTYLE
105
E4B
330
33
100
AcDbSymbolTableRecord
100
AcDbDimStyleTableRecord
  2
AM_ANSI$SH
 70
     0
  4
mm
 41
0.12
 42
0.05
 43
0.5
 44
0.1
 47
0.1
 48
0.1
 75
     1
 76
     1
 78
     7
 79
     2
 90
     1
140
0.12
141
0.0
146
0.71
147
0.06
173
     1
176
   256
177
   256
178
     2
274
     4
284
     7
340
26
343
E0B
345
29
346
29
347
29
371
    -1
372
    -1
1001
ACAD_DSTYLE_DIMBREAK
1070
   391
1040
0.125
1001
ACAD_DSTYLE_DIMJAG
1070
   388
1040
1.5
  0
DIMSTYLE
105
E4C
330
33
100
AcDbSymbolTableRecord
100
AcDbDimStyleTableRecord
  2
STD_1_1$0
 70
     0
 41
2.5
 42
2.0
 43
5.0
 44
2.0
 73
     0
 74
     0
 77
     1
 78
     8
140
3.0
141
0.0
143
0.0394
147
1.0
171
     4
271
     2
272
     0
273
     8
274
     4
340
26
1001
ACAD_DSTYLE_DIMBREAK
1070
   391
1040
0.125
1001
ACAD_DSTYLE_DIMJAG
1070
   388
1040
1.5
  0
DIMSTYLE
105
E4D
330
33
100
AcDbSymbolTableRecord
100
AcDbDimStyleTableRecord
  2
1-2
 70
     0
 40
2.5
 41
2.5
 42
2.0
 43
5.0
 44
2.0
 73
     0
 74
     0
 77
     1
 78
     8
140
3.0
141
0.0
143
0.0394
147
1.0
171
     4
271
     2
272
     0
273
     8
274
     4
340
26
  0
DIMSTYLE
105
E4E
330
33
100
AcDbSymbolTableRecord
100
AcDbDimStyleTableRecord
  2
STDX2_1_1
 70
     0
 40
0.0
 41
6.0
 42
3.0
 43
5.0
 44
3.0
 73
     0
 74
     0
 77
     1
 78
     8
140
6.0
141
0.0
143
0.0394
147
3.0
171
     4
271
     2
272
     2
273
     8
274
     4
340
26
1001
ACAD_DSTYLE_DIMJAG
1070
   388
1040
1.5
1001
ACAD_DSTYLE_DIMTALN
1070
   392
1070
     0
  0
DIMSTYLE
105
E4F
330
33
100
AcDbSymbolTableRecord
100
AcDbDimStyleTableRecord
  2
2-1
 70
     0
 40
0.0
 41
3.0
 42
4.5
 43
0.0
 44
1.5
 45
1.0
 73
     0
 74
     0
 77
     1
 78
    12
140
3.0
141
0.0
146
1.25
147
1.0
284
    12
285
    12
286
    12
340
26
1001
ACAD_DSTYLE_DIMJAG
1070
   388
1040
1.5
1001
ACAD_DSTYLE_DIMTALN
1070
   392
1070
     0
  0
ENDTAB
  0
TABLE
  2
BLOCK_RECORD
  5
1
330
0
100
AcDbSymbolTable
 70
     4
  0
BLOCK_RECORD
  5
2
102
{ACAD_XDICTIONARY
360
3
102
}
330
1
100
AcDbSymbolTableRecord
100
AcDbBlockTableRecord
  2
*Model_Space
340
17
 70
     0
280
     1
281
     0
  0
BLOCK_RECORD
  5
CA6
330
1
100
AcDbSymbolTableRecord
100
AcDbBlockTableRecord
  2
*Paper_Space
340
CA7
 70
     0
280
     1
281
     0
  0
BLOCK_RECORD
  5
12B
330
1
100
AcDbSymbolTableRecord
100
AcDbBlockTableRecord
  2
*X0
340
0
102
{BLKREFS
331
12A
102
}
 70
     0
280
     1
281
     0
  0
BLOCK_RECORD
  5
E0B
330
1
100
AcDbSymbolTableRecord
100
AcDbBlockTableRecord
  2
GENAXEH
340
0
 70
     0
280
     1
281
     0
  0
BLOCK_RECORD
  5
E0F
330
1
100
AcDbSymbolTableRecord
100
AcDbBlockTableRecord
  2
_ACMFILLEDHALF
340
0
 70
     0
280
     1
281
     0
  0
BLOCK_RECORD
  5
E6A
102
{ACAD_XDICTIONARY
360
E80
102
}
330
1
100
AcDbSymbolTableRecord
100
AcDbBlockTableRecord
  2
BT 12
340
0
 70
     0
280
     1
281
     0
  0
ENDTAB
  0
ENDSEC
  0
SECTION
  2
BLOCKS
  0
BLOCK
  5
5
330
2
100
AcDbEntity
  8
0
100
AcDbBlockBegin
  2
*Model_Space
 70
     0
 10
0.0
 20
0.0
 30
0.0
  3
*Model_Space
  1

  0
ENDBLK
  5
16
330
2
100
AcDbEntity
  8
0
100
AcDbBlockEnd
  0
BLOCK
  5
CA8
330
CA6
100
AcDbEntity
 67
     1
  8
0
100
AcDbBlockBegin
  2
*Paper_Space
 70
     0
 10
0.0
 20
0.0
 30
0.0
  3
*Paper_Space
  1

  0
ENDBLK
  5
CA9
330
CA6
100
AcDbEntity
 67
     1
  8
0
100
AcDbBlockEnd
  0
BLOCK
  5
12C
330
12B
100
AcDbEntity
  8
0
100
AcDbBlockBegin
  2
*X0
 70
     1
 10
0.0
 20
0.0
 30
0.0
  3
*X0
  1

  0
LINE
  5
12D
330
12B
100
AcDbEntity
  8
0
 62
     0
100
AcDbLine
 10
195.5814268087933
 20
147.6268591222841
 30
0.0
 11
195.8430013671036
 21
147.8884336805943
 31
0.0
  0
LINE
  5
12E
330
12B
100
AcDbEntity
  8
0
 62
     0
100
AcDbLine
 10
195.8987187564175
 20
147.9441510699082
 30
0.0
 11
196.1604174924433
 21
148.205849805934
 31
0.0
  0
LINE
  5
12F
330
12B
100
AcDbEntity
  8
0
 62
     0
100
AcDbLine
 10
195.8430013671036
 20
147.8884336805943
 30
0.0
 11
195.8987187564175
 21
147.9441510699082
 31
0.0
  0
LINE
  5
130
330
12B
100
AcDbEntity
  8
0
 62
     0
100
AcDbLine
 10
195.5444267977305
 20
147.6796616724319
 30
0.0
 11
195.7524673756712
 21
147.8877022503726
 31
0.0
  0
LINE
  5
131
330
12B
100
AcDbEntity
  8
0
 62
     0
100
AcDbLine
 10
195.8987187564175
 20
148.0339536311189
 30
0.0
 11
196.1076149422955
 21
148.2428498169969
 31
0.0
  0
LINE
  5
132
330
12B
100
AcDbEntity
  8
0
 62
     0
100
AcDbLine
 10
195.7524673756712
 20
147.8877022503726
 30
0.0
 11
195.8987187564175
 21
148.0339536311189
 31
0.0
  0
LINE
  5
133
330
12B
100
AcDbEntity
  8
0
 62
     0
100
AcDbLine
 10
195.5151296645027
 20
147.7401671004149
 30
0.0
 11
195.6612648444809
 21
147.886302280393
 31
0.0
  0
LINE
  5
134
330
12B
100
AcDbEntity
  8
0
 62
     0
100
AcDbLine
 10
195.8987187564175
 20
148.1237561923296
 30
0.0
 11
196.0471095143125
 21
148.2721469502246
 31
0.0
  0
LINE
  5
135
330
12B
100
AcDbEntity
  8
0
 62
     0
100
AcDbLine
 10
195.6612648444809
 20
147.886302280393
 30
0.0
 11
195.8987187564175
 21
148.1237561923296
 31
0.0
  0
LINE
  5
136
330
12B
100
AcDbEntity
  8
0
 62
     0
100
AcDbLine
 10
195.4950258363717
 20
147.8098658334945
 30
0.0
 11
195.5693785080192
 21
147.8842185051419
 31
0.0
  0
LINE
  5
137
330
12B
100
AcDbEntity
  8
0
 62
     0
100
AcDbLine
 10
195.8987187564175
 20
148.2135587535403
 30
0.0
 11
195.9774107812329
 21
148.2922507783557
 31
0.0
  0
LINE
  5
138
330
12B
100
AcDbEntity
  8
0
 62
     0
100
AcDbLine
 10
195.5693785080192
 20
147.8842185051419
 30
0.0
 11
195.8987187564175
 21
148.2135587535403
 31
0.0
  0
LINE
  5
139
330
12B
100
AcDbEntity
  8
0
 62
     0
100
AcDbLine
 10
195.4874427351548
 20
147.8920852934883
 30
0.0
 11
195.8951913212391
 21
148.2998338795726
 31
0.0
  0
LINE
  5
13A
330
12B
100
AcDbEntity
  8
0
 62
     0
100
AcDbLine
 10
195.5017665306227
 20
147.9962116501669
 30
0.0
 11
195.7910649645605
 21
148.2855100841047
 31
0.0
  0
LINE
  5
13B
330
12B
100
AcDbEntity
  8
0
 62
     0
100
AcDbLine
 10
195.6255001039968
 20
147.5811298562768
 30
0.0
 11
195.8987187564175
 21
147.8543485086975
 31
0.0
  0
LINE
  5
13C
330
12B
100
AcDbEntity
  8
0
 62
     0
100
AcDbLine
 10
195.9328814224328
 20
147.8885111747128
 30
0.0
 11
196.2061467584506
 21
148.1617765107306
 31
0.0
  0
LINE
  5
13D
330
12B
100
AcDbEntity
  8
0
 62
     0
100
AcDbLine
 10
195.8987187564175
 20
147.8543485086975
 30
0.0
 11
195.9328814224328
 21
147.8885111747128
 31
0.0
  0
LINE
  5
13E
330
12B
100
AcDbEntity
  8
0
 62
     0
100
AcDbLine
 10
195.6765848418251
 20
147.5424120328945
 30
0.0
 11
195.8987187564175
 21
147.7645459474869
 31
0.0
  0
LINE
  5
13F
330
12B
100
AcDbEntity
  8
0
 62
     0
100
AcDbLine
 10
196.0221215226894
 20
147.8879487137588
 30
0.0
 11
196.2448645818329
 21
148.1106917729023
 31
0.0
  0
LINE
  5
140
330
12B
100
AcDbEntity
  8
0
 62
     0
100
AcDbLine
 10
195.8987187564175
 20
147.7645459474869
 30
0.0
 11
196.0221215226894
 21
147.8879487137588
 31
0.0
  0
LINE
  5
141
330
12B
100
AcDbEntity
  8
0
 62
     0
100
AcDbLine
 10
195.7351614899214
 20
147.5111861197801
 30
0.0
 11
195.8987187564175
 21
147.6747433862762
 31
0.0
  0
LINE
  5
142
330
12B
100
AcDbEntity
  8
0
 62
     0
100
AcDbLine
 10
196.1107350625526
 20
147.8867596924113
 30
0.0
 11
196.2760904949473
 21
148.0521151248059
 31
0.0
  0
LINE
  5
143
330
12B
100
AcDbEntity
  8
0
 62
     0
100
AcDbLine
 10
195.8987187564175
 20
147.6747433862762
 30
0.0
 11
196.1107350625526
 21
147.8867596924113
 31
0.0
  0
LINE
  5
144
330
12B
100
AcDbEntity
  8
0
 62
     0
100
AcDbLine
 10
195.8024660335981
 20
147.4886881022461
 30
0.0
 11
195.8987187564175
 21
147.5849408250655
 31
0.0
  0
LINE
  5
145
330
12B
100
AcDbEntity
  8
0
 62
     0
100
AcDbLine
 10
196.1987348839304
 20
147.8849569525784
 30
0.0
 11
196.2985885124813
 21
147.9848105811292
 31
0.0
  0
LINE
  5
146
330
12B
100
AcDbEntity
  8
0
 62
     0
100
AcDbLine
 10
195.8987187564175
 20
147.5849408250655
 30
0.0
 11
196.1987348839304
 21
147.8849569525784
 31
0.0
  0
LINE
  5
147
330
12B
100
AcDbEntity
  8
0
 62
     0
100
AcDbLine
 10
195.8812196371476
 20
147.4776391445849
 30
0.0
 11
195.8987187564175
 21
147.4951382638548
 31
0.0
  0
LINE
  5
148
330
12B
100
AcDbEntity
  8
0
 62
     0
100
AcDbLine
 10
196.2861333070879
 20
147.8825528145251
 30
0.0
 11
196.3096374701425
 21
147.9060569775798
 31
0.0
  0
LINE
  5
149
330
12B
100
AcDbEntity
  8
0
 62
     0
100
AcDbLine
 10
195.8987187564175
 20
147.4951382638548
 30
0.0
 11
196.2861333070879
 21
147.8825528145251
 31
0.0
  0
LINE
  5
14A
330
12B
100
AcDbEntity
  8
0
 62
     0
100
AcDbLine
 10
195.9784524383585
 20
147.4850693845851
 30
0.0
 11
196.3022072301423
 21
147.8088241763689
 31
0.0
  0
LINE
  5
14B
330
12B
100
AcDbEntity
  8
0
 62
     0
100
AcDbLine
 10
196.1353224713711
 20
147.552136856387
 30
0.0
 11
196.2351397583403
 21
147.6519541433562
 31
0.0
  0
ENDBLK
  5
14C
330
12B
100
AcDbEntity
  8
0
100
AcDbBlockEnd
  0
BLOCK
  5
E0C
330
E0B
100
AcDbEntity
  8
0
100
AcDbBlockBegin
  2
GENAXEH
 70
     0
 10
0.0
 20
0.0
 30
0.0
  3
GENAXEH
  1

  0
LINE
  5
E0D
330
E0B
100
AcDbEntity
  8
0
100
AcDbLine
 10
-1.0
 20
0.0
 30
0.0
 11
1.0
 21
0.0
 31
0.0
  0
ENDBLK
  5
E0E
330
E0B
100
AcDbEntity
  8
0
100
AcDbBlockEnd
  0
BLOCK
  5
E10
330
E0F
100
AcDbEntity
  8
0
100
AcDbBlockBegin
  2
_ACMFILLEDHALF
 70
     0
 10
0.0
 20
0.0
 30
0.0
  3
_ACMFILLEDHALF
  1

  0
TRACE
  5
E11
330
E0F
100
AcDbEntity
  8
0
 62
     0
100
AcDbTrace
 10
-0.8
 20
0.0
 30
0.0
 11
-1.0
 21
0.166666666
 31
0.0
 12
0.0
 22
0.0
 32
0.0
 13
0.0
 23
0.0
 33
0.0
  0
LINE
  5
E12
330
E0F
100
AcDbEntity
  8
0
 62
     0
100
AcDbLine
 10
-1.0
 20
0.0
 30
0.0
 11
-0.8
 21
0.0
 31
0.0
  0
ENDBLK
  5
E13
330
E0F
100
AcDbEntity
  8
0
100
AcDbBlockEnd
  0
BLOCK
  5
E82
330
E6A
100
AcDbEntity
  8
0
 62
     0
100
AcDbBlockBegin
  2
BT 12
 70
     0
 10
0.0
 20
0.0
 30
0.0
  3
BT 12
  1

  0
MTEXT
  5
E6B
330
E6A
100
AcDbEntity
  8
ANCON-TEXT
100
AcDbMText
 10
632.9426347333817
 20
42.00270591808248
 30
0.0
 40
4.0
 41
95.73209882442336
 46
0.0
 71
     1
 72
     5
  1
{\fArial|b0|i0|c0|p34;Leviat \PTel:  1300 304 320\PEmail: technical.au@leviat.com\PWeb: ancon.com.au / Leviat.com}
 73
     1
 44
1.0
101
Embedded Object
 70
     1
 10
1.0
 20
0.0
 30
0.0
 11
632.9426347333817
 21
42.00270591808248
 31
0.0
 40
95.73209882442336
 41
0.0
 42
80.94679399727148
 43
24.22646657571624
 71
     2
 72
     1
 44
95.73209882442336
 45
0.5
 73
     0
 74
     0
 46
0.0
  0
MTEXT
  5
E6C
330
E6A
100
AcDbEntity
  8
ANCON-TEXT
100
AcDbMText
 10
539.3862859845433
 20
41.29798145584152
 30
0.0
 40
4.0
 41
68.05732020797268
 46
0.0
 71
     1
 72
     5
  1
{\fArial|b0|i0|c0|p34;Ancon BT12 COUPLER\P(L = 28mm, d = 22mm)}
 73
     1
 44
1.0
101
Embedded Object
 70
     1
 10
1.0
 20
0.0
 30
0.0
 11
539.3862859845433
 21
41.29798145584152
 31
0.0
 40
68.05732020797268
 41
0.0
 42
59.24965893587994
 43
11.98180991359709
 71
     2
 72
     1
 44
68.05732020797268
 45
0.5
 73
     0
 74
     0
 46
0.0
  0
LINE
  5
E6D
330
E6A
100
AcDbEntity
  8
ANCON_CENTRE
  6
CENTER4
100
AcDbLine
 10
570.8645886860498
 20
60.63710052309318
 30
0.0
 11
570.8645886860498
 21
92.63710052309319
 31
0.0
1001
AcDbBlockRepETag
1070
     1
1071
        3
1005
E6D
  0
CIRCLE
  5
E6E
330
E6A
100
AcDbEntity
  8
ANCON_OUTLINE
100
AcDbCircle
 10
570.8645886860498
 20
76.63710052309318
 30
0.0
 40
11.0
1001
AcDbBlockRepETag
1070
     1
1071
        4
1005
E6E
  0
LINE
  5
E6F
330
E6A
100
AcDbEntity
  8
ANCON_CENTRE
  6
CENTER4
100
AcDbLine
 10
554.8645886860498
 20
76.63710052309318
 30
0.0
 11
586.8645886860498
 21
76.63710052309318
 31
0.0
1001
AcDbBlockRepETag
1070
     1
1071
        5
1005
E6F
  0
CIRCLE
  5
E70
330
E6A
100
AcDbEntity
  8
ANCON_OUTLINE1
100
AcDbCircle
 10
570.8645886860498
 20
76.63710052309318
 30
0.0
 40
5.899500886447725
1001
AcDbBlockRepETag
1070
     1
1071
        6
1005
E70
  0
CIRCLE
  5
E71
330
E6A
100
AcDbEntity
  8
ANCON_HIDDEN
  6
HIDDEN
 48
2.0
100
AcDbCircle
 10
570.8645886860498
 20
76.63710052309318
 30
0.0
 40
7.0
1001
AcDbBlockRepETag
1070
     1
1071
        7
1005
E71
  0
LINE
  5
E72
330
E6A
100
AcDbEntity
  8
ANCON_CENTRE
  6
CENTER4
100
AcDbLine
 10
666.8645886860498
 20
76.63710052309318
 30
0.0
 11
624.8645886860498
 21
76.63710052309318
 31
0.0
1001
AcDbBlockRepETag
1070
     1
1071
        0
1005
E72
  0
LWPOLYLINE
  5
E73
330
E6A
100
AcDbEntity
  8
ANCON_OUTLINE
100
AcDbPolyline
 90
        4
 70
     1
 43
0.0
 10
633.8645886860498
 20
65.63710052309318
 10
661.8645886860498
 20
65.63710052309318
 10
661.8645886860498
 20
87.63710052309319
 10
633.8645886860498
 20
87.63710052309319
1001
ACAD
1000
ASC_BOUNDS
1002
{
1070
    19
1002
}
1001
AcDbBlockRepETag
1070
     1
1071
        4
1005
E73
  0
LINE
  5
E74
330
E6A
100
AcDbEntity
  8
ANCON_OUTLINE1
100
AcDbLine
 10
661.8645886860498
 20
68.63710052309318
 30
0.0
 11
633.8645886860498
 21
68.63710052309318
 31
0.0
1001
ACAD
1000
ASC_BOUNDS
1002
{
1070
    19
1002
}
1001
AcDbBlockRepETag
1070
     1
1071
        5
1005
E74
  0
LINE
  5
E75
330
E6A
100
AcDbEntity
  8
ANCON_OUTLINE1
100
AcDbLine
 10
660.7820886860499
 20
69.71960052309319
 30
0.0
 11
634.9470886860498
 21
69.71960052309319
 31
0.0
1001
AcDbBlockRepETag
1070
     1
1071
        6
1005
E75
  0
LINE
  5
E76
330
E6A
100
AcDbEntity
  8
ANCON_OUTLINE1
100
AcDbLine
 10
660.7820886860499
 20
83.55460052309316
 30
0.0
 11
634.9470886860498
 21
83.55460052309316
 31
0.0
1001
AcDbBlockRepETag
1070
     1
1071
        7
1005
E76
  0
LINE
  5
E77
330
E6A
100
AcDbEntity
  8
ANCON_OUTLINE1
100
AcDbLine
 10
661.8645886860498
 20
84.63710052309318
 30
0.0
 11
633.8645886860498
 21
84.63710052309318
 31
0.0
1001
ACAD
1000
ASC_BOUNDS
1002
{
1070
    19
1002
}
1001
AcDbBlockRepETag
1070
     1
1071
        8
1005
E77
  0
LINE
  5
E78
330
E6A
100
AcDbEntity
  8
ANCON_OUTLINE1
100
AcDbLine
 10
634.9470886860498
 20
69.71960052309319
 30
0.0
 11
633.8645886860498
 21
68.63710052309318
 31
0.0
1001
AcDbBlockRepETag
1070
     1
1071
        9
1005
E78
  0
LINE
  5
E79
330
E6A
100
AcDbEntity
  8
ANCON_OUTLINE1
100
AcDbLine
 10
634.9470886860498
 20
83.55460052309316
 30
0.0
 11
633.8645886860498
 21
84.63710052309318
 31
0.0
1001
AcDbBlockRepETag
1070
     1
1071
       10
1005
E79
  0
LINE
  5
E7A
330
E6A
100
AcDbEntity
  8
ANCON_OUTLINE1
100
AcDbLine
 10
634.9470886860498
 20
83.55460052309316
 30
0.0
 11
634.9470886860498
 21
69.71960052309319
 31
0.0
1001
AcDbBlockRepETag
1070
     1
1071
       11
1005
E7A
  0
LINE
  5
E7B
330
E6A
100
AcDbEntity
  8
ANCON_OUTLINE1
100
AcDbLine
 10
660.7820886860499
 20
83.55460052309316
 30
0.0
 11
660.7820886860499
 21
69.71960052309319
 31
0.0
1001
AcDbBlockRepETag
1070
     1
1071
       12
1005
E7B
  0
LINE
  5
E7C
330
E6A
100
AcDbEntity
  8
ANCON_OUTLINE1
100
AcDbLine
 10
660.7820886860499
 20
69.71960052309319
 30
0.0
 11
661.8645886860498
 21
68.63710052309318
 31
0.0
1001
AcDbBlockRepETag
1070
     1
1071
       13
1005
E7C
  0
LINE
  5
E7D
330
E6A
100
AcDbEntity
  8
ANCON_OUTLINE1
100
AcDbLine
 10
660.7820886860499
 20
83.55460052309316
 30
0.0
 11
661.8645886860498
 21
84.63710052309318
 31
0.0
1001
AcDbBlockRepETag
1070
     1
1071
       14
1005
E7D
  0
HATCH
  5
E7E
330
E6A
100
AcDbEntity
  8
HATCH
100
AcDbHatch
 10
0.0
 20
0.0
 30
0.0
210
0.0
220
0.0
230
1.0
  2
_USER
 70
     0
 71
     0
 91
        1
 92
        1
 93
        4
 72
     1
 10
633.8645886860498
 20
84.63710052309318
 11
661.8645886860498
 21
84.63710052309318
 72
     1
 10
661.8645886860498
 20
84.63710052309318
 11
661.8645886860498
 21
87.63710052309319
 72
     1
 10
661.8645886860498
 20
87.63710052309319
 11
633.8645886860498
 21
87.63710052309319
 72
     1
 10
633.8645886860498
 20
87.63710052309319
 11
633.8645886860498
 21
84.63710052309318
 97
        0
 75
     0
 76
     0
 52
45.0
 41
1.0
 77
     0
 78
     1
 53
45.0
 43
473.0455148336877
 44
-63.00658681828384
 45
-0.7071067811865475
 46
0.7071067811865476
 79
     0
 98
        1
 10
473.0455148336877
 20
-63.00658681828384
1001
GENIUS_GENODEF_13
1002
{
1000
HIER
1070
     0
1002
}
1002
{
1000
MANEDIT
1070
     0
1002
}
1002
{
1000
NOSEL
1070
     0
1002
}
1002
{
1000
BEHIND
1070
     0
1002
}
1002
{
1000
OTHER
1070
     0
1002
}
1002
{
1000
REACTOR
1002
}
1001
GENIUS_GENOBJ-N-HTC_13
1002
{
1000
OWNER
1000
GEN
1002
}
1001
GENIUS_GENHATCH_13
1002
{
1000
DATA
1040
45.0
1042
2.5
1000
_U
1070
     0
1011
642.6173383855366
1021
86.74800622080352
1031
0.0
1002
}
1002
{
1000
UCS
1010
0.0
1020
0.0
1030
0.0
1010
1.0
1020
0.0
1030
0.0
1010
0.0
1020
1.0
1030
0.0
1002
}
1001
GradientColor1ACI
1070
     5
1001
GradientColor2ACI
1070
     2
1001
ACAD
1010
0.0
1020
0.0
1030
0.0
  0
HATCH
  5
E7F
330
E6A
100
AcDbEntity
  8
HATCH
100
AcDbHatch
 10
0.0
 20
0.0
 30
0.0
210
0.0
220
0.0
230
1.0
  2
_USER
 70
     0
 71
     0
 91
        1
 92
        1
 93
        4
 72
     1
 10
661.8645886860498
 20
68.63710052309318
 11
633.8645886860498
 21
68.63710052309318
 72
     1
 10
633.8645886860498
 20
68.63710052309318
 11
633.8645886860498
 21
65.63710052309318
 72
     1
 10
633.8645886860498
 20
65.63710052309318
 11
661.8645886860498
 21
65.63710052309318
 72
     1
 10
661.8645886860498
 20
65.63710052309318
 11
661.8645886860498
 21
68.63710052309318
 97
        0
 75
     0
 76
     0
 52
45.0
 41
1.0
 77
     0
 78
     1
 53
45.0
 43
473.0455148336877
 44
-63.00658681828384
 45
-0.7071067811865475
 46
0.7071067811865476
 79
     0
 98
        1
 10
473.0455148336877
 20
-63.00658681828384
1001
GENIUS_GENOBJ-N-HTC_13
1002
{
1000
OWNER
1000
GEN
1002
}
1001
GENIUS_GENODEF_13
1002
{
1000
HIER
1070
     0
1002
}
1002
{
1000
MANEDIT
1070
     0
1002
}
1002
{
1000
NOSEL
1070
     0
1002
}
1002
{
1000
BEHIND
1070
     0
1002
}
1002
{
1000
OTHER
1070
     0
1002
}
1002
{
1000
REACTOR
1002
}
1001
GENIUS_GENHATCH_13
1002
{
1000
DATA
1040
45.0
1042
2.5
1000
_U
1070
     0
1011
641.9114350703847
1021
66.5903485882709
1031
0.0
1002
}
1002
{
1000
UCS
1010
0.0
1020
0.0
1030
0.0
1010
1.0
1020
0.0
1030
0.0
1010
0.0
1020
1.0
1030
0.0
1002
}
1001
GradientColor1ACI
1070
     5
1001
GradientColor2ACI
1070
     2
1001
ACAD
1010
0.0
1020
0.0
1030
0.0
  0
ENDBLK
  5
E83
330
E6A
100
AcDbEntity
  8
0
 62
     0
100
AcDbBlockEnd
  0
ENDSEC
  0
SECTION
  2
ENTITIES
  0
LINE
  5
75
330
2
100
AcDbEntity
  8
GRID
  6
CENTER
 48
3.0
100
AcDbLine
 10
-430.6305897598194
 20
3075.607605431579
 30
0.0
 11
100.8992247484493
 21
3075.607605431579
 31
0.0
  0
LINE
  5
FC
330
2
100
AcDbEntity
  8
LOCKABLE DOWEL SLEEVE
  6
HIDDENX2
 62
     1
100
AcDbLine
 10
-27.86272822116553
 20
3093.007605431579
 30
0.0
 11
-27.86272822116553
 21
3058.330698351417
 31
0.0
  0
LINE
  5
FE
330
2
100
AcDbEntity
  8
LOCKABLE DOWEL SLEEVE
  6
CENTER2
100
AcDbLine
 10
-92.86272822116552
 20
3081.429070238651
 30
0.0
 11
-92.86272822116547
 21
3070.179070238651
 31
0.0
  0
LINE
  5
100
330
2
100
AcDbEntity
  8
LOCKABLE DOWEL SLEEVE
100
AcDbLine
 10
-168.8157996400925
 20
3095.607605431579
 30
0.0
 11
-46.96098162353165
 21
3095.607605431579
 31
0.0
  0
LINE
  5
101
330
2
100
AcDbEntity
  8
LOCKABLE DOWEL SLEEVE
  6
HIDDEN1_01
100
AcDbLine
 10
-46.96098162353165
 20
3095.607605431579
 30
0.0
 11
-2.862728221165582
 21
3095.607605431579
 31
0.0
  0
LINE
  5
102
330
2
100
AcDbEntity
  8
LOCKABLE DOWEL SLEEVE
100
AcDbLine
 10
-168.8157996400925
 20
3055.607605431579
 30
0.0
 11
-46.96098162353176
 21
3055.607605431578
 31
0.0
  0
LINE
  5
103
330
2
100
AcDbEntity
  8
LOCKABLE DOWEL SLEEVE
  6
HIDDEN1_01
100
AcDbLine
 10
-46.96098162353176
 20
3055.607605431578
 30
0.0
 11
-2.862728221165582
 21
3055.607605431579
 31
0.0
  0
LINE
  5
104
330
2
100
AcDbEntity
  8
LOCKABLE DOWEL SLEEVE
  6
HIDDEN1_01
100
AcDbLine
 10
-2.862728221165525
 20
3095.607605431579
 30
0.0
 11
-2.862728221165582
 21
3055.607605431579
 31
0.0
  0
LINE
  5
105
330
2
100
AcDbEntity
  8
LOCKABLE DOWEL SLEEVE
100
AcDbLine
 10
-168.8157996400925
 20
3125.607605431579
 30
0.0
 11
-168.8157996400925
 21
3025.607605431579
 31
0.0
  0
LINE
  5
106
330
2
100
AcDbEntity
  8
LOCKABLE DOWEL SLEEVE
100
AcDbLine
 10
-172.8157996400925
 20
3125.607605431579
 30
0.0
 11
-172.8157996400925
 21
3025.607605431579
 31
0.0
  0
LINE
  5
107
330
2
100
AcDbEntity
  8
LOCKABLE DOWEL SLEEVE
100
AcDbLine
 10
-172.8157996400925
 20
3025.607605431579
 30
0.0
 11
-168.8157996400927
 21
3025.607605431579
 31
0.0
  0
LINE
  5
108
330
2
100
AcDbEntity
  8
LOCKABLE DOWEL SLEEVE
  6
CENTER2
100
AcDbLine
 10
-178.7326202598808
 20
3117.662014784688
 30
0.0
 11
-162.9405696263769
 21
3117.662014784688
 31
0.0
  0
LINE
  5
109
330
2
100
AcDbEntity
  8
LOCKABLE DOWEL SLEEVE
100
AcDbLine
 10
-172.8157996400925
 20
3125.607605431579
 30
0.0
 11
-168.8157996400925
 21
3125.607605431579
 31
0.0
  0
LINE
  5
10A
330
2
100
AcDbEntity
  8
LOCKABLE DOWEL SLEEVE
100
AcDbLine
 10
-168.8157996400925
 20
3098.297702960281
 30
0.0
 11
-166.1257021113901
 21
3095.607605431579
 31
0.0
  0
LINE
  5
10B
330
2
100
AcDbEntity
  8
LOCKABLE DOWEL SLEEVE
  6
CENTER2
100
AcDbLine
 10
-178.7326202598808
 20
3033.553196078469
 30
0.0
 11
-162.9405696263769
 21
3033.553196078469
 31
0.0
  0
LINE
  5
10C
330
2
100
AcDbEntity
  8
LOCKABLE DOWEL SLEEVE
100
AcDbLine
 10
-168.8157996400925
 20
3052.917507902876
 30
0.0
 11
-166.1257021113901
 21
3055.607605431579
 31
0.0
  0
HATCH
  5
10D
330
2
100
AcDbEntity
  8
LOCKABLE DOWEL SLEEVE
100
AcDbHatch
 10
0.0
 20
0.0
 30
0.0
210
0.0
220
0.0
230
1.0
  2
ANSI31
 70
     0
 71
     0
 91
        2
 92
        7
 72
     0
 73
     1
 93
        3
 10
-168.8157996400925
 20
3098.297702960281
 10
-168.8157996400925
 20
3095.607605431579
 10
-166.1257021113901
 20
3095.607605431579
 97
        0
 92
        7
 72
     0
 73
     1
 93
        3
 10
-166.1257021113901
 20
3055.607605431579
 10
-168.8157996400925
 20
3055.607605431579
 10
-168.8157996400925
 20
3052.917507902876
 97
        0
 75
     0
 76
     1
 52
0.0
 41
0.1
 77
     0
 78
     1
 53
45.0
 43
-455.0800501830279
 44
2940.219047573269
 45
-0.0088388347648318
 46
0.0088388347648318
 79
     0
 47
0.114135182764989
 98
        2
 10
-167.7337301595645
 20
3096.413073143403
 10
-167.6195048399596
 20
3054.982001409096
  0
ARC
  5
10E
330
2
100
AcDbEntity
  8
LOCKABLE DOWEL SLEEVE
  6
HIDDEN1_01
 62
     1
100
AcDbCircle
 10
-92.86272822116552
 20
3075.607605431579
 30
0.0
 40
1.5
100
AcDbArc
 50
238.3881131426444
 51
256.4619414873806
  0
ARC
  5
10F
330
2
100
AcDbEntity
  8
LOCKABLE DOWEL SLEEVE
  6
HIDDEN1_01
 62
     1
100
AcDbCircle
 10
-92.86272822116552
 20
3075.607605431579
 30
0.0
 40
1.5
100
AcDbArc
 50
193.5380585126236
 51
211.3119961174011
  0
ARC
  5
110
330
2
100
AcDbEntity
  8
LOCKABLE DOWEL SLEEVE
  6
HIDDEN1_01
 62
     1
100
AcDbCircle
 10
-92.86272822116552
 20
3075.607605431579
 30
0.0
 40
1.5
100
AcDbArc
 50
148.3881131426407
 51
166.4619414873763
  0
ARC
  5
111
330
2
100
AcDbEntity
  8
LOCKABLE DOWEL SLEEVE
  6
HIDDEN1_01
 62
     1
100
AcDbCircle
 10
-92.86272822116552
 20
3075.607605431579
 30
0.0
 40
1.5
100
AcDbArc
 50
103.5380585126194
 51
121.3119961174143
  0
ARC
  5
112
330
2
100
AcDbEntity
  8
LOCKABLE DOWEL SLEEVE
  6
HIDDEN1_01
 62
     1
100
AcDbCircle
 10
-92.86272822116552
 20
3075.607605431579
 30
0.0
 40
1.5
100
AcDbArc
 50
58.3881131426444
 51
76.46194148738061
  0
ARC
  5
113
330
2
100
AcDbEntity
  8
LOCKABLE DOWEL SLEEVE
  6
HIDDEN1_01
 62
     1
100
AcDbCircle
 10
-92.86272822116552
 20
3075.607605431579
 30
0.0
 40
1.5
100
AcDbArc
 50
13.53805851262363
 51
31.31199611740108
  0
ARC
  5
114
330
2
100
AcDbEntity
  8
LOCKABLE DOWEL SLEEVE
  6
HIDDEN1_01
 62
     1
100
AcDbCircle
 10
-92.86272822116552
 20
3075.607605431579
 30
0.0
 40
1.5
100
AcDbArc
 50
328.3881131426559
 51
346.4619414873764
  0
ARC
  5
115
330
2
100
AcDbEntity
  8
LOCKABLE DOWEL SLEEVE
  6
HIDDEN1_01
 62
     1
100
AcDbCircle
 10
-92.86272822116552
 20
3075.607605431579
 30
0.0
 40
1.5
100
AcDbArc
 50
283.5380585126194
 51
301.3119961174143
  0
LINE
  5
116
330
2
100
AcDbEntity
  8
LOCKABLE DOWEL SLEEVE
  6
HIDDEN2
 62
     1
100
AcDbLine
 10
-168.8157996400925
 20
3095.607605431579
 30
0.0
 11
-172.8157996400925
 21
3095.607605431579
 31
0.0
  0
LINE
  5
118
330
2
100
AcDbEntity
  8
LOCKABLE DOWEL SLEEVE
  6
HIDDEN2
 62
     1
100
AcDbLine
 10
-168.8157996400925
 20
3055.607605431579
 30
0.0
 11
-172.8157996400925
 21
3055.607605431579
 31
0.0
  0
LINE
  5
119
330
2
100
AcDbEntity
  8
LOCKABLE DOWEL FORMER
  6
Continuous
370
    15
100
AcDbLine
 10
72.18420035990745
 20
3056.304358787901
 30
0.0
 11
78.04088404654759
 21
3224.017836236442
 31
0.0
  0
ARC
  5
11B
330
2
100
AcDbEntity
  8
LOCKABLE DOWEL FORMER
  6
Continuous
370
    15
100
AcDbCircle
 10
69.68572329235986
 20
3056.391607529656
 30
0.0
 40
2.499999999999984
100
AcDbArc
 50
270.499999999998
 51
357.9999999999051
  0
LINE
  5
11C
330
2
100
AcDbEntity
  8
LOCKABLE DOWEL FORMER
  6
Continuous
370
    15
100
AcDbLine
 10
3.998113077361281
 20
3053.318265243855
 30
0.0
 11
69.70753963110566
 21
3053.891702721996
 31
0.0
  0
LINE
  5
11D
330
2
100
AcDbEntity
  8
LOCKABLE DOWEL FORMER
  6
Continuous
370
    15
100
AcDbLine
 10
-46.96098162353176
 20
3053.762978526047
 30
0.0
 11
3.998113077361281
 21
3053.318265243855
 31
0.0
  0
LINE
  5
11E
330
2
100
AcDbEntity
  8
LOCKABLE DOWEL FORMER
  6
Continuous
370
    15
100
AcDbLine
 10
-46.96098162353176
 20
3055.763054682818
 30
0.0
 11
-46.96098162353176
 21
3053.762978526047
 31
0.0
  0
LINE
  5
11F
330
2
100
AcDbEntity
  8
LOCKABLE DOWEL FORMER
  6
Continuous
370
    15
100
AcDbLine
 10
0.9017059410205234
 20
3097.882101781995
 30
0.0
 11
-46.96098162353165
 21
3097.464410435508
 31
0.0
  0
ARC
  5
120
330
2
100
AcDbEntity
  8
LOCKABLE DOWEL FORMER
  6
Continuous
370
    15
100
AcDbCircle
 10
0.8886161377729564
 20
3099.382044666591
 30
0.0
 40
1.499999999999998
100
AcDbArc
 50
270.5000000000014
 51
2.00000000000365
  0
LINE
  5
121
330
2
100
AcDbEntity
  8
LOCKABLE DOWEL FORMER
  6
Continuous
370
    15
100
AcDbLine
 10
2.387702378301597
 20
3099.434393911645
 30
0.0
 11
-1.962847293611208
 21
3224.017836236443
 31
0.0
  0
LINE
  5
122
330
2
100
AcDbEntity
  8
LOCKABLE DOWEL FORMER
  6
Continuous
370
    15
100
AcDbLine
 10
-46.96098162353176
 20
3055.763054682818
 30
0.0
 11
-46.96098162353165
 21
3097.464410435508
 31
0.0
  0
LINE
  5
123
330
2
100
AcDbEntity
  8
LOCKABLE DOWEL FORMER
  6
Continuous
370
    15
100
AcDbLine
 10
-5.173505467097626
 20
3225.53528864288
 30
0.0
 11
-5.199997352926785
 21
3224.017836236443
 31
0.0
  0
ELLIPSE
  5
124
330
2
100
AcDbEntity
  8
LOCKABLE DOWEL FORMER
  6
Continuous
370
    15
100
AcDbEllipse
 10
-4.17348203290804
 20
3225.517836236443
 30
0.0
 11
1.000175765803192
 21
0.0
 31
-0.0000000000000036
210
0.0000000000000036
220
0.0
230
1.0
 40
0.9998242650849963
 41
1.570796326794896
 42
3.124139361069846
  0
LINE
  5
125
330
2
100
AcDbEntity
  8
LOCKABLE DOWEL FORMER
  6
Continuous
370
    15
100
AcDbLine
 10
80.26896056074777
 20
3226.517836236443
 30
0.0
 11
-4.17348203290804
 21
3226.517836236443
 31
0.0
  0
ELLIPSE
  5
126
330
2
100
AcDbEntity
  8
LOCKABLE DOWEL FORMER
  6
Continuous
370
    15
100
AcDbEllipse
 10
80.26896056074777
 20
3225.517836236443
 30
0.0
 11
1.000175765803192
 21
0.0
 31
-0.0000000000000036
210
0.0000000000000036
220
0.0
230
1.0
 40
0.9998242650849963
 41
0.0174532925199451
 42
1.570796326794896
  0
LINE
  5
127
330
2
100
AcDbEntity
  8
LOCKABLE DOWEL FORMER
  6
Continuous
370
    15
100
AcDbLine
 10
81.29547588076645
 20
3224.017836236443
 30
0.0
 11
81.26898399493741
 21
3225.53528864288
 31
0.0
  0
LINE
  5
128
330
2
100
AcDbEntity
  8
GRID
  6
CENTER
100
AcDbLine
 10
205.2906660366801
 20
3102.804750209886
 30
0.0
 11
205.2906660366801
 21
3048.410460653272
 31
0.0
  0
CIRCLE
  5
129
330
2
100
AcDbEntity
  8
LOCKABLE DOWEL SLEEVE
100
AcDbCircle
 10
205.2906660366801
 20
3093.197645641173
 30
0.0
 40
0.4112911480472038
  0
INSERT
  5
12A
330
2
100
AcDbEntity
  8
LOCKABLE DOWEL SLEEVE
100
AcDbBlockReference
  2
*X0
 10
9.391947280262513
 20
2945.296413059754
 30
0.0
1001
ACAD
1000
HATCH
1002
{
1070
    16
1000
ANSI31
1040
0.02
1040
0.0
1002
}
  0
LINE
  5
14D
330
2
100
AcDbEntity
  8
LOCKABLE DOWEL SLEEVE
  6
Continuous
100
AcDbLine
 10
165.2906660366801
 20
3055.607605431579
 30
0.0
 11
245.2906660366801
 21
3055.607605431579
 31
0.0
  0
LINE
  5
14E
330
2
100
AcDbEntity
  8
LOCKABLE DOWEL SLEEVE
  6
Continuous
100
AcDbLine
 10
165.2906660366801
 20
3095.607605431579
 30
0.0
 11
245.2906660366801
 21
3095.607605431579
 31
0.0
  0
LINE
  5
14F
330
2
100
AcDbEntity
  8
LOCKABLE DOWEL SLEEVE
100
AcDbLine
 10
150.2906660366801
 20
3025.607605431579
 30
0.0
 11
260.2906660366802
 21
3025.607605431579
 31
0.0
  0
LINE
  5
150
330
2
100
AcDbEntity
  8
LOCKABLE DOWEL SLEEVE
100
AcDbLine
 10
150.2906660366801
 20
3125.607605431579
 30
0.0
 11
260.2906660366802
 21
3125.607605431579
 31
0.0
  0
LINE
  5
151
330
2
100
AcDbEntity
  8
LOCKABLE DOWEL SLEEVE
  6
Continuous
100
AcDbLine
 10
165.2906660366801
 20
3095.607605431579
 30
0.0
 11
165.2906660366801
 21
3055.607605431579
 31
0.0
  0
LINE
  5
152
330
2
100
AcDbEntity
  8
LOCKABLE DOWEL SLEEVE
100
AcDbLine
 10
150.2906660366801
 20
3125.607605431579
 30
0.0
 11
150.2906660366801
 21
3025.607605431579
 31
0.0
  0
CIRCLE
  5
153
330
2
100
AcDbEntity
  8
LOCKABLE DOWEL SLEEVE
100
AcDbCircle
 10
158.2906660366801
 20
3033.607605431579
 30
0.0
 40
2.5
  0
CIRCLE
  5
154
330
2
100
AcDbEntity
  8
LOCKABLE DOWEL SLEEVE
100
AcDbCircle
 10
158.2906660366801
 20
3117.607605431579
 30
0.0
 40
2.5
  0
LINE
  5
155
330
2
100
AcDbEntity
  8
LOCKABLE DOWEL SLEEVE
  6
CENTER2
100
AcDbLine
 10
158.2906660366801
 20
3124.264908803067
 30
0.0
 11
158.2906660366801
 21
3111.059120766309
 31
0.0
  0
LINE
  5
156
330
2
100
AcDbEntity
  8
LOCKABLE DOWEL SLEEVE
  6
Continuous
100
AcDbLine
 10
245.2906660366801
 20
3095.607605431579
 30
0.0
 11
245.2906660366801
 21
3055.607605431579
 31
0.0
  0
LINE
  5
157
330
2
100
AcDbEntity
  8
LOCKABLE DOWEL SLEEVE
100
AcDbLine
 10
260.2906660366802
 20
3125.607605431579
 30
0.0
 11
260.2906660366802
 21
3025.607605431579
 31
0.0
  0
CIRCLE
  5
158
330
2
100
AcDbEntity
  8
LOCKABLE DOWEL SLEEVE
100
AcDbCircle
 10
252.2906660366802
 20
3033.607605431579
 30
0.0
 40
2.5
  0
CIRCLE
  5
159
330
2
100
AcDbEntity
  8
LOCKABLE DOWEL SLEEVE
100
AcDbCircle
 10
252.2906660366802
 20
3117.607605431579
 30
0.0
 40
2.5
  0
LINE
  5
15A
330
2
100
AcDbEntity
  8
LOCKABLE DOWEL SLEEVE
  6
CENTER2
100
AcDbLine
 10
151.6877720183014
 20
3117.662014784688
 30
0.0
 11
164.8935600550588
 21
3117.662014784688
 31
0.0
  0
LINE
  5
15B
330
2
100
AcDbEntity
  8
LOCKABLE DOWEL SLEEVE
  6
Continuous
100
AcDbLine
 10
167.129195417256
 20
3093.607605431579
 30
0.0
 11
167.129195417256
 21
3057.607605431579
 31
0.0
  0
LINE
  5
15C
330
2
100
AcDbEntity
  8
LOCKABLE DOWEL SLEEVE
  6
Continuous
100
AcDbLine
 10
243.129195417256
 20
3093.607605431579
 30
0.0
 11
243.129195417256
 21
3057.607605431579
 31
0.0
  0
LINE
  5
15D
330
2
100
AcDbEntity
  8
LOCKABLE DOWEL SLEEVE
  6
Continuous
100
AcDbLine
 10
165.129195417256
 20
3095.607605431579
 30
0.0
 11
165.129195417256
 21
3055.607605431579
 31
0.0
  0
LINE
  5
15E
330
2
100
AcDbEntity
  8
LOCKABLE DOWEL SLEEVE
  6
Continuous
100
AcDbLine
 10
245.129195417256
 20
3095.607605431579
 30
0.0
 11
245.129195417256
 21
3055.607605431579
 31
0.0
  0
LINE
  5
15F
330
2
100
AcDbEntity
  8
LOCKABLE DOWEL SLEEVE
  6
Continuous
100
AcDbLine
 10
167.129195417256
 20
3057.607605431579
 30
0.0
 11
243.129195417256
 21
3057.607605431579
 31
0.0
  0
LINE
  5
160
330
2
100
AcDbEntity
  8
LOCKABLE DOWEL SLEEVE
  6
Continuous
100
AcDbLine
 10
165.129195417256
 20
3055.607605431579
 30
0.0
 11
245.129195417256
 21
3055.607605431579
 31
0.0
  0
LINE
  5
161
330
2
100
AcDbEntity
  8
GRID
  6
CENTER
100
AcDbLine
 10
172.4417212475119
 20
3075.607605431579
 30
0.0
 11
238.1396108258483
 21
3075.607605431579
 31
0.0
  0
LINE
  5
162
330
2
100
AcDbEntity
  8
LOCKABLE DOWEL SLEEVE
  6
Continuous
100
AcDbLine
 10
167.129195417256
 20
3093.607605431579
 30
0.0
 11
243.129195417256
 21
3093.607605431579
 31
0.0
  0
LINE
  5
163
330
2
100
AcDbEntity
  8
LOCKABLE DOWEL SLEEVE
  6
Continuous
100
AcDbLine
 10
165.129195417256
 20
3095.607605431579
 30
0.0
 11
245.129195417256
 21
3095.607605431579
 31
0.0
  0
CIRCLE
  5
164
330
2
100
AcDbEntity
  8
LOCKABLE DOWEL SLEEVE
100
AcDbCircle
 10
205.2906660366801
 20
3075.607605431579
 30
0.0
 40
17.59004020959437
  0
CIRCLE
  5
165
330
2
100
AcDbEntity
  8
LOCKABLE DOWEL SLEEVE
100
AcDbCircle
 10
205.2906660366801
 20
3075.607605431579
 30
0.0
 40
15.69907307306174
  0
LINE
  5
166
330
2
100
AcDbEntity
  8
LOCKABLE DOWEL SLEEVE
  6
CENTER2
100
AcDbLine
 10
252.2906660366802
 20
3124.264908803067
 30
0.0
 11
252.2906660366802
 21
3111.059120766309
 31
0.0
  0
LINE
  5
167
330
2
100
AcDbEntity
  8
LOCKABLE DOWEL SLEEVE
  6
CENTER2
100
AcDbLine
 10
258.8935600550589
 20
3117.662014784688
 30
0.0
 11
245.6877720183014
 21
3117.662014784688
 31
0.0
  0
LINE
  5
168
330
2
100
AcDbEntity
  8
LOCKABLE DOWEL SLEEVE
  6
CENTER2
100
AcDbLine
 10
158.2906660366801
 20
3026.95030206009
 30
0.0
 11
158.2906660366801
 21
3040.156090096848
 31
0.0
  0
LINE
  5
169
330
2
100
AcDbEntity
  8
LOCKABLE DOWEL SLEEVE
  6
CENTER2
100
AcDbLine
 10
151.6877720183014
 20
3033.553196078469
 30
0.0
 11
164.8935600550588
 21
3033.553196078469
 31
0.0
  0
LINE
  5
16A
330
2
100
AcDbEntity
  8
LOCKABLE DOWEL SLEEVE
  6
CENTER2
100
AcDbLine
 10
252.2906660366802
 20
3026.95030206009
 30
0.0
 11
252.2906660366802
 21
3040.156090096848
 31
0.0
  0
LINE
  5
16B
330
2
100
AcDbEntity
  8
LOCKABLE DOWEL SLEEVE
  6
CENTER2
100
AcDbLine
 10
258.8935600550589
 20
3033.553196078469
 30
0.0
 11
245.6877720183014
 21
3033.553196078469
 31
0.0
  0
LINE
  5
16C
330
2
100
AcDbEntity
  8
LOCKABLE DOWEL FORMER
  6
Continuous
370
    15
100
AcDbLine
 10
161.5592008158742
 20
3125.661031232513
 30
0.0
 11
161.4393681996812
 21
3224.017836236442
 31
0.0
  0
LINE
  5
16D
330
2
100
AcDbEntity
  8
LOCKABLE DOWEL FORMER
  6
Continuous
370
     0
100
AcDbLine
 10
249.1420940559258
 20
3224.017836236442
 30
0.0
 11
249.0222614397329
 21
3125.661031232513
 31
0.0
  0
MTEXT
  5
17B
330
2
100
AcDbEntity
  8
SPECP
 62
     6
100
AcDbMText
 10
-402.4210772721339
 20
3001.312481591416
 30
0.0
 40
5.0
 41
2822.017960969965
 46
0.0
 71
     1
 72
     5
  1
{\H2x;ESDQ-L20} 
  7
ROMANS
 73
     1
 44
1.0
  0
LINE
  5
17D
330
2
100
AcDbEntity
  8
LOCKABLE DOWEL FORMER
  6
Continuous
370
    15
100
AcDbLine
 10
158.2230177723384
 20
3225.53528864288
 30
0.0
 11
158.1965258865092
 21
3224.017836236443
 31
0.0
  0
ELLIPSE
  5
17E
330
2
100
AcDbEntity
  8
LOCKABLE DOWEL FORMER
  6
Continuous
370
    15
100
AcDbEllipse
 10
159.2230412065279
 20
3225.517836236443
 30
0.0
 11
1.000175765803192
 21
0.0
 31
-0.0000000000000036
210
0.0000000000000036
220
0.0
230
1.0
 40
0.9998242650849963
 41
1.570796326794896
 42
3.124139361069846
  0
ELLIPSE
  5
17F
330
2
100
AcDbEntity
  8
LOCKABLE DOWEL FORMER
  6
Continuous
370
    15
100
AcDbEllipse
 10
251.3756088389403
 20
3225.517836236443
 30
0.0
 11
1.000175765803192
 21
0.0
 31
-0.0000000000000036
210
0.0000000000000036
220
0.0
230
1.0
 40
0.9998242650849963
 41
0.0174532925199451
 42
1.570796326794896
  0
LINE
  5
180
330
2
100
AcDbEntity
  8
LOCKABLE DOWEL FORMER
  6
Continuous
370
    15
100
AcDbLine
 10
252.4021241589589
 20
3224.017836236443
 30
0.0
 11
252.3756322731299
 21
3225.53528864288
 31
0.0
  0
LINE
  5
181
330
2
100
AcDbEntity
  8
LOCKABLE DOWEL FORMER
100
AcDbLine
 10
158.1965258865092
 20
3224.017836236443
 30
0.0
 11
252.4021241589589
 21
3224.017836236443
 31
0.0
  0
LINE
  5
182
330
2
100
AcDbEntity
  8
LOCKABLE DOWEL FORMER
100
AcDbLine
 10
-5.199997352926785
 20
3224.017836236443
 30
0.0
 11
81.29547588076645
 21
3224.017836236443
 31
0.0
  0
LINE
  5
183
330
2
100
AcDbEntity
  8
LOCKABLE DOWEL FORMER
100
AcDbLine
 10
159.2230412065279
 20
3226.517836236443
 30
0.0
 11
251.3756088389403
 21
3226.517836236443
 31
0.0
  0
LINE
  5
184
330
2
100
AcDbEntity
  8
LOCKABLE DOWEL SLEEVE
  6
HIDDEN1_01
100
AcDbLine
 10
161.4637351189174
 20
3204.017836236442
 30
0.0
 11
249.1177271366896
 21
3204.017836236442
 31
0.0
  0
LINE
  5
187
330
2
100
AcDbEntity
  8
LOCKABLE DOWEL SLEEVE
  6
HIDDEN1_01
100
AcDbLine
 10
-1.264431903776215
 20
3204.017836236443
 30
0.0
 11
77.34246865671265
 21
3204.017836236443
 31
0.0
  0
LINE
  5
18B
330
2
100
AcDbEntity
  8
GRID
  6
CENTER
100
AcDbLine
 10
100.8992247484493
 20
2878.537090169436
 30
0.0
 11
-430.6305897598194
 21
2878.537090169436
 31
0.0
  0
LINE
  5
18E
330
2
100
AcDbEntity
  8
LOCKABLE DOWEL SLEEVE
100
AcDbLine
 10
-168.8157996400925
 20
2918.707219774915
 30
0.0
 11
-168.8157996400925
 21
2838.707219774915
 31
0.0
  0
LINE
  5
18F
330
2
100
AcDbEntity
  8
LOCKABLE DOWEL SLEEVE
100
AcDbLine
 10
-46.96098162353166
 20
2838.707219774914
 30
0.0
 11
-168.8157996400925
 21
2838.707219774915
 31
0.0
  0
LINE
  5
190
330
2
100
AcDbEntity
  8
LOCKABLE DOWEL SLEEVE
100
AcDbLine
 10
-46.96098162353166
 20
2918.707219774914
 30
0.0
 11
-168.8157996400925
 21
2918.707219774915
 31
0.0
  0
LINE
  5
191
330
2
100
AcDbEntity
  8
LOCKABLE DOWEL SLEEVE
100
AcDbLine
 10
-168.8157996400925
 20
2933.537090169436
 30
0.0
 11
-172.8157996400925
 21
2933.537090169437
 31
0.0
  0
LINE
  5
192
330
2
100
AcDbEntity
  8
LOCKABLE DOWEL SLEEVE
100
AcDbLine
 10
-168.8157996400925
 20
2823.537090169436
 30
0.0
 11
-172.8157996400925
 21
2823.537090169436
 31
0.0
  0
LINE
  5
193
330
2
100
AcDbEntity
  8
LOCKABLE DOWEL SLEEVE
100
AcDbLine
 10
-168.8157996400925
 20
2933.537090169437
 30
0.0
 11
-168.8157996400925
 21
2823.537090169436
 31
0.0
  0
LINE
  5
194
330
2
100
AcDbEntity
  8
LOCKABLE DOWEL SLEEVE
100
AcDbLine
 10
-172.8157996400925
 20
2933.537090169437
 30
0.0
 11
-172.8157996400925
 21
2823.537090169436
 31
0.0
  0
LINE
  5
195
330
2
100
AcDbEntity
  8
LOCKABLE DOWEL SLEEVE
  6
CENTER2
100
AcDbLine
 10
-178.7326202598808
 20
2925.537090169437
 30
0.0
 11
-162.9405696263769
 21
2925.537090169437
 31
0.0
  0
LINE
  5
196
330
2
100
AcDbEntity
  8
LOCKABLE DOWEL SLEEVE
  6
CENTER2
100
AcDbLine
 10
-178.7326202598808
 20
2831.537090169436
 30
0.0
 11
-162.9405696263769
 21
2831.537090169436
 31
0.0
  0
LINE
  5
21F
330
2
100
AcDbEntity
  8
LOCKABLE DOWEL FORMER
  6
HIDDEN1_01
100
AcDbLine
 10
32.03420035990787
 20
2851.184269969059
 30
0.0
 11
32.03420035990787
 21
2905.889531439093
 31
0.0
  0
LINE
  5
220
330
2
100
AcDbEntity
  8
LOCKABLE DOWEL FORMER
  6
HIDDEN1_01
100
AcDbLine
 10
37.03420035990787
 20
2851.184269969058
 30
0.0
 11
37.03420035990787
 21
2905.889531439093
 31
0.0
  0
LINE
  5
221
330
2
100
AcDbEntity
  8
LOCKABLE DOWEL FORMER
  6
HIDDEN1_01
100
AcDbLine
 10
32.03420035990787
 20
2851.184269969059
 30
0.0
 11
37.03420035990787
 21
2851.184269969059
 31
0.0
  0
LINE
  5
222
330
2
100
AcDbEntity
  8
LOCKABLE DOWEL FORMER
  6
HIDDEN1_01
100
AcDbLine
 10
32.03420035990787
 20
2905.889531439093
 30
0.0
 11
37.03420035990787
 21
2905.889531439093
 31
0.0
  0
ARC
  5
22C
330
2
100
AcDbEntity
  8
LOCKABLE DOWEL LOCKING PLATE
  6
HIDDEN1_01
100
AcDbCircle
 10
205.2906660366801
 20
3075.607605431579
 30
0.0
 40
10.0
100
AcDbArc
 50
0.0
 51
180.0
  0
LINE
  5
2E6
330
2
100
AcDbEntity
  8
LOCKABLE DOWEL SLEEVE
  6
HIDDEN1_01
100
AcDbLine
 10
-8.715799640092029
 20
3085.607605431579
 30
0.0
 11
-3.815799640092052
 21
3085.607605431579
 31
0.0
  0
ARC
  5
2E7
330
2
100
AcDbEntity
  8
LOCKABLE DOWEL SLEEVE
  6
HIDDEN1_01
100
AcDbCircle
 10
-8.715799640092029
 20
3085.907605431579
 30
0.0
 40
0.3
100
AcDbArc
 50
180.0
 51
270.0
  0
LINE
  5
2E8
330
2
100
AcDbEntity
  8
LOCKABLE DOWEL SLEEVE
  6
HIDDEN1_01
100
AcDbLine
 10
1.484200359907958
 20
3085.607605431579
 30
0.0
 11
6.384200359907936
 21
3085.607605431579
 31
0.0
  0
LINE
  5
2E9
330
2
100
AcDbEntity
  8
LOCKABLE DOWEL SLEEVE
  6
HIDDEN1_01
100
AcDbLine
 10
11.68420035990795
 20
3085.607605431579
 30
0.0
 11
16.58420035990792
 21
3085.607605431579
 31
0.0
  0
LINE
  5
2EA
330
2
100
AcDbEntity
  8
LOCKABLE DOWEL SLEEVE
  6
HIDDEN1_01
100
AcDbLine
 10
21.88420035990794
 20
3085.607605431579
 30
0.0
 11
26.78420035990803
 21
3085.607605431579
 31
0.0
  0
LINE
  5
2EB
330
2
100
AcDbEntity
  8
LOCKABLE DOWEL SLEEVE
  6
HIDDEN1_01
100
AcDbLine
 10
32.08420035990793
 20
3085.607605431579
 30
0.0
 11
36.9842003599079
 21
3085.607605431579
 31
0.0
  0
LINE
  5
2EC
330
2
100
AcDbEntity
  8
LOCKABLE DOWEL SLEEVE
  6
HIDDEN1_01
100
AcDbLine
 10
42.28420035990786
 20
3085.607605431579
 30
0.0
 11
47.18420035990783
 21
3085.607605431579
 31
0.0
  0
LINE
  5
2ED
330
2
100
AcDbEntity
  8
LOCKABLE DOWEL DOWEL COMPONENT
 48
0.5
100
AcDbLine
 10
-380.8157996400921
 20
3060.607605431579
 30
0.0
 11
-371.765799640092
 21
3060.607605431579
 31
0.0
  0
LINE
  5
2EE
330
2
100
AcDbEntity
  8
LOCKABLE DOWEL DOWEL COMPONENT
 48
0.5
100
AcDbLine
 10
-365.6157996400922
 20
3060.607605431579
 30
0.0
 11
-172.8157996400926
 21
3060.60760543158
 31
0.0
  0
LINE
  5
2EF
330
2
100
AcDbEntity
  8
LOCKABLE DOWEL SLEEVE
  6
HIDDEN1_01
100
AcDbLine
 10
-3.015799640091984
 20
3061.107605431579
 30
0.0
 11
-2.315799640092052
 21
3061.107605431579
 31
0.0
  0
LINE
  5
2F0
330
2
100
AcDbEntity
  8
LOCKABLE DOWEL SLEEVE
  6
HIDDEN1_01
100
AcDbLine
 10
37.78420035990791
 20
3061.107605431579
 30
0.0
 11
41.4842003599079
 21
3061.107605431579
 31
0.0
  0
LINE
  5
2F1
330
2
100
AcDbEntity
  8
LOCKABLE DOWEL SLEEVE
  6
HIDDEN1_01
100
AcDbLine
 10
37.28420035990791
 20
3061.607605431579
 30
0.0
 11
37.78420035990791
 21
3061.107605431579
 31
0.0
  0
LINE
  5
2F2
330
2
100
AcDbEntity
  8
LOCKABLE DOWEL SLEEVE
  6
HIDDEN1_01
100
AcDbLine
 10
47.9842003599079
 20
3061.107605431579
 30
0.0
 11
51.68420035990789
 21
3061.107605431579
 31
0.0
  0
LINE
  5
2F3
330
2
100
AcDbEntity
  8
LOCKABLE DOWEL SLEEVE
  6
HIDDEN1_01
100
AcDbLine
 10
47.4842003599079
 20
3061.607605431579
 30
0.0
 11
47.9842003599079
 21
3061.107605431579
 31
0.0
  0
LINE
  5
2F4
330
2
100
AcDbEntity
  8
LOCKABLE DOWEL DOWEL COMPONENT
 48
0.5
100
AcDbLine
 10
-382.8157996400921
 20
3062.607605431578
 30
0.0
 11
-380.8157996400921
 21
3060.607605431579
 31
0.0
  0
LINE
  5
2F5
330
2
100
AcDbEntity
  8
LOCKABLE DOWEL DOWEL COMPONENT
 48
0.5
100
AcDbLine
 10
-380.8157996400921
 20
3090.607605431579
 30
0.0
 11
-371.765799640092
 21
3090.607605431579
 31
0.0
  0
LINE
  5
2F6
330
2
100
AcDbEntity
  8
LOCKABLE DOWEL DOWEL COMPONENT
 48
0.5
100
AcDbLine
 10
-365.6157996400922
 20
3090.607605431579
 30
0.0
 11
-172.8157996400926
 21
3090.607605431579
 31
0.0
  0
LINE
  5
2F7
330
2
100
AcDbEntity
  8
LOCKABLE DOWEL SLEEVE
  6
HIDDEN1_01
100
AcDbLine
 10
-9.015799640092041
 20
3090.107605431579
 30
0.0
 11
-9.515799640092041
 21
3090.607605431579
 31
0.0
  0
LINE
  5
2F8
330
2
100
AcDbEntity
  8
LOCKABLE DOWEL SLEEVE
  6
HIDDEN1_01
100
AcDbLine
 10
-3.015799640091984
 20
3090.107605431579
 30
0.0
 11
-2.315799640092052
 21
3090.107605431579
 31
0.0
  0
LINE
  5
2F9
330
2
100
AcDbEntity
  8
LOCKABLE DOWEL SLEEVE
  6
HIDDEN1_01
100
AcDbLine
 10
37.78420035990786
 20
3090.107605431579
 30
0.0
 11
41.4842003599079
 21
3090.107605431579
 31
0.0
  0
LINE
  5
2FA
330
2
100
AcDbEntity
  8
LOCKABLE DOWEL SLEEVE
  6
HIDDEN1_01
100
AcDbLine
 10
41.9842003599079
 20
3089.607605431579
 30
0.0
 11
41.4842003599079
 21
3090.107605431579
 31
0.0
  0
LINE
  5
2FB
330
2
100
AcDbEntity
  8
LOCKABLE DOWEL SLEEVE
  6
HIDDEN1_01
100
AcDbLine
 10
37.28420035990786
 20
3089.607605431579
 30
0.0
 11
37.78420035990786
 21
3090.107605431579
 31
0.0
  0
LINE
  5
2FC
330
2
100
AcDbEntity
  8
LOCKABLE DOWEL SLEEVE
  6
HIDDEN1_01
100
AcDbLine
 10
47.9842003599079
 20
3090.107605431579
 30
0.0
 11
51.68420035990783
 21
3090.107605431579
 31
0.0
  0
LINE
  5
2FD
330
2
100
AcDbEntity
  8
LOCKABLE DOWEL SLEEVE
  6
HIDDEN1_01
100
AcDbLine
 10
47.4842003599079
 20
3089.607605431579
 30
0.0
 11
47.9842003599079
 21
3090.107605431579
 31
0.0
  0
LINE
  5
2FE
330
2
100
AcDbEntity
  8
LOCKABLE DOWEL DOWEL COMPONENT
 48
0.5
100
AcDbLine
 10
-382.8157996400921
 20
3088.607605431579
 30
0.0
 11
-380.8157996400921
 21
3090.607605431579
 31
0.0
  0
LINE
  5
2FF
330
2
100
AcDbEntity
  8
LOCKABLE DOWEL DOWEL COMPONENT
 48
0.5
100
AcDbLine
 10
-382.8157996400921
 20
3088.607605431579
 30
0.0
 11
-382.8157996400921
 21
3062.607605431578
 31
0.0
  0
LINE
  5
300
330
2
100
AcDbEntity
  8
LOCKABLE DOWEL DOWEL COMPONENT
 48
0.5
100
AcDbLine
 10
-365.6157996400922
 20
3090.607605431579
 30
0.0
 11
-365.6157996400922
 21
3060.607605431579
 31
0.0
  0
LINE
  5
301
330
2
100
AcDbEntity
  8
LOCKABLE DOWEL DOWEL COMPONENT
 48
0.5
100
AcDbLine
 10
-371.765799640092
 20
3090.607605431579
 30
0.0
 11
-371.765799640092
 21
3060.607605431579
 31
0.0
  0
LINE
  5
302
330
2
100
AcDbEntity
  8
LOCKABLE DOWEL SLEEVE
  6
HIDDEN1_01
100
AcDbLine
 10
52.18420035990783
 20
3089.607605431579
 30
0.0
 11
52.18420035990789
 21
3061.607605431579
 31
0.0
  0
LINE
  5
303
330
2
100
AcDbEntity
  8
LOCKABLE DOWEL SLEEVE
  6
HIDDEN1_01
100
AcDbLine
 10
51.68420035990789
 20
3061.107605431579
 30
0.0
 11
52.18420035990789
 21
3061.607605431579
 31
0.0
  0
LINE
  5
304
330
2
100
AcDbEntity
  8
LOCKABLE DOWEL SLEEVE
  6
HIDDEN1_01
100
AcDbLine
 10
51.68420035990783
 20
3090.107605431579
 30
0.0
 11
52.18420035990783
 21
3089.607605431579
 31
0.0
  0
LINE
  5
305
330
2
100
AcDbEntity
  8
LOCKABLE DOWEL SLEEVE
  6
HIDDEN1_01
100
AcDbLine
 10
47.4842003599079
 20
3089.607605431579
 30
0.0
 11
47.4842003599079
 21
3061.607605431579
 31
0.0
  0
LINE
  5
306
330
2
100
AcDbEntity
  8
LOCKABLE DOWEL SLEEVE
  6
HIDDEN1_01
100
AcDbLine
 10
41.9842003599079
 20
3089.607605431579
 30
0.0
 11
41.9842003599079
 21
3061.607605431579
 31
0.0
  0
LINE
  5
307
330
2
100
AcDbEntity
  8
LOCKABLE DOWEL SLEEVE
  6
HIDDEN1_01
100
AcDbLine
 10
41.4842003599079
 20
3061.107605431579
 30
0.0
 11
41.9842003599079
 21
3061.607605431579
 31
0.0
  0
LINE
  5
308
330
2
100
AcDbEntity
  8
LOCKABLE DOWEL SLEEVE
  6
HIDDEN1_01
100
AcDbLine
 10
37.28420035990786
 20
3089.607605431579
 30
0.0
 11
37.28420035990791
 21
3061.607605431579
 31
0.0
  0
LINE
  5
309
330
2
100
AcDbEntity
  8
LOCKABLE DOWEL DOWEL COMPONENT
 48
0.5
100
AcDbLine
 10
-380.8157996400921
 20
3090.607605431579
 30
0.0
 11
-380.8157996400921
 21
3077.14388768938
 31
0.0
  0
LINE
  5
30A
330
2
100
AcDbEntity
  8
LOCKABLE DOWEL DOWEL COMPONENT
 48
0.5
100
AcDbLine
 10
-380.8157996400921
 20
3060.607605431579
 30
0.0
 11
-380.8157996400921
 21
3072.989396451936
 31
0.0
  0
LINE
  5
30B
330
2
100
AcDbEntity
  8
LOCKABLE DOWEL SLEEVE
  6
HIDDEN1_01
100
AcDbLine
 10
27.58420035990793
 20
3061.107605431579
 30
0.0
 11
31.28420035990786
 21
3061.107605431579
 31
0.0
  0
LINE
  5
30C
330
2
100
AcDbEntity
  8
LOCKABLE DOWEL SLEEVE
  6
HIDDEN1_01
100
AcDbLine
 10
31.78420035990786
 20
3061.607605431579
 30
0.0
 11
31.28420035990786
 21
3061.107605431579
 31
0.0
  0
LINE
  5
30D
330
2
100
AcDbEntity
  8
LOCKABLE DOWEL SLEEVE
  6
HIDDEN1_01
100
AcDbLine
 10
27.08420035990793
 20
3061.607605431579
 30
0.0
 11
27.58420035990793
 21
3061.107605431579
 31
0.0
  0
LINE
  5
30E
330
2
100
AcDbEntity
  8
LOCKABLE DOWEL SLEEVE
  6
HIDDEN1_01
100
AcDbLine
 10
27.58420035990798
 20
3090.107605431579
 30
0.0
 11
31.28420035990791
 21
3090.107605431579
 31
0.0
  0
LINE
  5
30F
330
2
100
AcDbEntity
  8
LOCKABLE DOWEL SLEEVE
  6
HIDDEN1_01
100
AcDbLine
 10
31.78420035990792
 20
3089.607605431579
 30
0.0
 11
31.28420035990791
 21
3090.107605431579
 31
0.0
  0
LINE
  5
310
330
2
100
AcDbEntity
  8
LOCKABLE DOWEL SLEEVE
  6
HIDDEN1_01
100
AcDbLine
 10
27.08420035990798
 20
3089.607605431579
 30
0.0
 11
27.58420035990798
 21
3090.107605431579
 31
0.0
  0
LINE
  5
311
330
2
100
AcDbEntity
  8
LOCKABLE DOWEL SLEEVE
  6
HIDDEN1_01
100
AcDbLine
 10
31.78420035990792
 20
3089.607605431579
 30
0.0
 11
31.78420035990786
 21
3061.607605431579
 31
0.0
  0
LINE
  5
312
330
2
100
AcDbEntity
  8
LOCKABLE DOWEL SLEEVE
  6
HIDDEN1_01
100
AcDbLine
 10
27.08420035990798
 20
3089.607605431579
 30
0.0
 11
27.08420035990793
 21
3061.607605431579
 31
0.0
  0
LINE
  5
313
330
2
100
AcDbEntity
  8
LOCKABLE DOWEL SLEEVE
  6
HIDDEN1_01
100
AcDbLine
 10
17.38420035990793
 20
3061.107605431579
 30
0.0
 11
21.08420035990787
 21
3061.107605431579
 31
0.0
  0
LINE
  5
314
330
2
100
AcDbEntity
  8
LOCKABLE DOWEL SLEEVE
  6
HIDDEN1_01
100
AcDbLine
 10
17.38420035990793
 20
3090.107605431579
 30
0.0
 11
21.08420035990793
 21
3090.107605431579
 31
0.0
  0
LINE
  5
315
330
2
100
AcDbEntity
  8
LOCKABLE DOWEL SLEEVE
  6
HIDDEN1_01
100
AcDbLine
 10
16.88420035990793
 20
3089.607605431579
 30
0.0
 11
17.38420035990793
 21
3090.107605431579
 31
0.0
  0
LINE
  5
316
330
2
100
AcDbEntity
  8
LOCKABLE DOWEL SLEEVE
  6
HIDDEN1_01
100
AcDbLine
 10
21.58420035990793
 20
3089.607605431579
 30
0.0
 11
21.08420035990793
 21
3090.107605431579
 31
0.0
  0
LINE
  5
317
330
2
100
AcDbEntity
  8
LOCKABLE DOWEL SLEEVE
  6
HIDDEN1_01
100
AcDbLine
 10
21.58420035990793
 20
3089.607605431579
 30
0.0
 11
21.58420035990787
 21
3061.607605431579
 31
0.0
  0
LINE
  5
318
330
2
100
AcDbEntity
  8
LOCKABLE DOWEL SLEEVE
  6
HIDDEN1_01
100
AcDbLine
 10
21.08420035990787
 20
3061.107605431579
 30
0.0
 11
21.58420035990787
 21
3061.607605431579
 31
0.0
  0
LINE
  5
319
330
2
100
AcDbEntity
  8
LOCKABLE DOWEL SLEEVE
  6
HIDDEN1_01
100
AcDbLine
 10
16.88420035990793
 20
3089.607605431579
 30
0.0
 11
16.88420035990793
 21
3061.607605431579
 31
0.0
  0
LINE
  5
31A
330
2
100
AcDbEntity
  8
LOCKABLE DOWEL SLEEVE
  6
HIDDEN1_01
100
AcDbLine
 10
17.38420035990793
 20
3061.107605431579
 30
0.0
 11
16.88420035990793
 21
3061.607605431579
 31
0.0
  0
LINE
  5
31B
330
2
100
AcDbEntity
  8
LOCKABLE DOWEL SLEEVE
  6
HIDDEN1_01
100
AcDbLine
 10
7.184200359907947
 20
3061.107605431579
 30
0.0
 11
10.88420035990788
 21
3061.107605431579
 31
0.0
  0
LINE
  5
31C
330
2
100
AcDbEntity
  8
LOCKABLE DOWEL SLEEVE
  6
HIDDEN1_01
100
AcDbLine
 10
6.684200359907947
 20
3061.607605431579
 30
0.0
 11
7.184200359907947
 21
3061.107605431579
 31
0.0
  0
LINE
  5
31D
330
2
100
AcDbEntity
  8
LOCKABLE DOWEL SLEEVE
  6
HIDDEN1_01
100
AcDbLine
 10
7.184200359907947
 20
3090.107605431579
 30
0.0
 11
10.88420035990793
 21
3090.107605431579
 31
0.0
  0
LINE
  5
31E
330
2
100
AcDbEntity
  8
LOCKABLE DOWEL SLEEVE
  6
HIDDEN1_01
100
AcDbLine
 10
11.38420035990793
 20
3089.607605431579
 30
0.0
 11
10.88420035990793
 21
3090.107605431579
 31
0.0
  0
LINE
  5
31F
330
2
100
AcDbEntity
  8
LOCKABLE DOWEL SLEEVE
  6
HIDDEN1_01
100
AcDbLine
 10
6.684200359907947
 20
3089.607605431579
 30
0.0
 11
7.184200359907947
 21
3090.107605431579
 31
0.0
  0
LINE
  5
320
330
2
100
AcDbEntity
  8
LOCKABLE DOWEL SLEEVE
  6
HIDDEN1_01
100
AcDbLine
 10
11.38420035990793
 20
3089.607605431579
 30
0.0
 11
11.38420035990788
 21
3061.607605431579
 31
0.0
  0
LINE
  5
321
330
2
100
AcDbEntity
  8
LOCKABLE DOWEL SLEEVE
  6
HIDDEN1_01
100
AcDbLine
 10
10.88420035990788
 20
3061.107605431579
 30
0.0
 11
11.38420035990788
 21
3061.607605431579
 31
0.0
  0
LINE
  5
322
330
2
100
AcDbEntity
  8
LOCKABLE DOWEL SLEEVE
  6
HIDDEN1_01
100
AcDbLine
 10
6.684200359907947
 20
3089.607605431579
 30
0.0
 11
6.684200359907947
 21
3061.607605431579
 31
0.0
  0
LINE
  5
323
330
2
100
AcDbEntity
  8
LOCKABLE DOWEL SLEEVE
  6
HIDDEN1_01
100
AcDbLine
 10
-3.015799640091984
 20
3061.107605431579
 30
0.0
 11
0.6842003599078908
 21
3061.107605431579
 31
0.0
  0
LINE
  5
324
330
2
100
AcDbEntity
  8
LOCKABLE DOWEL SLEEVE
  6
HIDDEN1_01
100
AcDbLine
 10
-3.515799640091984
 20
3061.607605431579
 30
0.0
 11
-3.015799640091984
 21
3061.107605431579
 31
0.0
  0
LINE
  5
325
330
2
100
AcDbEntity
  8
LOCKABLE DOWEL SLEEVE
  6
HIDDEN1_01
100
AcDbLine
 10
-3.015799640092041
 20
3090.107605431579
 30
0.0
 11
0.6842003599080045
 21
3090.107605431579
 31
0.0
  0
LINE
  5
326
330
2
100
AcDbEntity
  8
LOCKABLE DOWEL SLEEVE
  6
HIDDEN1_01
100
AcDbLine
 10
-3.515799640092041
 20
3089.607605431579
 30
0.0
 11
-3.015799640092041
 21
3090.107605431579
 31
0.0
  0
LINE
  5
327
330
2
100
AcDbEntity
  8
LOCKABLE DOWEL SLEEVE
  6
HIDDEN1_01
100
AcDbLine
 10
1.184200359908004
 20
3089.607605431579
 30
0.0
 11
1.18420035990789
 21
3061.607605431579
 31
0.0
  0
LINE
  5
328
330
2
100
AcDbEntity
  8
LOCKABLE DOWEL SLEEVE
  6
HIDDEN1_01
100
AcDbLine
 10
0.6842003599080045
 20
3090.107605431579
 30
0.0
 11
1.184200359908004
 21
3089.607605431579
 31
0.0
  0
LINE
  5
329
330
2
100
AcDbEntity
  8
LOCKABLE DOWEL SLEEVE
  6
HIDDEN1_01
100
AcDbLine
 10
0.6842003599078908
 20
3061.107605431579
 30
0.0
 11
1.18420035990789
 21
3061.607605431579
 31
0.0
  0
LINE
  5
32A
330
2
100
AcDbEntity
  8
LOCKABLE DOWEL SLEEVE
  6
HIDDEN1_01
100
AcDbLine
 10
-3.515799640092041
 20
3089.607605431579
 30
0.0
 11
-3.515799640091984
 21
3061.607605431579
 31
0.0
  0
ARC
  5
32B
330
2
100
AcDbEntity
  8
LOCKABLE DOWEL SLEEVE
  6
HIDDEN1_01
100
AcDbCircle
 10
-3.815799640092052
 20
3085.907605431579
 30
0.0
 40
0.3
100
AcDbArc
 50
270.0
 51
0.0
  0
LINE
  5
32E
330
2
100
AcDbEntity
  8
LOCKABLE DOWEL SLEEVE
  6
HIDDEN1_01
100
AcDbLine
 10
-9.015799640092041
 20
3090.107605431579
 30
0.0
 11
-9.015799640092041
 21
3061.107605431579
 31
0.0
  0
LINE
  5
32F
330
2
100
AcDbEntity
  8
LOCKABLE DOWEL SLEEVE
  6
HIDDEN1_01
100
AcDbLine
 10
-9.515799640092041
 20
3060.607605431579
 30
0.0
 11
-9.015799640092041
 21
3061.107605431579
 31
0.0
  0
LINE
  5
330
330
2
100
AcDbEntity
  8
LOCKABLE DOWEL SLEEVE
  6
HIDDEN1_01
100
AcDbLine
 10
-9.515799640092041
 20
3090.607605431579
 30
0.0
 11
-9.515799640092041
 21
3082.035302914154
 31
0.0
  0
LINE
  5
331
330
2
100
AcDbEntity
  8
LOCKABLE DOWEL SLEEVE
  6
HIDDEN1_01
100
AcDbLine
 10
-9.515799640092041
 20
3060.607605431579
 30
0.0
 11
-9.515799640092041
 21
3068.224794782663
 31
0.0
  0
LINE
  5
332
330
2
100
AcDbEntity
  8
LOCKABLE DOWEL SLEEVE
  6
HIDDEN1_01
100
AcDbLine
 10
-3.015799640092041
 20
3090.107605431579
 30
0.0
 11
-3.015799640092041
 21
3082.035302914154
 31
0.0
  0
LINE
  5
333
330
2
100
AcDbEntity
  8
LOCKABLE DOWEL SLEEVE
  6
HIDDEN1_01
100
AcDbLine
 10
-3.015799640092041
 20
3061.107605431579
 30
0.0
 11
-3.015799640092041
 21
3068.224794782663
 31
0.0
  0
LINE
  5
334
330
2
100
AcDbEntity
  8
LOCKABLE DOWEL SLEEVE
  6
HIDDEN1_01
100
AcDbLine
 10
0.6842003599080045
 20
3090.107605431579
 30
0.0
 11
0.6842003599080045
 21
3082.035302914154
 31
0.0
  0
LINE
  5
335
330
2
100
AcDbEntity
  8
LOCKABLE DOWEL SLEEVE
  6
HIDDEN1_01
100
AcDbLine
 10
0.6842003599080045
 20
3061.107605431579
 30
0.0
 11
0.6842003599080045
 21
3068.224794782663
 31
0.0
  0
LINE
  5
336
330
2
100
AcDbEntity
  8
LOCKABLE DOWEL SLEEVE
  6
HIDDEN1_01
100
AcDbLine
 10
7.184200359907947
 20
3090.107605431579
 30
0.0
 11
7.184200359907947
 21
3082.035302914154
 31
0.0
  0
LINE
  5
337
330
2
100
AcDbEntity
  8
LOCKABLE DOWEL SLEEVE
  6
HIDDEN1_01
100
AcDbLine
 10
7.184200359907947
 20
3061.107605431579
 30
0.0
 11
7.184200359907947
 21
3068.224794782663
 31
0.0
  0
LINE
  5
338
330
2
100
AcDbEntity
  8
LOCKABLE DOWEL SLEEVE
  6
HIDDEN1_01
100
AcDbLine
 10
10.88420035990793
 20
3090.107605431579
 30
0.0
 11
10.88420035990793
 21
3082.035302914154
 31
0.0
  0
LINE
  5
339
330
2
100
AcDbEntity
  8
LOCKABLE DOWEL SLEEVE
  6
HIDDEN1_01
100
AcDbLine
 10
10.88420035990793
 20
3061.107605431579
 30
0.0
 11
10.88420035990793
 21
3068.224794782663
 31
0.0
  0
LINE
  5
33A
330
2
100
AcDbEntity
  8
LOCKABLE DOWEL SLEEVE
  6
HIDDEN1_01
100
AcDbLine
 10
17.38420035990793
 20
3090.107605431579
 30
0.0
 11
17.38420035990793
 21
3082.035302914154
 31
0.0
  0
LINE
  5
33B
330
2
100
AcDbEntity
  8
LOCKABLE DOWEL SLEEVE
  6
HIDDEN1_01
100
AcDbLine
 10
17.38420035990793
 20
3061.107605431579
 30
0.0
 11
17.38420035990793
 21
3068.224794782663
 31
0.0
  0
LINE
  5
33C
330
2
100
AcDbEntity
  8
LOCKABLE DOWEL SLEEVE
  6
HIDDEN1_01
100
AcDbLine
 10
21.08420035990793
 20
3090.107605431579
 30
0.0
 11
21.08420035990793
 21
3082.035302914154
 31
0.0
  0
LINE
  5
33D
330
2
100
AcDbEntity
  8
LOCKABLE DOWEL SLEEVE
  6
HIDDEN1_01
100
AcDbLine
 10
21.08420035990793
 20
3061.107605431579
 30
0.0
 11
21.08420035990793
 21
3068.224794782663
 31
0.0
  0
LINE
  5
33E
330
2
100
AcDbEntity
  8
LOCKABLE DOWEL SLEEVE
  6
HIDDEN1_01
100
AcDbLine
 10
27.58420035990798
 20
3090.107605431579
 30
0.0
 11
27.58420035990798
 21
3082.035302914154
 31
0.0
  0
LINE
  5
33F
330
2
100
AcDbEntity
  8
LOCKABLE DOWEL SLEEVE
  6
HIDDEN1_01
100
AcDbLine
 10
27.58420035990798
 20
3061.107605431579
 30
0.0
 11
27.58420035990798
 21
3068.224794782663
 31
0.0
  0
LINE
  5
340
330
2
100
AcDbEntity
  8
LOCKABLE DOWEL SLEEVE
  6
HIDDEN1_01
100
AcDbLine
 10
31.28420035990791
 20
3090.107605431579
 30
0.0
 11
31.28420035990791
 21
3082.035302914154
 31
0.0
  0
LINE
  5
341
330
2
100
AcDbEntity
  8
LOCKABLE DOWEL SLEEVE
  6
HIDDEN1_01
100
AcDbLine
 10
31.28420035990791
 20
3061.107605431579
 30
0.0
 11
31.28420035990791
 21
3068.224794782663
 31
0.0
  0
LINE
  5
342
330
2
100
AcDbEntity
  8
LOCKABLE DOWEL SLEEVE
  6
HIDDEN1_01
100
AcDbLine
 10
37.78420035990786
 20
3090.107605431579
 30
0.0
 11
37.78420035990786
 21
3082.035302914154
 31
0.0
  0
LINE
  5
343
330
2
100
AcDbEntity
  8
LOCKABLE DOWEL SLEEVE
  6
HIDDEN1_01
100
AcDbLine
 10
37.78420035990786
 20
3061.107605431579
 30
0.0
 11
37.78420035990786
 21
3068.224794782663
 31
0.0
  0
LINE
  5
344
330
2
100
AcDbEntity
  8
LOCKABLE DOWEL SLEEVE
  6
HIDDEN1_01
100
AcDbLine
 10
41.4842003599079
 20
3090.107605431579
 30
0.0
 11
41.4842003599079
 21
3082.035302914154
 31
0.0
  0
LINE
  5
345
330
2
100
AcDbEntity
  8
LOCKABLE DOWEL SLEEVE
  6
HIDDEN1_01
100
AcDbLine
 10
41.4842003599079
 20
3061.107605431579
 30
0.0
 11
41.4842003599079
 21
3068.224794782663
 31
0.0
  0
LINE
  5
346
330
2
100
AcDbEntity
  8
LOCKABLE DOWEL SLEEVE
  6
HIDDEN1_01
100
AcDbLine
 10
47.9842003599079
 20
3090.107605431579
 30
0.0
 11
47.9842003599079
 21
3082.035302914154
 31
0.0
  0
LINE
  5
347
330
2
100
AcDbEntity
  8
LOCKABLE DOWEL SLEEVE
  6
HIDDEN1_01
100
AcDbLine
 10
47.9842003599079
 20
3061.107605431579
 30
0.0
 11
47.9842003599079
 21
3068.224794782663
 31
0.0
  0
LINE
  5
348
330
2
100
AcDbEntity
  8
LOCKABLE DOWEL SLEEVE
  6
HIDDEN1_01
100
AcDbLine
 10
51.68420035990783
 20
3090.107605431579
 30
0.0
 11
51.68420035990783
 21
3082.035302914154
 31
0.0
  0
LINE
  5
349
330
2
100
AcDbEntity
  8
LOCKABLE DOWEL SLEEVE
  6
HIDDEN1_01
100
AcDbLine
 10
51.68420035990783
 20
3061.107605431579
 30
0.0
 11
51.68420035990783
 21
3068.224794782663
 31
0.0
  0
LINE
  5
34A
330
2
100
AcDbEntity
  8
LOCKABLE DOWEL SLEEVE
  6
HIDDEN1_01
100
AcDbLine
 10
-365.6157996400922
 20
3085.607605431579
 30
0.0
 11
-371.765799640092
 21
3085.607605431579
 31
0.0
  0
LINE
  5
34B
330
2
100
AcDbEntity
  8
LOCKABLE DOWEL SLEEVE
  6
HIDDEN1_01
100
AcDbLine
 10
-365.6157996400921
 20
3065.607605431579
 30
0.0
 11
-371.765799640092
 21
3065.607605431579
 31
0.0
  0
ARC
  5
34C
330
2
100
AcDbEntity
  8
LOCKABLE DOWEL SLEEVE
  6
HIDDEN1_01
100
AcDbCircle
 10
1.484200359907958
 20
3085.907605431579
 30
0.0
 40
0.3
100
AcDbArc
 50
180.0
 51
270.0
  0
ARC
  5
34D
330
2
100
AcDbEntity
  8
LOCKABLE DOWEL SLEEVE
  6
HIDDEN1_01
100
AcDbCircle
 10
6.384200359907936
 20
3085.907605431579
 30
0.0
 40
0.3
100
AcDbArc
 50
270.0
 51
0.0
  0
ARC
  5
34E
330
2
100
AcDbEntity
  8
LOCKABLE DOWEL SLEEVE
  6
HIDDEN1_01
100
AcDbCircle
 10
11.68420035990795
 20
3085.907605431579
 30
0.0
 40
0.3
100
AcDbArc
 50
180.0
 51
270.0
  0
ARC
  5
34F
330
2
100
AcDbEntity
  8
LOCKABLE DOWEL SLEEVE
  6
HIDDEN1_01
100
AcDbCircle
 10
16.58420035990792
 20
3085.907605431579
 30
0.0
 40
0.3
100
AcDbArc
 50
270.0
 51
0.0
  0
ARC
  5
350
330
2
100
AcDbEntity
  8
LOCKABLE DOWEL SLEEVE
  6
HIDDEN1_01
100
AcDbCircle
 10
21.88420035990799
 20
3085.907605431579
 30
0.0
 40
0.3
100
AcDbArc
 50
180.0
 51
270.0
  0
ARC
  5
351
330
2
100
AcDbEntity
  8
LOCKABLE DOWEL SLEEVE
  6
HIDDEN1_01
100
AcDbCircle
 10
26.78420035990797
 20
3085.907605431579
 30
0.0
 40
0.3
100
AcDbArc
 50
270.0
 51
0.0
  0
ARC
  5
352
330
2
100
AcDbEntity
  8
LOCKABLE DOWEL SLEEVE
  6
HIDDEN1_01
100
AcDbCircle
 10
32.08420035990793
 20
3085.907605431579
 30
0.0
 40
0.3
100
AcDbArc
 50
180.0
 51
270.0
  0
ARC
  5
353
330
2
100
AcDbEntity
  8
LOCKABLE DOWEL SLEEVE
  6
HIDDEN1_01
100
AcDbCircle
 10
36.9842003599079
 20
3085.907605431579
 30
0.0
 40
0.3
100
AcDbArc
 50
270.0
 51
0.0
  0
ARC
  5
354
330
2
100
AcDbEntity
  8
LOCKABLE DOWEL SLEEVE
  6
HIDDEN1_01
100
AcDbCircle
 10
42.28420035990786
 20
3085.907605431579
 30
0.0
 40
0.3
100
AcDbArc
 50
180.0
 51
270.0
  0
ARC
  5
355
330
2
100
AcDbEntity
  8
LOCKABLE DOWEL SLEEVE
  6
HIDDEN1_01
100
AcDbCircle
 10
47.18420035990783
 20
3085.907605431579
 30
0.0
 40
0.3
100
AcDbArc
 50
270.0
 51
0.0
  0
LINE
  5
356
330
2
100
AcDbEntity
  8
LOCKABLE DOWEL SLEEVE
  6
HIDDEN1_01
100
AcDbLine
 10
-8.715799640092029
 20
3065.607605431579
 30
0.0
 11
-3.815799640092052
 21
3065.607605431579
 31
0.0
  0
ARC
  5
357
330
2
100
AcDbEntity
  8
LOCKABLE DOWEL SLEEVE
  6
HIDDEN1_01
100
AcDbCircle
 10
-8.715799640092029
 20
3065.307605431579
 30
0.0
 40
0.3
100
AcDbArc
 50
90.0
 51
180.0
  0
LINE
  5
358
330
2
100
AcDbEntity
  8
LOCKABLE DOWEL SLEEVE
  6
HIDDEN1_01
100
AcDbLine
 10
1.484200359907958
 20
3065.607605431579
 30
0.0
 11
6.384200359907936
 21
3065.607605431579
 31
0.0
  0
LINE
  5
359
330
2
100
AcDbEntity
  8
LOCKABLE DOWEL SLEEVE
  6
HIDDEN1_01
100
AcDbLine
 10
11.68420035990795
 20
3065.607605431579
 30
0.0
 11
16.58420035990792
 21
3065.607605431579
 31
0.0
  0
LINE
  5
35A
330
2
100
AcDbEntity
  8
LOCKABLE DOWEL SLEEVE
  6
HIDDEN1_01
100
AcDbLine
 10
21.88420035990794
 20
3065.607605431579
 30
0.0
 11
26.78420035990803
 21
3065.607605431579
 31
0.0
  0
LINE
  5
35B
330
2
100
AcDbEntity
  8
LOCKABLE DOWEL SLEEVE
  6
HIDDEN1_01
100
AcDbLine
 10
32.08420035990793
 20
3065.607605431579
 30
0.0
 11
36.9842003599079
 21
3065.607605431579
 31
0.0
  0
LINE
  5
35C
330
2
100
AcDbEntity
  8
LOCKABLE DOWEL SLEEVE
  6
HIDDEN1_01
100
AcDbLine
 10
42.28420035990786
 20
3065.607605431579
 30
0.0
 11
47.18420035990783
 21
3065.607605431579
 31
0.0
  0
ARC
  5
35D
330
2
100
AcDbEntity
  8
LOCKABLE DOWEL SLEEVE
  6
HIDDEN1_01
100
AcDbCircle
 10
-3.815799640092052
 20
3065.307605431579
 30
0.0
 40
0.3
100
AcDbArc
 50
0.0
 51
90.0
  0
ARC
  5
35E
330
2
100
AcDbEntity
  8
LOCKABLE DOWEL SLEEVE
  6
HIDDEN1_01
100
AcDbCircle
 10
1.484200359907958
 20
3065.307605431579
 30
0.0
 40
0.3
100
AcDbArc
 50
90.0
 51
180.0
  0
ARC
  5
35F
330
2
100
AcDbEntity
  8
LOCKABLE DOWEL SLEEVE
  6
HIDDEN1_01
100
AcDbCircle
 10
6.384200359907936
 20
3065.307605431579
 30
0.0
 40
0.3
100
AcDbArc
 50
0.0
 51
90.0
  0
ARC
  5
360
330
2
100
AcDbEntity
  8
LOCKABLE DOWEL SLEEVE
  6
HIDDEN1_01
100
AcDbCircle
 10
11.68420035990795
 20
3065.307605431579
 30
0.0
 40
0.3
100
AcDbArc
 50
90.0
 51
180.0
  0
ARC
  5
361
330
2
100
AcDbEntity
  8
LOCKABLE DOWEL SLEEVE
  6
HIDDEN1_01
100
AcDbCircle
 10
16.58420035990792
 20
3065.307605431579
 30
0.0
 40
0.3
100
AcDbArc
 50
0.0
 51
90.0
  0
ARC
  5
362
330
2
100
AcDbEntity
  8
LOCKABLE DOWEL SLEEVE
  6
HIDDEN1_01
100
AcDbCircle
 10
21.88420035990799
 20
3065.307605431579
 30
0.0
 40
0.3
100
AcDbArc
 50
90.0
 51
180.0
  0
ARC
  5
363
330
2
100
AcDbEntity
  8
LOCKABLE DOWEL SLEEVE
  6
HIDDEN1_01
100
AcDbCircle
 10
26.78420035990797
 20
3065.307605431579
 30
0.0
 40
0.3
100
AcDbArc
 50
0.0
 51
90.0
  0
ARC
  5
364
330
2
100
AcDbEntity
  8
LOCKABLE DOWEL SLEEVE
  6
HIDDEN1_01
100
AcDbCircle
 10
32.08420035990793
 20
3065.307605431579
 30
0.0
 40
0.3
100
AcDbArc
 50
90.0
 51
180.0
  0
ARC
  5
365
330
2
100
AcDbEntity
  8
LOCKABLE DOWEL SLEEVE
  6
HIDDEN1_01
100
AcDbCircle
 10
36.9842003599079
 20
3065.307605431579
 30
0.0
 40
0.3
100
AcDbArc
 50
0.0
 51
90.0
  0
ARC
  5
366
330
2
100
AcDbEntity
  8
LOCKABLE DOWEL SLEEVE
  6
HIDDEN1_01
100
AcDbCircle
 10
42.28420035990786
 20
3065.307605431579
 30
0.0
 40
0.3
100
AcDbArc
 50
90.0
 51
180.0
  0
ARC
  5
367
330
2
100
AcDbEntity
  8
LOCKABLE DOWEL SLEEVE
  6
HIDDEN1_01
100
AcDbCircle
 10
47.18420035990783
 20
3065.307605431579
 30
0.0
 40
0.3
100
AcDbArc
 50
0.0
 51
90.0
  0
LINE
  5
4FA
330
2
100
AcDbEntity
  8
LOCKABLE DOWEL SLEEVE
  6
HIDDEN1_01
100
AcDbLine
 10
-9.515799640092041
 20
3090.607605431579
 30
0.0
 11
-172.8157996400926
 21
3090.607605431579
 31
0.0
  0
LINE
  5
4FB
330
2
100
AcDbEntity
  8
LOCKABLE DOWEL SLEEVE
  6
HIDDEN1_01
100
AcDbLine
 10
-172.8157996400925
 20
3060.60760543158
 30
0.0
 11
-9.515799640092041
 21
3060.607605431579
 31
0.0
  0
LINE
  5
4FE
330
2
100
AcDbEntity
  8
LOCKABLE DOWEL SLEEVE
  6
HIDDEN1_01
100
AcDbLine
 10
-8.715799640091859
 20
2888.537090169437
 30
0.0
 11
-3.815799640091881
 21
2888.537090169437
 31
0.0
  0
ARC
  5
4FF
330
2
100
AcDbEntity
  8
LOCKABLE DOWEL SLEEVE
  6
HIDDEN1_01
100
AcDbCircle
 10
-8.715799640091859
 20
2888.837090169437
 30
0.0
 40
0.3
100
AcDbArc
 50
180.0
 51
270.0
  0
LINE
  5
500
330
2
100
AcDbEntity
  8
LOCKABLE DOWEL SLEEVE
  6
HIDDEN1_01
100
AcDbLine
 10
1.484200359908129
 20
2888.537090169437
 30
0.0
 11
6.384200359908106
 21
2888.537090169437
 31
0.0
  0
LINE
  5
501
330
2
100
AcDbEntity
  8
LOCKABLE DOWEL SLEEVE
  6
HIDDEN1_01
100
AcDbLine
 10
11.68420035990812
 20
2888.537090169437
 30
0.0
 11
16.58420035990809
 21
2888.537090169437
 31
0.0
  0
LINE
  5
502
330
2
100
AcDbEntity
  8
LOCKABLE DOWEL SLEEVE
  6
HIDDEN1_01
100
AcDbLine
 10
21.88420035990811
 20
2888.537090169437
 30
0.0
 11
26.7842003599082
 21
2888.537090169437
 31
0.0
  0
LINE
  5
503
330
2
100
AcDbEntity
  8
LOCKABLE DOWEL SLEEVE
  6
HIDDEN1_01
100
AcDbLine
 10
32.0842003599081
 20
2888.537090169437
 30
0.0
 11
36.98420035990807
 21
2888.537090169437
 31
0.0
  0
LINE
  5
504
330
2
100
AcDbEntity
  8
LOCKABLE DOWEL SLEEVE
  6
HIDDEN1_01
100
AcDbLine
 10
42.28420035990803
 20
2888.537090169437
 30
0.0
 11
47.184200359908
 21
2888.537090169437
 31
0.0
  0
LINE
  5
505
330
2
100
AcDbEntity
  8
LOCKABLE DOWEL DOWEL COMPONENT
 48
0.5
100
AcDbLine
 10
-380.815799640092
 20
2863.537090169437
 30
0.0
 11
-371.7657996400919
 21
2863.537090169437
 31
0.0
  0
LINE
  5
506
330
2
100
AcDbEntity
  8
LOCKABLE DOWEL DOWEL COMPONENT
 48
0.5
100
AcDbLine
 10
-365.615799640092
 20
2863.537090169437
 30
0.0
 11
-172.8157996400924
 21
2863.537090169437
 31
0.0
  0
LINE
  5
507
330
2
100
AcDbEntity
  8
LOCKABLE DOWEL SLEEVE
  6
HIDDEN1_01
100
AcDbLine
 10
-3.015799640091813
 20
2864.037090169436
 30
0.0
 11
-2.315799640091881
 21
2864.037090169436
 31
0.0
  0
LINE
  5
508
330
2
100
AcDbEntity
  8
LOCKABLE DOWEL SLEEVE
  6
HIDDEN1_01
100
AcDbLine
 10
37.78420035990809
 20
2864.037090169436
 30
0.0
 11
41.48420035990807
 21
2864.037090169436
 31
0.0
  0
LINE
  5
509
330
2
100
AcDbEntity
  8
LOCKABLE DOWEL SLEEVE
  6
HIDDEN1_01
100
AcDbLine
 10
37.28420035990808
 20
2864.537090169437
 30
0.0
 11
37.78420035990809
 21
2864.037090169436
 31
0.0
  0
LINE
  5
50A
330
2
100
AcDbEntity
  8
LOCKABLE DOWEL SLEEVE
  6
HIDDEN1_01
100
AcDbLine
 10
47.98420035990807
 20
2864.037090169436
 30
0.0
 11
51.68420035990806
 21
2864.037090169436
 31
0.0
  0
LINE
  5
50B
330
2
100
AcDbEntity
  8
LOCKABLE DOWEL SLEEVE
  6
HIDDEN1_01
100
AcDbLine
 10
47.48420035990807
 20
2864.537090169437
 30
0.0
 11
47.98420035990807
 21
2864.037090169436
 31
0.0
  0
LINE
  5
50C
330
2
100
AcDbEntity
  8
LOCKABLE DOWEL DOWEL COMPONENT
 48
0.5
100
AcDbLine
 10
-382.815799640092
 20
2865.537090169437
 30
0.0
 11
-380.815799640092
 21
2863.537090169437
 31
0.0
  0
LINE
  5
50D
330
2
100
AcDbEntity
  8
LOCKABLE DOWEL DOWEL COMPONENT
 48
0.5
100
AcDbLine
 10
-380.815799640092
 20
2893.537090169436
 30
0.0
 11
-371.7657996400919
 21
2893.537090169436
 31
0.0
  0
LINE
  5
50E
330
2
100
AcDbEntity
  8
LOCKABLE DOWEL DOWEL COMPONENT
 48
0.5
100
AcDbLine
 10
-365.615799640092
 20
2893.537090169436
 30
0.0
 11
-172.8157996400924
 21
2893.537090169437
 31
0.0
  0
LINE
  5
50F
330
2
100
AcDbEntity
  8
LOCKABLE DOWEL SLEEVE
  6
HIDDEN1_01
100
AcDbLine
 10
-9.01579964009187
 20
2893.037090169436
 30
0.0
 11
-9.51579964009187
 21
2893.537090169436
 31
0.0
  0
LINE
  5
510
330
2
100
AcDbEntity
  8
LOCKABLE DOWEL SLEEVE
  6
HIDDEN1_01
100
AcDbLine
 10
-3.015799640091813
 20
2893.037090169436
 30
0.0
 11
-2.315799640091881
 21
2893.037090169436
 31
0.0
  0
LINE
  5
511
330
2
100
AcDbEntity
  8
LOCKABLE DOWEL SLEEVE
  6
HIDDEN1_01
100
AcDbLine
 10
37.78420035990803
 20
2893.037090169436
 30
0.0
 11
41.48420035990807
 21
2893.037090169436
 31
0.0
  0
LINE
  5
512
330
2
100
AcDbEntity
  8
LOCKABLE DOWEL SLEEVE
  6
HIDDEN1_01
100
AcDbLine
 10
41.98420035990807
 20
2892.537090169437
 30
0.0
 11
41.48420035990807
 21
2893.037090169436
 31
0.0
  0
LINE
  5
513
330
2
100
AcDbEntity
  8
LOCKABLE DOWEL SLEEVE
  6
HIDDEN1_01
100
AcDbLine
 10
37.28420035990803
 20
2892.537090169437
 30
0.0
 11
37.78420035990803
 21
2893.037090169436
 31
0.0
  0
LINE
  5
514
330
2
100
AcDbEntity
  8
LOCKABLE DOWEL SLEEVE
  6
HIDDEN1_01
100
AcDbLine
 10
47.98420035990807
 20
2893.037090169436
 30
0.0
 11
51.684200359908
 21
2893.037090169436
 31
0.0
  0
LINE
  5
515
330
2
100
AcDbEntity
  8
LOCKABLE DOWEL SLEEVE
  6
HIDDEN1_01
100
AcDbLine
 10
47.48420035990807
 20
2892.537090169437
 30
0.0
 11
47.98420035990807
 21
2893.037090169436
 31
0.0
  0
LINE
  5
516
330
2
100
AcDbEntity
  8
LOCKABLE DOWEL DOWEL COMPONENT
 48
0.5
100
AcDbLine
 10
-382.815799640092
 20
2891.537090169436
 30
0.0
 11
-380.815799640092
 21
2893.537090169436
 31
0.0
  0
LINE
  5
517
330
2
100
AcDbEntity
  8
LOCKABLE DOWEL DOWEL COMPONENT
 48
0.5
100
AcDbLine
 10
-382.815799640092
 20
2891.537090169436
 30
0.0
 11
-382.815799640092
 21
2865.537090169437
 31
0.0
  0
LINE
  5
518
330
2
100
AcDbEntity
  8
LOCKABLE DOWEL DOWEL COMPONENT
 48
0.5
100
AcDbLine
 10
-365.615799640092
 20
2893.537090169436
 30
0.0
 11
-365.615799640092
 21
2863.537090169437
 31
0.0
  0
LINE
  5
519
330
2
100
AcDbEntity
  8
LOCKABLE DOWEL DOWEL COMPONENT
 48
0.5
100
AcDbLine
 10
-371.7657996400919
 20
2893.537090169436
 30
0.0
 11
-371.7657996400919
 21
2863.537090169437
 31
0.0
  0
LINE
  5
51A
330
2
100
AcDbEntity
  8
LOCKABLE DOWEL SLEEVE
  6
HIDDEN1_01
100
AcDbLine
 10
52.184200359908
 20
2892.537090169437
 30
0.0
 11
52.18420035990806
 21
2864.537090169437
 31
0.0
  0
LINE
  5
51B
330
2
100
AcDbEntity
  8
LOCKABLE DOWEL SLEEVE
  6
HIDDEN1_01
100
AcDbLine
 10
51.68420035990806
 20
2864.037090169436
 30
0.0
 11
52.18420035990806
 21
2864.537090169437
 31
0.0
  0
LINE
  5
51C
330
2
100
AcDbEntity
  8
LOCKABLE DOWEL SLEEVE
  6
HIDDEN1_01
100
AcDbLine
 10
51.684200359908
 20
2893.037090169436
 30
0.0
 11
52.184200359908
 21
2892.537090169437
 31
0.0
  0
LINE
  5
51D
330
2
100
AcDbEntity
  8
LOCKABLE DOWEL SLEEVE
  6
HIDDEN1_01
100
AcDbLine
 10
47.48420035990807
 20
2892.537090169437
 30
0.0
 11
47.48420035990807
 21
2864.537090169437
 31
0.0
  0
LINE
  5
51E
330
2
100
AcDbEntity
  8
LOCKABLE DOWEL SLEEVE
  6
HIDDEN1_01
100
AcDbLine
 10
41.98420035990807
 20
2892.537090169437
 30
0.0
 11
41.98420035990807
 21
2864.537090169437
 31
0.0
  0
LINE
  5
51F
330
2
100
AcDbEntity
  8
LOCKABLE DOWEL SLEEVE
  6
HIDDEN1_01
100
AcDbLine
 10
41.48420035990807
 20
2864.037090169436
 30
0.0
 11
41.98420035990807
 21
2864.537090169437
 31
0.0
  0
LINE
  5
520
330
2
100
AcDbEntity
  8
LOCKABLE DOWEL SLEEVE
  6
HIDDEN1_01
100
AcDbLine
 10
37.28420035990803
 20
2892.537090169437
 30
0.0
 11
37.28420035990808
 21
2864.537090169437
 31
0.0
  0
LINE
  5
521
330
2
100
AcDbEntity
  8
LOCKABLE DOWEL DOWEL COMPONENT
 48
0.5
100
AcDbLine
 10
-380.815799640092
 20
2893.537090169436
 30
0.0
 11
-380.815799640092
 21
2880.073372427238
 31
0.0
  0
LINE
  5
522
330
2
100
AcDbEntity
  8
LOCKABLE DOWEL DOWEL COMPONENT
 48
0.5
100
AcDbLine
 10
-380.815799640092
 20
2863.537090169437
 30
0.0
 11
-380.815799640092
 21
2875.918881189794
 31
0.0
  0
LINE
  5
523
330
2
100
AcDbEntity
  8
LOCKABLE DOWEL SLEEVE
  6
HIDDEN1_01
100
AcDbLine
 10
27.58420035990809
 20
2864.037090169436
 30
0.0
 11
31.28420035990803
 21
2864.037090169436
 31
0.0
  0
LINE
  5
524
330
2
100
AcDbEntity
  8
LOCKABLE DOWEL SLEEVE
  6
HIDDEN1_01
100
AcDbLine
 10
31.78420035990803
 20
2864.537090169437
 30
0.0
 11
31.28420035990803
 21
2864.037090169436
 31
0.0
  0
LINE
  5
525
330
2
100
AcDbEntity
  8
LOCKABLE DOWEL SLEEVE
  6
HIDDEN1_01
100
AcDbLine
 10
27.0842003599081
 20
2864.537090169437
 30
0.0
 11
27.58420035990809
 21
2864.037090169436
 31
0.0
  0
LINE
  5
526
330
2
100
AcDbEntity
  8
LOCKABLE DOWEL SLEEVE
  6
HIDDEN1_01
100
AcDbLine
 10
27.58420035990815
 20
2893.037090169436
 30
0.0
 11
31.28420035990809
 21
2893.037090169436
 31
0.0
  0
LINE
  5
527
330
2
100
AcDbEntity
  8
LOCKABLE DOWEL SLEEVE
  6
HIDDEN1_01
100
AcDbLine
 10
31.78420035990809
 20
2892.537090169437
 30
0.0
 11
31.28420035990809
 21
2893.037090169436
 31
0.0
  0
LINE
  5
528
330
2
100
AcDbEntity
  8
LOCKABLE DOWEL SLEEVE
  6
HIDDEN1_01
100
AcDbLine
 10
27.08420035990815
 20
2892.537090169437
 30
0.0
 11
27.58420035990815
 21
2893.037090169436
 31
0.0
  0
LINE
  5
529
330
2
100
AcDbEntity
  8
LOCKABLE DOWEL SLEEVE
  6
HIDDEN1_01
100
AcDbLine
 10
31.78420035990809
 20
2892.537090169437
 30
0.0
 11
31.78420035990803
 21
2864.537090169437
 31
0.0
  0
LINE
  5
52A
330
2
100
AcDbEntity
  8
LOCKABLE DOWEL SLEEVE
  6
HIDDEN1_01
100
AcDbLine
 10
27.08420035990815
 20
2892.537090169437
 30
0.0
 11
27.0842003599081
 21
2864.537090169437
 31
0.0
  0
LINE
  5
52B
330
2
100
AcDbEntity
  8
LOCKABLE DOWEL SLEEVE
  6
HIDDEN1_01
100
AcDbLine
 10
17.38420035990811
 20
2864.037090169436
 30
0.0
 11
21.08420035990804
 21
2864.037090169436
 31
0.0
  0
LINE
  5
52C
330
2
100
AcDbEntity
  8
LOCKABLE DOWEL SLEEVE
  6
HIDDEN1_01
100
AcDbLine
 10
17.38420035990811
 20
2893.037090169436
 30
0.0
 11
21.0842003599081
 21
2893.037090169436
 31
0.0
  0
LINE
  5
52D
330
2
100
AcDbEntity
  8
LOCKABLE DOWEL SLEEVE
  6
HIDDEN1_01
100
AcDbLine
 10
16.88420035990811
 20
2892.537090169437
 30
0.0
 11
17.38420035990811
 21
2893.037090169436
 31
0.0
  0
LINE
  5
52E
330
2
100
AcDbEntity
  8
LOCKABLE DOWEL SLEEVE
  6
HIDDEN1_01
100
AcDbLine
 10
21.58420035990809
 20
2892.537090169437
 30
0.0
 11
21.0842003599081
 21
2893.037090169436
 31
0.0
  0
LINE
  5
52F
330
2
100
AcDbEntity
  8
LOCKABLE DOWEL SLEEVE
  6
HIDDEN1_01
100
AcDbLine
 10
21.58420035990809
 20
2892.537090169437
 30
0.0
 11
21.58420035990804
 21
2864.537090169437
 31
0.0
  0
LINE
  5
530
330
2
100
AcDbEntity
  8
LOCKABLE DOWEL SLEEVE
  6
HIDDEN1_01
100
AcDbLine
 10
21.08420035990804
 20
2864.037090169436
 30
0.0
 11
21.58420035990804
 21
2864.537090169437
 31
0.0
  0
LINE
  5
531
330
2
100
AcDbEntity
  8
LOCKABLE DOWEL SLEEVE
  6
HIDDEN1_01
100
AcDbLine
 10
16.88420035990811
 20
2892.537090169437
 30
0.0
 11
16.88420035990811
 21
2864.537090169437
 31
0.0
  0
LINE
  5
532
330
2
100
AcDbEntity
  8
LOCKABLE DOWEL SLEEVE
  6
HIDDEN1_01
100
AcDbLine
 10
17.38420035990811
 20
2864.037090169436
 30
0.0
 11
16.88420035990811
 21
2864.537090169437
 31
0.0
  0
LINE
  5
533
330
2
100
AcDbEntity
  8
LOCKABLE DOWEL SLEEVE
  6
HIDDEN1_01
100
AcDbLine
 10
7.184200359908118
 20
2864.037090169436
 30
0.0
 11
10.88420035990805
 21
2864.037090169436
 31
0.0
  0
LINE
  5
534
330
2
100
AcDbEntity
  8
LOCKABLE DOWEL SLEEVE
  6
HIDDEN1_01
100
AcDbLine
 10
6.684200359908118
 20
2864.537090169437
 30
0.0
 11
7.184200359908118
 21
2864.037090169436
 31
0.0
  0
LINE
  5
535
330
2
100
AcDbEntity
  8
LOCKABLE DOWEL SLEEVE
  6
HIDDEN1_01
100
AcDbLine
 10
7.184200359908118
 20
2893.037090169436
 30
0.0
 11
10.8842003599081
 21
2893.037090169436
 31
0.0
  0
LINE
  5
536
330
2
100
AcDbEntity
  8
LOCKABLE DOWEL SLEEVE
  6
HIDDEN1_01
100
AcDbLine
 10
11.3842003599081
 20
2892.537090169437
 30
0.0
 11
10.8842003599081
 21
2893.037090169436
 31
0.0
  0
LINE
  5
537
330
2
100
AcDbEntity
  8
LOCKABLE DOWEL SLEEVE
  6
HIDDEN1_01
100
AcDbLine
 10
6.684200359908118
 20
2892.537090169437
 30
0.0
 11
7.184200359908118
 21
2893.037090169436
 31
0.0
  0
LINE
  5
538
330
2
100
AcDbEntity
  8
LOCKABLE DOWEL SLEEVE
  6
HIDDEN1_01
100
AcDbLine
 10
11.3842003599081
 20
2892.537090169437
 30
0.0
 11
11.38420035990805
 21
2864.537090169437
 31
0.0
  0
LINE
  5
539
330
2
100
AcDbEntity
  8
LOCKABLE DOWEL SLEEVE
  6
HIDDEN1_01
100
AcDbLine
 10
10.88420035990805
 20
2864.037090169436
 30
0.0
 11
11.38420035990805
 21
2864.537090169437
 31
0.0
  0
LINE
  5
53A
330
2
100
AcDbEntity
  8
LOCKABLE DOWEL SLEEVE
  6
HIDDEN1_01
100
AcDbLine
 10
6.684200359908118
 20
2892.537090169437
 30
0.0
 11
6.684200359908118
 21
2864.537090169437
 31
0.0
  0
LINE
  5
53B
330
2
100
AcDbEntity
  8
LOCKABLE DOWEL SLEEVE
  6
HIDDEN1_01
100
AcDbLine
 10
-3.015799640091813
 20
2864.037090169436
 30
0.0
 11
0.6842003599080613
 21
2864.037090169436
 31
0.0
  0
LINE
  5
53C
330
2
100
AcDbEntity
  8
LOCKABLE DOWEL SLEEVE
  6
HIDDEN1_01
100
AcDbLine
 10
-3.515799640091813
 20
2864.537090169437
 30
0.0
 11
-3.015799640091813
 21
2864.037090169436
 31
0.0
  0
LINE
  5
53D
330
2
100
AcDbEntity
  8
LOCKABLE DOWEL SLEEVE
  6
HIDDEN1_01
100
AcDbLine
 10
-3.01579964009187
 20
2893.037090169436
 30
0.0
 11
0.684200359908175
 21
2893.037090169436
 31
0.0
  0
LINE
  5
53E
330
2
100
AcDbEntity
  8
LOCKABLE DOWEL SLEEVE
  6
HIDDEN1_01
100
AcDbLine
 10
-3.51579964009187
 20
2892.537090169437
 30
0.0
 11
-3.01579964009187
 21
2893.037090169436
 31
0.0
  0
LINE
  5
53F
330
2
100
AcDbEntity
  8
LOCKABLE DOWEL SLEEVE
  6
HIDDEN1_01
100
AcDbLine
 10
1.184200359908174
 20
2892.537090169437
 30
0.0
 11
1.184200359908061
 21
2864.537090169437
 31
0.0
  0
LINE
  5
540
330
2
100
AcDbEntity
  8
LOCKABLE DOWEL SLEEVE
  6
HIDDEN1_01
100
AcDbLine
 10
0.684200359908175
 20
2893.037090169436
 30
0.0
 11
1.184200359908174
 21
2892.537090169437
 31
0.0
  0
LINE
  5
541
330
2
100
AcDbEntity
  8
LOCKABLE DOWEL SLEEVE
  6
HIDDEN1_01
100
AcDbLine
 10
0.6842003599080613
 20
2864.037090169436
 30
0.0
 11
1.184200359908061
 21
2864.537090169437
 31
0.0
  0
LINE
  5
542
330
2
100
AcDbEntity
  8
LOCKABLE DOWEL SLEEVE
  6
HIDDEN1_01
100
AcDbLine
 10
-3.51579964009187
 20
2892.537090169437
 30
0.0
 11
-3.515799640091813
 21
2864.537090169437
 31
0.0
  0
ARC
  5
543
330
2
100
AcDbEntity
  8
LOCKABLE DOWEL SLEEVE
  6
HIDDEN1_01
100
AcDbCircle
 10
-3.815799640091881
 20
2888.837090169437
 30
0.0
 40
0.3
100
AcDbArc
 50
270.0
 51
0.0
  0
LINE
  5
544
330
2
100
AcDbEntity
  8
LOCKABLE DOWEL SLEEVE
  6
HIDDEN1_01
100
AcDbLine
 10
-9.01579964009187
 20
2893.037090169436
 30
0.0
 11
-9.01579964009187
 21
2864.037090169436
 31
0.0
  0
LINE
  5
545
330
2
100
AcDbEntity
  8
LOCKABLE DOWEL SLEEVE
  6
HIDDEN1_01
100
AcDbLine
 10
-9.51579964009187
 20
2863.537090169437
 30
0.0
 11
-9.01579964009187
 21
2864.037090169436
 31
0.0
  0
LINE
  5
546
330
2
100
AcDbEntity
  8
LOCKABLE DOWEL SLEEVE
  6
HIDDEN1_01
100
AcDbLine
 10
-9.51579964009187
 20
2893.537090169436
 30
0.0
 11
-9.51579964009187
 21
2884.964787652012
 31
0.0
  0
LINE
  5
547
330
2
100
AcDbEntity
  8
LOCKABLE DOWEL SLEEVE
  6
HIDDEN1_01
100
AcDbLine
 10
-9.51579964009187
 20
2863.537090169437
 30
0.0
 11
-9.51579964009187
 21
2871.15427952052
 31
0.0
  0
LINE
  5
548
330
2
100
AcDbEntity
  8
LOCKABLE DOWEL SLEEVE
  6
HIDDEN1_01
100
AcDbLine
 10
-3.01579964009187
 20
2893.037090169436
 30
0.0
 11
-3.01579964009187
 21
2884.964787652012
 31
0.0
  0
LINE
  5
549
330
2
100
AcDbEntity
  8
LOCKABLE DOWEL SLEEVE
  6
HIDDEN1_01
100
AcDbLine
 10
-3.01579964009187
 20
2864.037090169436
 30
0.0
 11
-3.01579964009187
 21
2871.15427952052
 31
0.0
  0
LINE
  5
54A
330
2
100
AcDbEntity
  8
LOCKABLE DOWEL SLEEVE
  6
HIDDEN1_01
100
AcDbLine
 10
0.684200359908175
 20
2893.037090169436
 30
0.0
 11
0.684200359908175
 21
2884.964787652012
 31
0.0
  0
LINE
  5
54B
330
2
100
AcDbEntity
  8
LOCKABLE DOWEL SLEEVE
  6
HIDDEN1_01
100
AcDbLine
 10
0.684200359908175
 20
2864.037090169436
 30
0.0
 11
0.684200359908175
 21
2871.15427952052
 31
0.0
  0
LINE
  5
54C
330
2
100
AcDbEntity
  8
LOCKABLE DOWEL SLEEVE
  6
HIDDEN1_01
100
AcDbLine
 10
7.184200359908118
 20
2893.037090169436
 30
0.0
 11
7.184200359908118
 21
2884.964787652012
 31
0.0
  0
LINE
  5
54D
330
2
100
AcDbEntity
  8
LOCKABLE DOWEL SLEEVE
  6
HIDDEN1_01
100
AcDbLine
 10
7.184200359908118
 20
2864.037090169436
 30
0.0
 11
7.184200359908118
 21
2871.15427952052
 31
0.0
  0
LINE
  5
54E
330
2
100
AcDbEntity
  8
LOCKABLE DOWEL SLEEVE
  6
HIDDEN1_01
100
AcDbLine
 10
10.8842003599081
 20
2893.037090169436
 30
0.0
 11
10.8842003599081
 21
2884.964787652012
 31
0.0
  0
LINE
  5
54F
330
2
100
AcDbEntity
  8
LOCKABLE DOWEL SLEEVE
  6
HIDDEN1_01
100
AcDbLine
 10
10.8842003599081
 20
2864.037090169436
 30
0.0
 11
10.8842003599081
 21
2871.15427952052
 31
0.0
  0
LINE
  5
550
330
2
100
AcDbEntity
  8
LOCKABLE DOWEL SLEEVE
  6
HIDDEN1_01
100
AcDbLine
 10
17.38420035990811
 20
2893.037090169436
 30
0.0
 11
17.38420035990811
 21
2884.964787652012
 31
0.0
  0
LINE
  5
551
330
2
100
AcDbEntity
  8
LOCKABLE DOWEL SLEEVE
  6
HIDDEN1_01
100
AcDbLine
 10
17.38420035990811
 20
2864.037090169436
 30
0.0
 11
17.38420035990811
 21
2871.15427952052
 31
0.0
  0
LINE
  5
552
330
2
100
AcDbEntity
  8
LOCKABLE DOWEL SLEEVE
  6
HIDDEN1_01
100
AcDbLine
 10
21.0842003599081
 20
2893.037090169436
 30
0.0
 11
21.0842003599081
 21
2884.964787652012
 31
0.0
  0
LINE
  5
553
330
2
100
AcDbEntity
  8
LOCKABLE DOWEL SLEEVE
  6
HIDDEN1_01
100
AcDbLine
 10
21.0842003599081
 20
2864.037090169436
 30
0.0
 11
21.0842003599081
 21
2871.15427952052
 31
0.0
  0
LINE
  5
554
330
2
100
AcDbEntity
  8
LOCKABLE DOWEL SLEEVE
  6
HIDDEN1_01
100
AcDbLine
 10
27.58420035990815
 20
2893.037090169436
 30
0.0
 11
27.58420035990815
 21
2884.964787652012
 31
0.0
  0
LINE
  5
555
330
2
100
AcDbEntity
  8
LOCKABLE DOWEL SLEEVE
  6
HIDDEN1_01
100
AcDbLine
 10
27.58420035990815
 20
2864.037090169436
 30
0.0
 11
27.58420035990815
 21
2871.15427952052
 31
0.0
  0
LINE
  5
556
330
2
100
AcDbEntity
  8
LOCKABLE DOWEL SLEEVE
  6
HIDDEN1_01
100
AcDbLine
 10
31.28420035990809
 20
2893.037090169436
 30
0.0
 11
31.28420035990809
 21
2884.964787652012
 31
0.0
  0
LINE
  5
557
330
2
100
AcDbEntity
  8
LOCKABLE DOWEL SLEEVE
  6
HIDDEN1_01
100
AcDbLine
 10
31.28420035990809
 20
2864.037090169436
 30
0.0
 11
31.28420035990809
 21
2871.15427952052
 31
0.0
  0
LINE
  5
558
330
2
100
AcDbEntity
  8
LOCKABLE DOWEL SLEEVE
  6
HIDDEN1_01
100
AcDbLine
 10
37.78420035990803
 20
2893.037090169436
 30
0.0
 11
37.78420035990803
 21
2884.964787652012
 31
0.0
  0
LINE
  5
559
330
2
100
AcDbEntity
  8
LOCKABLE DOWEL SLEEVE
  6
HIDDEN1_01
100
AcDbLine
 10
37.78420035990803
 20
2864.037090169436
 30
0.0
 11
37.78420035990803
 21
2871.15427952052
 31
0.0
  0
LINE
  5
55A
330
2
100
AcDbEntity
  8
LOCKABLE DOWEL SLEEVE
  6
HIDDEN1_01
100
AcDbLine
 10
41.48420035990807
 20
2893.037090169436
 30
0.0
 11
41.48420035990807
 21
2884.964787652012
 31
0.0
  0
LINE
  5
55B
330
2
100
AcDbEntity
  8
LOCKABLE DOWEL SLEEVE
  6
HIDDEN1_01
100
AcDbLine
 10
41.48420035990807
 20
2864.037090169436
 30
0.0
 11
41.48420035990807
 21
2871.15427952052
 31
0.0
  0
LINE
  5
55C
330
2
100
AcDbEntity
  8
LOCKABLE DOWEL SLEEVE
  6
HIDDEN1_01
100
AcDbLine
 10
47.98420035990807
 20
2893.037090169436
 30
0.0
 11
47.98420035990807
 21
2884.964787652012
 31
0.0
  0
LINE
  5
55D
330
2
100
AcDbEntity
  8
LOCKABLE DOWEL SLEEVE
  6
HIDDEN1_01
100
AcDbLine
 10
47.98420035990807
 20
2864.037090169436
 30
0.0
 11
47.98420035990807
 21
2871.15427952052
 31
0.0
  0
LINE
  5
55E
330
2
100
AcDbEntity
  8
LOCKABLE DOWEL SLEEVE
  6
HIDDEN1_01
100
AcDbLine
 10
51.684200359908
 20
2893.037090169436
 30
0.0
 11
51.684200359908
 21
2884.964787652012
 31
0.0
  0
LINE
  5
55F
330
2
100
AcDbEntity
  8
LOCKABLE DOWEL SLEEVE
  6
HIDDEN1_01
100
AcDbLine
 10
51.684200359908
 20
2864.037090169436
 30
0.0
 11
51.684200359908
 21
2871.15427952052
 31
0.0
  0
LINE
  5
560
330
2
100
AcDbEntity
  8
LOCKABLE DOWEL SLEEVE
  6
HIDDEN1_01
100
AcDbLine
 10
-365.615799640092
 20
2888.537090169437
 30
0.0
 11
-371.7657996400919
 21
2888.537090169437
 31
0.0
  0
LINE
  5
561
330
2
100
AcDbEntity
  8
LOCKABLE DOWEL SLEEVE
  6
HIDDEN1_01
100
AcDbLine
 10
-365.6157996400919
 20
2868.537090169437
 30
0.0
 11
-371.7657996400919
 21
2868.537090169437
 31
0.0
  0
ARC
  5
562
330
2
100
AcDbEntity
  8
LOCKABLE DOWEL SLEEVE
  6
HIDDEN1_01
100
AcDbCircle
 10
1.484200359908129
 20
2888.837090169437
 30
0.0
 40
0.3
100
AcDbArc
 50
180.0
 51
270.0
  0
ARC
  5
563
330
2
100
AcDbEntity
  8
LOCKABLE DOWEL SLEEVE
  6
HIDDEN1_01
100
AcDbCircle
 10
6.384200359908106
 20
2888.837090169437
 30
0.0
 40
0.3
100
AcDbArc
 50
270.0
 51
0.0
  0
ARC
  5
564
330
2
100
AcDbEntity
  8
LOCKABLE DOWEL SLEEVE
  6
HIDDEN1_01
100
AcDbCircle
 10
11.68420035990812
 20
2888.837090169437
 30
0.0
 40
0.3
100
AcDbArc
 50
180.0
 51
270.0
  0
ARC
  5
565
330
2
100
AcDbEntity
  8
LOCKABLE DOWEL SLEEVE
  6
HIDDEN1_01
100
AcDbCircle
 10
16.58420035990809
 20
2888.837090169437
 30
0.0
 40
0.3
100
AcDbArc
 50
270.0
 51
0.0
  0
ARC
  5
566
330
2
100
AcDbEntity
  8
LOCKABLE DOWEL SLEEVE
  6
HIDDEN1_01
100
AcDbCircle
 10
21.88420035990816
 20
2888.837090169437
 30
0.0
 40
0.3
100
AcDbArc
 50
180.0
 51
270.0
  0
ARC
  5
567
330
2
100
AcDbEntity
  8
LOCKABLE DOWEL SLEEVE
  6
HIDDEN1_01
100
AcDbCircle
 10
26.78420035990814
 20
2888.837090169437
 30
0.0
 40
0.3
100
AcDbArc
 50
270.0
 51
0.0
  0
ARC
  5
568
330
2
100
AcDbEntity
  8
LOCKABLE DOWEL SLEEVE
  6
HIDDEN1_01
100
AcDbCircle
 10
32.0842003599081
 20
2888.837090169437
 30
0.0
 40
0.3
100
AcDbArc
 50
180.0
 51
270.0
  0
ARC
  5
569
330
2
100
AcDbEntity
  8
LOCKABLE DOWEL SLEEVE
  6
HIDDEN1_01
100
AcDbCircle
 10
36.98420035990807
 20
2888.837090169437
 30
0.0
 40
0.3
100
AcDbArc
 50
270.0
 51
0.0
  0
ARC
  5
56A
330
2
100
AcDbEntity
  8
LOCKABLE DOWEL SLEEVE
  6
HIDDEN1_01
100
AcDbCircle
 10
42.28420035990803
 20
2888.837090169437
 30
0.0
 40
0.3
100
AcDbArc
 50
180.0
 51
270.0
  0
ARC
  5
56B
330
2
100
AcDbEntity
  8
LOCKABLE DOWEL SLEEVE
  6
HIDDEN1_01
100
AcDbCircle
 10
47.184200359908
 20
2888.837090169437
 30
0.0
 40
0.3
100
AcDbArc
 50
270.0
 51
0.0
  0
LINE
  5
56C
330
2
100
AcDbEntity
  8
LOCKABLE DOWEL SLEEVE
  6
HIDDEN1_01
100
AcDbLine
 10
-8.715799640091859
 20
2868.537090169437
 30
0.0
 11
-3.815799640091881
 21
2868.537090169437
 31
0.0
  0
ARC
  5
56D
330
2
100
AcDbEntity
  8
LOCKABLE DOWEL SLEEVE
  6
HIDDEN1_01
100
AcDbCircle
 10
-8.715799640091859
 20
2868.237090169437
 30
0.0
 40
0.3
100
AcDbArc
 50
90.0
 51
180.0
  0
LINE
  5
56E
330
2
100
AcDbEntity
  8
LOCKABLE DOWEL SLEEVE
  6
HIDDEN1_01
100
AcDbLine
 10
1.484200359908129
 20
2868.537090169437
 30
0.0
 11
6.384200359908106
 21
2868.537090169437
 31
0.0
  0
LINE
  5
56F
330
2
100
AcDbEntity
  8
LOCKABLE DOWEL SLEEVE
  6
HIDDEN1_01
100
AcDbLine
 10
11.68420035990812
 20
2868.537090169437
 30
0.0
 11
16.58420035990809
 21
2868.537090169437
 31
0.0
  0
LINE
  5
570
330
2
100
AcDbEntity
  8
LOCKABLE DOWEL SLEEVE
  6
HIDDEN1_01
100
AcDbLine
 10
21.88420035990811
 20
2868.537090169437
 30
0.0
 11
26.7842003599082
 21
2868.537090169437
 31
0.0
  0
LINE
  5
571
330
2
100
AcDbEntity
  8
LOCKABLE DOWEL SLEEVE
  6
HIDDEN1_01
100
AcDbLine
 10
32.0842003599081
 20
2868.537090169437
 30
0.0
 11
36.98420035990807
 21
2868.537090169437
 31
0.0
  0
LINE
  5
572
330
2
100
AcDbEntity
  8
LOCKABLE DOWEL SLEEVE
  6
HIDDEN1_01
100
AcDbLine
 10
42.28420035990803
 20
2868.537090169437
 30
0.0
 11
47.184200359908
 21
2868.537090169437
 31
0.0
  0
ARC
  5
573
330
2
100
AcDbEntity
  8
LOCKABLE DOWEL SLEEVE
  6
HIDDEN1_01
100
AcDbCircle
 10
-3.815799640091881
 20
2868.237090169437
 30
0.0
 40
0.3
100
AcDbArc
 50
0.0
 51
90.0
  0
ARC
  5
574
330
2
100
AcDbEntity
  8
LOCKABLE DOWEL SLEEVE
  6
HIDDEN1_01
100
AcDbCircle
 10
1.484200359908129
 20
2868.237090169437
 30
0.0
 40
0.3
100
AcDbArc
 50
90.0
 51
180.0
  0
ARC
  5
575
330
2
100
AcDbEntity
  8
LOCKABLE DOWEL SLEEVE
  6
HIDDEN1_01
100
AcDbCircle
 10
6.384200359908106
 20
2868.237090169437
 30
0.0
 40
0.3
100
AcDbArc
 50
0.0
 51
90.0
  0
ARC
  5
576
330
2
100
AcDbEntity
  8
LOCKABLE DOWEL SLEEVE
  6
HIDDEN1_01
100
AcDbCircle
 10
11.68420035990812
 20
2868.237090169437
 30
0.0
 40
0.3
100
AcDbArc
 50
90.0
 51
180.0
  0
ARC
  5
577
330
2
100
AcDbEntity
  8
LOCKABLE DOWEL SLEEVE
  6
HIDDEN1_01
100
AcDbCircle
 10
16.58420035990809
 20
2868.237090169437
 30
0.0
 40
0.3
100
AcDbArc
 50
0.0
 51
90.0
  0
ARC
  5
578
330
2
100
AcDbEntity
  8
LOCKABLE DOWEL SLEEVE
  6
HIDDEN1_01
100
AcDbCircle
 10
21.88420035990816
 20
2868.237090169437
 30
0.0
 40
0.3
100
AcDbArc
 50
90.0
 51
180.0
  0
ARC
  5
579
330
2
100
AcDbEntity
  8
LOCKABLE DOWEL SLEEVE
  6
HIDDEN1_01
100
AcDbCircle
 10
26.78420035990814
 20
2868.237090169437
 30
0.0
 40
0.3
100
AcDbArc
 50
0.0
 51
90.0
  0
ARC
  5
57A
330
2
100
AcDbEntity
  8
LOCKABLE DOWEL SLEEVE
  6
HIDDEN1_01
100
AcDbCircle
 10
32.0842003599081
 20
2868.237090169436
 30
0.0
 40
0.3
100
AcDbArc
 50
90.0
 51
180.0
  0
ARC
  5
57B
330
2
100
AcDbEntity
  8
LOCKABLE DOWEL SLEEVE
  6
HIDDEN1_01
100
AcDbCircle
 10
36.98420035990807
 20
2868.237090169436
 30
0.0
 40
0.3
100
AcDbArc
 50
0.0
 51
90.0
  0
ARC
  5
57C
330
2
100
AcDbEntity
  8
LOCKABLE DOWEL SLEEVE
  6
HIDDEN1_01
100
AcDbCircle
 10
42.28420035990803
 20
2868.237090169437
 30
0.0
 40
0.3
100
AcDbArc
 50
90.0
 51
180.0
  0
ARC
  5
57D
330
2
100
AcDbEntity
  8
LOCKABLE DOWEL SLEEVE
  6
HIDDEN1_01
100
AcDbCircle
 10
47.184200359908
 20
2868.237090169437
 30
0.0
 40
0.3
100
AcDbArc
 50
0.0
 51
90.0
  0
LINE
  5
57E
330
2
100
AcDbEntity
  8
LOCKABLE DOWEL SLEEVE
  6
HIDDEN1_01
100
AcDbLine
 10
-9.51579964009187
 20
2893.537090169436
 30
0.0
 11
-172.8157996400924
 21
2893.537090169437
 31
0.0
  0
LINE
  5
57F
330
2
100
AcDbEntity
  8
LOCKABLE DOWEL SLEEVE
  6
HIDDEN1_01
100
AcDbLine
 10
-172.8157996400924
 20
2863.537090169437
 30
0.0
 11
-9.51579964009187
 21
2863.537090169437
 31
0.0
  0
LINE
  5
867
330
2
100
AcDbEntity
  8
LOCKABLE DOWEL SLEEVE
  6
HIDDEN1_01
100
AcDbLine
 10
-2.862728221165582
 20
2918.707219774915
 30
0.0
 11
-2.862728221165582
 21
2838.707219774914
 31
0.0
  0
LINE
  5
868
330
2
100
AcDbEntity
  8
LOCKABLE DOWEL SLEEVE
  6
HIDDEN1_01
100
AcDbLine
 10
-46.96098162353166
 20
2918.707219774914
 30
0.0
 11
-2.862728221165582
 21
2918.707219774915
 31
0.0
  0
LINE
  5
869
330
2
100
AcDbEntity
  8
LOCKABLE DOWEL SLEEVE
  6
HIDDEN1_01
100
AcDbLine
 10
-46.96098162353166
 20
2838.707219774914
 30
0.0
 11
-2.862728221165582
 21
2838.707219774914
 31
0.0
  0
LINE
  5
8D0
330
2
100
AcDbEntity
  8
LOCKABLE DOWEL LOCKING PLATE
  6
HIDDEN1_01
100
AcDbLine
 10
215.2906660366801
 20
3075.607605431579
 30
0.0
 11
215.2906660366801
 21
3063.607605431579
 31
0.0
  0
ARC
  5
8D1
330
2
100
AcDbEntity
  8
LOCKABLE DOWEL LOCKING PLATE
  6
HIDDEN1_01
100
AcDbCircle
 10
217.2906660366801
 20
3063.607605431579
 30
0.0
 40
2.0
100
AcDbArc
 50
180.0
 51
351.7962735766334
  0
LINE
  5
8D2
330
2
100
AcDbEntity
  8
LOCKABLE DOWEL LOCKING PLATE
  6
HIDDEN1_01
100
AcDbLine
 10
219.2701999416059
 20
3063.322218817932
 30
0.0
 11
230.3066256850767
 21
3124.13171586312
 31
0.0
  0
LINE
  5
8D3
330
2
100
AcDbEntity
  8
LOCKABLE DOWEL LOCKING PLATE
  6
HIDDEN1_01
100
AcDbLine
 10
230.8423494262469
 20
3127.083495000038
 30
0.0
 11
232.5639240512733
 21
3136.569182622731
 31
0.0
  0
LINE
  5
8D4
330
2
100
AcDbEntity
  8
LOCKABLE DOWEL LOCKING PLATE
  6
HIDDEN1_01
100
AcDbLine
 10
195.2906660366801
 20
3075.607605431579
 30
0.0
 11
195.2906660366801
 21
3063.607605431579
 31
0.0
  0
ARC
  5
8D5
330
2
100
AcDbEntity
  8
LOCKABLE DOWEL LOCKING PLATE
  6
HIDDEN1_01
100
AcDbCircle
 10
193.2906660366801
 20
3063.607605431579
 30
0.0
 40
2.0
100
AcDbArc
 50
188.2037264233665
 51
0.0
  0
LINE
  5
8D6
330
2
100
AcDbEntity
  8
LOCKABLE DOWEL LOCKING PLATE
  6
HIDDEN1_01
100
AcDbLine
 10
191.3111321317543
 20
3063.322218817932
 30
0.0
 11
180.2747063882835
 21
3124.13171586312
 31
0.0
  0
LINE
  5
8D7
330
2
100
AcDbEntity
  8
LOCKABLE DOWEL LOCKING PLATE
  6
HIDDEN1_01
100
AcDbLine
 10
179.7389826471134
 20
3127.083495000038
 30
0.0
 11
178.0174080220871
 21
3136.569182622731
 31
0.0
  0
ARC
  5
8DB
330
2
100
AcDbEntity
  8
LOCKABLE DOWEL LOCKING PLATE
  6
HIDDEN1_01
100
AcDbCircle
 10
180.0068445176984
 20
3125.607605431579
 30
0.0
 40
1.5
100
AcDbArc
 50
280.286744147415
 51
100.2867441474151
  0
ARC
  5
8DC
330
2
100
AcDbEntity
  8
LOCKABLE DOWEL LOCKING PLATE
  6
HIDDEN1_01
100
AcDbCircle
 10
230.5744875556617
 20
3125.607605431579
 30
0.0
 40
1.5
100
AcDbArc
 50
79.7132558525849
 51
259.7132558525849
  0
ARC
  5
8DE
330
2
100
AcDbEntity
  8
LOCKABLE DOWEL LOCKING PLATE
  6
HIDDEN1_01
100
AcDbCircle
 10
205.2906660366801
 20
3059.607605431579
 30
0.0
 40
85.99999999999983
100
AcDbArc
 50
73.98013053629888
 51
106.0198694637011
  0
ARC
  5
8DF
330
2
100
AcDbEntity
  8
LOCKABLE DOWEL LOCKING PLATE
  6
HIDDEN1_01
100
AcDbCircle
 10
227.6442921564093
 20
3137.462055524681
 30
0.0
 40
5.0
100
AcDbArc
 50
349.7132558525895
 51
73.98013053629888
1001
GENIUS_GENODEF_13
1002
{
1000
HIER
1070
     0
1002
}
1002
{
1000
MANEDIT
1070
     0
1002
}
1002
{
1000
NOSEL
1070
     0
1002
}
1002
{
1000
BEHIND
1070
     0
1002
}
1002
{
1000
OTHER
1070
     0
1002
}
1002
{
1000
REACTOR
1002
}
1001
GENIUS_GENOBJ-N-FIL_13
1002
{
1000
OWNER
1000
GEN
1002
}
  0
ARC
  5
8E0
330
2
100
AcDbEntity
  8
LOCKABLE DOWEL LOCKING PLATE
  6
HIDDEN1_01
100
AcDbCircle
 10
182.937039916951
 20
3137.462055524681
 30
0.0
 40
5.0
100
AcDbArc
 50
106.0198694637011
 51
190.2867441474104
1001
GENIUS_GENODEF_13
1002
{
1000
HIER
1070
     0
1002
}
1002
{
1000
MANEDIT
1070
     0
1002
}
1002
{
1000
NOSEL
1070
     0
1002
}
1002
{
1000
BEHIND
1070
     0
1002
}
1002
{
1000
OTHER
1070
     0
1002
}
1002
{
1000
REACTOR
1002
}
1001
GENIUS_GENOBJ-N-FIL_13
1002
{
1000
OWNER
1000
GEN
1002
}
  0
LINE
  5
929
330
2
100
AcDbEntity
  8
LOCKABLE DOWEL LOCKING PLATE
  6
HIDDEN1_01
100
AcDbLine
 10
32.03420035990792
 20
3145.607605431579
 30
0.0
 11
37.03420035990792
 21
3145.607605431579
 31
0.0
  0
LINE
  5
92A
330
2
100
AcDbEntity
  8
LOCKABLE DOWEL LOCKING PLATE
  6
HIDDEN1_01
100
AcDbLine
 10
37.03420035990792
 20
3145.607605431579
 30
0.0
 11
37.03420035990779
 21
3061.607605431579
 31
0.0
  0
LINE
  5
92C
330
2
100
AcDbEntity
  8
LOCKABLE DOWEL LOCKING PLATE
  6
HIDDEN1_01
100
AcDbLine
 10
32.03420035990792
 20
3145.607605431579
 30
0.0
 11
32.03420035990792
 21
3061.607605431579
 31
0.0
  0
LINE
  5
92E
330
2
100
AcDbEntity
  8
LOCKABLE DOWEL LOCKING PLATE
  6
HIDDEN1_01
100
AcDbLine
 10
32.03420035990792
 20
3061.607605431579
 30
0.0
 11
37.03420035990779
 21
3061.607605431579
 31
0.0
  0
LINE
  5
930
330
2
100
AcDbEntity
  8
LOCKABLE DOWEL LOCKING PLATE
  6
HIDDEN1_01
100
AcDbLine
 10
32.03420035990788
 20
3127.083495000038
 30
0.0
 11
37.03420035990788
 21
3127.083495000038
 31
0.0
  0
LINE
  5
931
330
2
100
AcDbEntity
  8
LOCKABLE DOWEL LOCKING PLATE
  6
HIDDEN1_01
100
AcDbLine
 10
32.03420035990792
 20
3124.13171586312
 30
0.0
 11
37.03420035990786
 21
3124.13171586312
 31
0.0
  0
LINE
  5
932
330
2
100
AcDbEntity
  8
LOCKABLE DOWEL LOCKING PLATE
  6
HIDDEN1_01
100
AcDbLine
 10
32.03420035990793
 20
3085.607605431579
 30
0.0
 11
37.03420035990792
 21
3085.607605431579
 31
0.0
  0
ELLIPSE
  5
C71
330
2
100
AcDbEntity
  8
LOCKABLE DOWEL FORMER
100
AcDbEllipse
 10
75.53749451572077
 20
2838.493833327226
 30
0.0
 11
2.501523860747056
 21
-0.0000000000000005
 31
0.0
210
0.0
220
0.0
230
1.0
 40
0.9993908270191177
 41
4.729842272904662
 42
6.283185307179586
  0
LINE
  5
C72
330
2
100
AcDbEntity
  8
LOCKABLE DOWEL FORMER
100
AcDbLine
 10
75.58115212685089
 20
2835.994214089335
 30
0.0
 11
0.5840935005983852
 21
2834.685933016857
 31
0.0
  0
LINE
  5
C73
330
2
100
AcDbEntity
  8
LOCKABLE DOWEL FORMER
100
AcDbLine
 10
75.58115212685089
 20
2921.079966249538
 30
0.0
 11
0.5840935005983852
 21
2922.388247322016
 31
0.0
  0
LINE
  5
C74
330
2
100
AcDbEntity
  8
LOCKABLE DOWEL FORMER
100
AcDbLine
 10
78.03901837646737
 20
2838.493833327226
 30
0.0
 11
78.03901837646737
 21
2918.580347011648
 31
0.0
  0
ELLIPSE
  5
C75
330
2
100
AcDbEntity
  8
LOCKABLE DOWEL FORMER
100
AcDbEllipse
 10
75.53749451572077
 20
2918.580347011648
 30
0.0
 11
2.501523860747056
 21
-0.0000000000000005
 31
0.0
210
0.0
220
0.0
230
1.0
 40
0.9993908270190948
 41
0.0
 42
1.553343034274939
  0
LINE
  5
C76
330
2
100
AcDbEntity
  8
LOCKABLE DOWEL FORMER
100
AcDbLine
 10
-46.96098162353172
 20
2839.027228086708
 30
0.0
 11
-46.96098162353172
 21
2918.046952252165
 31
0.0
  0
LINE
  5
C77
330
2
100
AcDbEntity
  8
LOCKABLE DOWEL FORMER
100
AcDbLine
 10
-46.96098162353172
 20
2920.547706936186
 30
0.0
 11
-0.4805858264191443
 21
2922.170899929918
 31
0.0
  0
LINE
  5
C78
330
2
100
AcDbEntity
  8
LOCKABLE DOWEL FORMER
100
AcDbLine
 10
-46.96098162353172
 20
2918.046952252165
 30
0.0
 11
-46.96098162353172
 21
2920.547706936186
 31
0.0
  0
LINE
  5
C79
330
2
100
AcDbEntity
  8
LOCKABLE DOWEL FORMER
100
AcDbLine
 10
-0.4805858264191443
 20
2834.903280408956
 30
0.0
 11
-46.96098162353172
 21
2836.526473402688
 31
0.0
  0
LINE
  5
C7A
330
2
100
AcDbEntity
  8
LOCKABLE DOWEL FORMER
100
AcDbLine
 10
-46.96098162353172
 20
2836.526473402688
 30
0.0
 11
-46.96098162353172
 21
2839.027228086708
 31
0.0
  0
ELLIPSE
  5
C7B
330
2
100
AcDbEntity
  8
LOCKABLE DOWEL FORMER
100
AcDbEllipse
 10
0.5405422372148792
 20
2837.185554109924
 30
0.0
 11
2.500004633991352
 21
0.0872223205460041
 31
0.0
210
0.0
220
0.0
230
1.0
 40
0.9993900861919769
 41
3.106739189013102
 42
4.694946288682824
  0
LINE
  5
C7C
330
2
100
AcDbEntity
  8
LOCKABLE DOWEL FORMER
100
AcDbLine
 10
-1.960981623531722
 20
2837.185447810772
 30
0.0
 11
-1.960981623531722
 21
2919.888732528102
 31
0.0
  0
ELLIPSE
  5
C7D
330
2
100
AcDbEntity
  8
LOCKABLE DOWEL FORMER
100
AcDbEllipse
 10
0.5405422372148792
 20
2919.88862622895
 30
0.0
 11
2.500004633991351
 21
-0.0872223205461187
 31
0.0
210
0.0
220
0.0
230
1.0
 40
0.9993900861920208
 41
1.588239018496822
 42
3.176446118166564
  0
LINE
  5
D25
330
2
100
AcDbEntity
  8
LOCKABLE DOWEL DOWEL COMPONENT
 48
0.5
100
AcDbLine
 10
-365.6907996400915
 20
3035.607605431579
 30
0.0
 11
-371.6907996400919
 21
3035.60760543158
 31
0.0
  0
LINE
  5
D26
330
2
100
AcDbEntity
  8
LOCKABLE DOWEL DOWEL COMPONENT
 48
0.5
100
AcDbLine
 10
-365.6907996400919
 20
3115.607605431579
 30
0.0
 11
-371.6907996400924
 21
3115.607605431579
 31
0.0
  0
LINE
  5
D27
330
2
100
AcDbEntity
  8
LOCKABLE DOWEL DOWEL COMPONENT
100
AcDbLine
 10
-365.6907996400915
 20
3035.607605431579
 30
0.0
 11
-365.6907996400924
 21
3115.607605431579
 31
0.0
  0
LINE
  5
D28
330
2
100
AcDbEntity
  8
LOCKABLE DOWEL DOWEL COMPONENT
100
AcDbLine
 10
-371.6907996400924
 20
3115.607605431579
 30
0.0
 11
-371.6907996400924
 21
3035.607605431578
 31
0.0
  0
LINE
  5
D31
330
2
100
AcDbEntity
  8
LOCKABLE DOWEL DOWEL COMPONENT
100
AcDbLine
 10
-368.6907996400922
 20
3115.607605431579
 30
0.0
 11
-368.6907996400917
 21
3035.607605431579
 31
0.0
  0
LINE
  5
D4B
330
2
100
AcDbEntity
  8
LOCKABLE DOWEL DOWEL COMPONENT
 48
0.5
100
AcDbLine
 10
-365.6907996400913
 20
2838.537090169437
 30
0.0
 11
-371.6907996400918
 21
2838.537090169437
 31
0.0
  0
LINE
  5
D4C
330
2
100
AcDbEntity
  8
LOCKABLE DOWEL DOWEL COMPONENT
 48
0.5
100
AcDbLine
 10
-365.6907996400918
 20
2918.537090169437
 30
0.0
 11
-371.6907996400922
 21
2918.537090169437
 31
0.0
  0
LINE
  5
D4D
330
2
100
AcDbEntity
  8
LOCKABLE DOWEL DOWEL COMPONENT
100
AcDbLine
 10
-365.6907996400913
 20
2838.537090169437
 30
0.0
 11
-365.6907996400922
 21
2918.537090169437
 31
0.0
  0
LINE
  5
D4E
330
2
100
AcDbEntity
  8
LOCKABLE DOWEL DOWEL COMPONENT
100
AcDbLine
 10
-371.6907996400922
 20
2918.537090169437
 30
0.0
 11
-371.6907996400922
 21
2838.537090169436
 31
0.0
  0
LINE
  5
D4F
330
2
100
AcDbEntity
  8
LOCKABLE DOWEL DOWEL COMPONENT
100
AcDbLine
 10
-368.690799640092
 20
2918.537090169437
 30
0.0
 11
-368.6907996400915
 21
2838.537090169437
 31
0.0
  0
LWPOLYLINE
  5
D8D
330
2
100
AcDbEntity
  8
LOCKABLE DOWEL SLEEVE
 62
     0
100
AcDbPolyline
 90
        4
 70
     1
 43
0.0
 10
-473.079891128216
 20
3280.982083211521
 10
413.5957744261149
 20
3280.982083211521
 10
413.5957744261149
 20
2805.959222681884
 10
-473.079891128216
 20
2805.959222681884
  0
MTEXT
  5
E85
330
2
100
AcDbEntity
  8
ANCON-TEXT
100
AcDbMText
 10
241.3394414905224
 20
2859.769007098984
 30
0.0
 40
8.0
 41
191.4641976488467
 46
0.0
 71
     1
 72
     5
  1
{\fArial|b0|i0|c0|p34;Leviat \PTel:  1300 304 320\PEmail: technical.au@leviat.com\PWeb: ancon.com.au / Leviat.com}
 73
     1
 44
1.0
101
Embedded Object
 70
     1
 10
1.0
 20
0.0
 30
0.0
 11
241.3394414905224
 21
2859.769007098984
 31
0.0
 40
191.4641976488467
 41
0.0
 42
161.8935879945429
 43
48.45293315143247
 71
     2
 72
     1
 44
191.4641976488467
 45
1.0
 73
     0
 74
     0
 46
0.0
  0
ENDSEC
  0
SECTION
  2
OBJECTS
  0
DICTIONARY
  5
B
330
0
100
AcDbDictionary
281
     1
  3
ACAD_CIP_PREVIOUS_PRODUCT_INFO
350
D8C
  3
ACAD_COLOR
350
49
  3
ACAD_DETAILVIEWSTYLE
350
D87
  3
ACAD_GROUP
350
36
  3
ACAD_LAYOUT
350
18
  3
ACAD_MATERIAL
350
D
  3
ACAD_MLEADERSTYLE
350
249
  3
ACAD_MLINESTYLE
350
37
  3
ACAD_PLOTSETTINGS
350
38
  3
ACAD_PLOTSTYLENAME
350
A
  3
ACAD_SCALELIST
350
4A
  3
ACAD_SECTIONVIEWSTYLE
350
D85
  3
ACAD_TABLESTYLE
350
4B
  3
ACAD_VISUALSTYLE
350
30
  3
ACDB_RECOMPOSE_DATA
350
E9E
  3
AcDbVariableDictionary
350
231
  3
AEC_PROPERTY_SET_DEFS
350
2E2
  0
DICTIONARY
  5
31
330
2D
100
AcDbDictionary
280
     1
281
     1
  0
DICTIONARY
  5
20
330
1F
100
AcDbDictionary
280
     1
281
     1
  3
ACAD_LAYERFILTERS
360
21
  3
ACAD_LAYERSTATES
360
22
  3
ACLYDICTIONARY
360
23
  0
DICTIONARY
  5
7
330
6
100
AcDbDictionary
280
     1
281
     1
  3
ADSK_XREC_LAYER_RECONCILED
360
8
  0
DICTIONARY
  5
77
330
76
100
AcDbDictionary
280
     1
281
     1
  3
ADSK_XREC_LAYER_RECONCILED
360
78
  0
DICTIONARY
  5
E23
330
E22
100
AcDbDictionary
280
     1
281
     1
  0
DICTIONARY
  5
E25
330
E24
100
AcDbDictionary
280
     1
281
     1
  0
DICTIONARY
  5
E27
330
E26
100
AcDbDictionary
280
     1
281
     1
  0
DICTIONARY
  5
E29
330
E28
100
AcDbDictionary
280
     1
281
     1
  0
DICTIONARY
  5
E2C
330
E2B
100
AcDbDictionary
280
     1
281
     1
  0
DICTIONARY
  5
E2F
330
E2E
100
AcDbDictionary
280
     1
281
     1
  0
DICTIONARY
  5
E31
330
E30
100
AcDbDictionary
280
     1
281
     1
  0
DICTIONARY
  5
E33
330
E32
100
AcDbDictionary
280
     1
281
     1
  0
DICTIONARY
  5
E35
330
E34
100
AcDbDictionary
280
     1
281
     1
  0
DICTIONARY
  5
E37
330
E36
100
AcDbDictionary
280
     1
281
     1
  0
DICTIONARY
  5
E39
330
E38
100
AcDbDictionary
280
     1
281
     1
  0
DICTIONARY
  5
E3B
330
E3A
100
AcDbDictionary
280
     1
281
     1
  0
DICTIONARY
  5
E3D
330
E3C
100
AcDbDictionary
280
     1
281
     1
  0
DICTIONARY
  5
3
330
2
100
AcDbDictionary
280
     1
281
     1
  3
ACAD_SORTENTS
360
22D
  0
DICTIONARY
  5
E80
330
E6A
100
AcDbDictionary
280
     1
281
     1
  3
ACAD_SORTENTS
360
E81
  0
XRECORD
  5
D8C
102
{ACAD_REACTORS
330
B
102
}
330
B
100
AcDbXrecord
280
     1
300
ACDLT
300
2020
300

  0
DICTIONARY
  5
49
102
{ACAD_REACTORS
330
B
102
}
330
B
100
AcDbDictionary
281
     1
  0
DICTIONARY
  5
D87
102
{ACAD_REACTORS
330
B
102
}
330
B
100
AcDbDictionary
281
     1
  3
Imperial24
350
D88
  3
Metric50
350
E69
  0
DICTIONARY
  5
36
102
{ACAD_REACTORS
330
B
102
}
330
B
100
AcDbDictionary
281
     1
  0
DICTIONARY
  5
18
102
{ACAD_REACTORS
330
B
102
}
330
B
100
AcDbDictionary
281
     1
  3
Layout1
350
CA7
  3
Model
350
17
  0
DICTIONARY
  5
D
102
{ACAD_REACTORS
330
B
102
}
330
B
100
AcDbDictionary
281
     1
  3
ByBlock
350
41
  3
ByLayer
350
39
  3
Global
350
C
  0
DICTIONARY
  5
249
102
{ACAD_REACTORS
330
B
102
}
330
B
100
AcDbDictionary
281
     1
  3
Standard
350
24A
  0
DICTIONARY
  5
37
102
{ACAD_REACTORS
330
B
102
}
330
B
100
AcDbDictionary
281
     1
  3
Standard
350
4F
  0
DICTIONARY
  5
38
102
{ACAD_REACTORS
330
B
102
}
330
B
100
AcDbDictionary
281
     1
  0
ACDBDICTIONARYWDFLT
  5
A
102
{ACAD_REACTORS
330
B
102
}
330
B
100
AcDbDictionary
281
     1
  3
Normal
350
9
100
AcDbDictionaryWithDefault
340
9
  0
DICTIONARY
  5
4A
102
{ACAD_REACTORS
330
B
102
}
330
B
100
AcDbDictionary
281
     1
  3
A0
350
54
  3
A1
350
55
  3
A2
350
56
  3
A3
350
57
  3
A4
350
58
  3
A5
350
59
  3
A6
350
5A
  3
A7
350
5B
  3
A8
350
5C
  3
A9
350
5D
  3
B0
350
5E
  3
B1
350
5F
  3
B2
350
60
  3
B3
350
61
  3
B4
350
62
  3
B5
350
63
  3
B6
350
64
  3
B7
350
65
  3
B8
350
66
  3
B9
350
67
  3
C0
350
68
  3
C1
350
69
  3
C2
350
6A
  3
C3
350
6B
  3
C4
350
6C
  3
C5
350
6D
  3
C6
350
6E
  3
C7
350
6F
  3
C8
350
70
  3
C9
350
71
  3
D0
350
72
  3
D1
350
73
  3
D2
350
74
  0
DICTIONARY
  5
D85
102
{ACAD_REACTORS
330
B
102
}
330
B
100
AcDbDictionary
281
     1
  3
Imperial24
350
D86
  3
Metric50
350
E68
  0
DICTIONARY
  5
4B
102
{ACAD_REACTORS
330
B
102
}
330
B
100
AcDbDictionary
281
     1
  3
REV
350
E66
  3
Standard
350
50
  0
DICTIONARY
  5
30
102
{ACAD_REACTORS
330
B
102
}
330
B
100
AcDbDictionary
281
     1
  3
2dWireframe
350
2F
  3
3D Hidden
350
23E
  3
3dWireframe
350
53
  3
Basic
350
23D
  3
Brighten
350
241
  3
ColorChange
350
245
  3
Conceptual
350
23F
  3
Dim
350
240
  3
EdgeColorOff
350
248
  3
Facepattern
350
244
  3
Flat
350
239
  3
FlatWithEdges
350
23A
  3
Gouraud
350
23B
  3
GouraudWithEdges
350
23C
  3
Hidden
350
D7F
  3
JitterOff
350
246
  3
Linepattern
350
243
  3
OverhangOff
350
247
  3
Realistic
350
52
  3
Shaded
350
D84
  3
Shaded with edges
350
D83
  3
Shades of Gray
350
D80
  3
Sketchy
350
D81
  3
Thicken
350
242
  3
Wireframe
350
D7E
  3
X-Ray
350
D82
  0
XRECORD
  5
E9E
102
{ACAD_REACTORS
330
B
102
}
330
B
100
AcDbXrecord
280
     1
 90
        1
330
50
330
E66
  0
DICTIONARY
  5
231
102
{ACAD_REACTORS
330
B
102
}
330
B
100
AcDbDictionary
281
     1
  3
CANNOSCALE
350
234
  3
CMLEADERSTYLE
350
233
  3
CTABLESTYLE
350
232
  3
CVIEWDETAILSTYLE
350
E9A
  3
CVIEWSECTIONSTYLE
350
E9B
  3
LAYEREVAL
350
236
  3
LAYERNOTIFY
350
237
  3
LIGHTINGUNITS
350
235
  3
MSLTSCALE
350
CD9
  0
DICTIONARY
  5
2E2
102
{ACAD_REACTORS
330
B
102
}
330
B
100
AcDbDictionary
281
     1
  0
DICTIONARY
  5
21
102
{ACAD_REACTORS
330
20
102
}
330
20
100
AcDbDictionary
281
     1
  0
DICTIONARY
  5
22
102
{ACAD_REACTORS
330
20
102
}
330
20
100
AcDbDictionary
281
     1
  0
DICTIONARY
  5
23
102
{ACAD_REACTORS
330
20
102
}
330
20
100
AcDbDictionary
281
     1
1001
ACAD
1000
<All
  0
XRECORD
  5
8
102
{ACAD_REACTORS
330
7
102
}
330
7
100
AcDbXrecord
280
     1
290
     1
  0
XRECORD
  5
78
102
{ACAD_REACTORS
330
77
102
}
330
77
100
AcDbXrecord
280
     1
290
     1
  0
SORTENTSTABLE
  5
22D
102
{ACAD_REACTORS
330
3
102
}
330
3
100
AcDbSortentsTable
330
2
331
18E
  5
190
331
18F
  5
191
331
190
  5
192
331
191
  5
193
331
192
  5
194
331
193
  5
195
331
194
  5
196
331
195
  5
21F
331
196
  5
220
331
21F
  5
221
331
220
  5
222
331
221
  5
22C
331
222
  5
2E6
331
22C
  5
2E7
331
2E6
  5
2E8
331
2E7
  5
2E9
331
2E8
  5
2EA
331
2E9
  5
2EB
331
2EA
  5
2EC
331
2EB
  5
2ED
331
2EC
  5
2EE
331
2ED
  5
2EF
331
2EE
  5
2F0
331
2EF
  5
2F1
331
2F0
  5
2F2
331
2F1
  5
2F3
331
2F2
  5
2F4
331
2F3
  5
2F5
331
2F4
  5
2F6
331
2F5
  5
2F7
331
2F6
  5
2F8
331
2F7
  5
2F9
331
2F8
  5
2FA
331
2F9
  5
2FB
331
2FA
  5
2FC
331
2FB
  5
2FD
331
2FC
  5
2FE
331
2FD
  5
2FF
331
2FE
  5
300
331
2FF
  5
301
331
300
  5
302
331
301
  5
303
331
302
  5
304
331
303
  5
305
331
304
  5
306
331
305
  5
307
331
306
  5
308
331
307
  5
309
331
308
  5
30A
331
309
  5
30B
331
30A
  5
30C
331
30B
  5
30D
331
30C
  5
30E
331
30D
  5
30F
331
30E
  5
310
331
30F
  5
311
331
310
  5
312
331
311
  5
313
331
312
  5
314
331
313
  5
315
331
314
  5
316
331
315
  5
317
331
316
  5
318
331
317
  5
319
331
318
  5
31A
331
319
  5
31B
331
31A
  5
31C
331
31B
  5
31D
331
31C
  5
31E
331
31D
  5
31F
331
31E
  5
320
331
31F
  5
321
331
320
  5
322
331
321
  5
323
331
322
  5
324
331
323
  5
325
331
324
  5
326
331
325
  5
327
331
326
  5
328
331
327
  5
329
331
328
  5
32A
331
329
  5
32B
331
32A
  5
32E
331
32B
  5
32F
331
32E
  5
330
331
32F
  5
331
331
330
  5
332
331
331
  5
333
331
332
  5
334
331
333
  5
335
331
334
  5
336
331
335
  5
337
331
336
  5
338
331
337
  5
339
331
338
  5
33A
331
339
  5
33B
331
33A
  5
33C
331
33B
  5
33D
331
33C
  5
33E
331
33D
  5
33F
331
33E
  5
340
331
33F
  5
341
331
340
  5
342
331
341
  5
343
331
342
  5
344
331
343
  5
345
331
344
  5
346
331
345
  5
347
331
346
  5
348
331
347
  5
349
331
348
  5
34A
331
349
  5
34B
331
34A
  5
34C
331
34B
  5
34D
331
34C
  5
34E
331
34D
  5
34F
331
34E
  5
350
331
34F
  5
351
331
350
  5
352
331
351
  5
353
331
352
  5
354
331
353
  5
355
331
354
  5
356
331
355
  5
357
331
356
  5
358
331
357
  5
359
331
358
  5
35A
331
359
  5
35B
331
35A
  5
35C
331
35B
  5
35D
331
35C
  5
35E
331
35D
  5
35F
331
35E
  5
360
331
35F
  5
361
331
360
  5
362
331
361
  5
363
331
362
  5
364
331
363
  5
365
331
364
  5
366
331
365
  5
367
331
366
  5
4FA
331
367
  5
4FB
331
4FA
  5
4FC
331
4FB
  5
4FD
331
4FE
  5
500
331
4FF
  5
501
331
500
  5
502
331
501
  5
503
331
502
  5
504
331
503
  5
505
331
504
  5
506
331
505
  5
507
331
506
  5
508
331
507
  5
509
331
508
  5
50A
331
509
  5
50B
331
50A
  5
50C
331
50B
  5
50D
331
50C
  5
50E
331
50D
  5
50F
331
50E
  5
510
331
50F
  5
511
331
510
  5
512
331
511
  5
513
331
512
  5
514
331
513
  5
515
331
514
  5
516
331
515
  5
517
331
516
  5
518
331
517
  5
519
331
518
  5
51A
331
519
  5
51B
331
51A
  5
51C
331
51B
  5
51D
331
51C
  5
51E
331
51D
  5
51F
331
51E
  5
520
331
51F
  5
521
331
520
  5
522
331
521
  5
523
331
522
  5
524
331
523
  5
525
331
524
  5
526
331
525
  5
527
331
526
  5
528
331
527
  5
529
331
528
  5
52A
331
529
  5
52B
331
52A
  5
52C
331
52B
  5
52D
331
52C
  5
52E
331
52D
  5
52F
331
52E
  5
530
331
52F
  5
531
331
530
  5
532
331
531
  5
533
331
532
  5
534
331
533
  5
535
331
534
  5
536
331
535
  5
537
331
536
  5
538
331
537
  5
539
331
538
  5
53A
331
539
  5
53B
331
53A
  5
53C
331
53B
  5
53D
331
53C
  5
53E
331
53D
  5
53F
331
53E
  5
540
331
53F
  5
541
331
540
  5
542
331
541
  5
543
331
542
  5
544
331
543
  5
545
331
544
  5
546
331
545
  5
547
331
546
  5
548
331
547
  5
549
331
548
  5
54A
331
549
  5
54B
331
54A
  5
54C
331
54B
  5
54D
331
54C
  5
54E
331
54D
  5
54F
331
54E
  5
550
331
54F
  5
551
331
550
  5
552
331
551
  5
553
331
552
  5
554
331
553
  5
555
331
554
  5
556
331
555
  5
557
331
556
  5
558
331
557
  5
559
331
558
  5
55A
331
559
  5
55B
331
55A
  5
55C
331
55B
  5
55D
331
55C
  5
55E
331
55D
  5
55F
331
55E
  5
560
331
55F
  5
561
331
560
  5
562
331
561
  5
563
331
562
  5
564
331
563
  5
565
331
564
  5
566
331
565
  5
567
331
566
  5
568
331
567
  5
569
331
568
  5
56A
331
569
  5
56B
331
56A
  5
56C
331
56B
  5
56D
331
56C
  5
56E
331
56D
  5
56F
331
56E
  5
570
331
56F
  5
571
331
570
  5
572
331
571
  5
573
331
572
  5
574
331
573
  5
575
331
574
  5
576
331
575
  5
577
331
576
  5
578
331
577
  5
579
331
578
  5
57A
331
579
  5
57B
331
57A
  5
57C
331
57B
  5
57D
331
57C
  5
57E
331
57D
  5
57F
331
57E
  5
867
331
57F
  5
868
331
867
  5
869
331
868
  5
8D0
331
869
  5
8D1
331
8D0
  5
8D2
331
8D1
  5
8D3
331
8D2
  5
8D4
331
8D3
  5
8D5
331
8D4
  5
8D6
331
8D5
  5
8D7
331
8D6
  5
8DB
331
8D7
  5
8DC
331
8DB
  5
8DE
331
8DC
  5
8DF
331
8DE
  5
8E0
331
8DF
  5
929
331
8E0
  5
92A
331
929
  5
92C
331
92A
  5
92E
331
92C
  5
930
331
92E
  5
931
331
930
  5
932
331
931
  5
C3A
331
932
  5
C3C
  0
SORTENTSTABLE
  5
E81
102
{ACAD_REACTORS
330
E80
102
}
330
E80
100
AcDbSortentsTable
330
E6A
  0
ACDBDETAILVIEWSTYLE
  5
D88
102
{ACAD_REACTORS
330
D87
102
}
330
D87
100
AcDbModelDocViewStyle
 70
     0
  3
Imperial24
290
     1
300
Imperial24
 90
        0
100
AcDbDetailViewStyle
 70
     0
 71
     0
 90
        3
 71
     1
340
26
 62
   256
 40
0.24
340
0
 62
   256
 40
0.24
300

 40
0.36
280
     3
 71
     2
340
15
 90
       25
 62
   256
 71
     3
340
26
 62
   256
 40
0.24
 90
        1
 40
0.75
 90
        1
300
%<\AcVar ViewType \f "%tc1">% %<\AcVar ViewDetailId>%\PSCALE %<\AcVar ViewScale \f "%sn">%
 71
     4
340
15
 90
       25
 62
   256
340
15
 90
       25
 62
   256
280
     0
  0
ACDBDETAILVIEWSTYLE
  5
E69
102
{ACAD_REACTORS
330
D87
102
}
330
D87
100
AcDbModelDocViewStyle
 70
     0
  3
Metric50
290
     0
300
Metric50
 90
        0
100
AcDbDetailViewStyle
 70
     0
 71
     0
 90
        3
 71
     1
340
26
 62
   256
 40
5.0
340
0
 62
   256
 40
5.0
300

 40
0.0
280
     1
 71
     2
340
15
 90
       25
 62
   256
 71
     3
340
26
 62
   256
 40
5.0
 90
        0
 40
15.0
 90
        1
300
%<\AcVar ViewDetailId>% (%<\AcVar ViewScale \f "%sn">%)
 71
     4
340
15
 90
       25
 62
   256
340
15
 90
       25
 62
   256
280
     0
  0
LAYOUT
  5
CA7
102
{ACAD_REACTORS
330
18
102
}
330
18
100
AcDbPlotSettings
  1

  2
CutePDF Writer
  4

  6

 40
0.0
 41
0.0
 42
0.0
 43
0.0
 44
0.0
 45
0.0
 46
0.0
 47
0.0
 48
0.0
 49
0.0
140
0.0
141
0.0
142
1.0
143
1.0
 70
   688
 72
     0
 73
     0
 74
     5
  7

 75
    16
147
1.0
 76
     0
 77
     2
 78
   300
148
0.0
149
0.0
100
AcDbLayout
  1
Layout1
 70
     1
 71
     1
 10
0.0
 20
0.0
 11
12.0
 21
9.0
 12
0.0
 22
0.0
 32
0.0
 14
0.0
 24
0.0
 34
0.0
 15
0.0
 25
0.0
 35
0.0
146
0.0
 13
0.0
 23
0.0
 33
0.0
 16
1.0
 26
0.0
 36
0.0
 17
0.0
 27
1.0
 37
0.0
 76
     0
330
CA6
  0
LAYOUT
  5
17
102
{ACAD_XDICTIONARY
360
871
102
}
102
{ACAD_REACTORS
330
18
102
}
330
18
100
AcDbPlotSettings
  1

  2
none_device
  4
Letter_(8.50_x_11.00_Inches)
  6

 40
6.349999904632568
 41
6.349999904632568
 42
6.350006103515625
 43
6.350006103515625
 44
215.8999938964844
 45
279.3999938964844
 46
0.0
 47
0.0
 48
0.0
 49
0.0
140
0.0
141
0.0
142
1.0
143
1.0
 70
 11952
 72
     0
 73
     1
 74
     0
  7
Ancon pen settings.ctb
 75
     0
147
1.0
 76
     0
 77
     2
 78
   300
148
-9123.298005735746
149
-1608.454362395838
100
AcDbLayout
  1
Model
 70
     1
 71
     0
 10
0.0
 20
0.0
 11
12.0
 21
9.0
 12
0.0
 22
0.0
 32
0.0
 14
0.0
 24
0.0
 34
0.0
 15
0.0
 25
0.0
 35
0.0
146
0.0
 13
0.0
 23
0.0
 33
0.0
 16
1.0
 26
0.0
 36
0.0
 17
0.0
 27
1.0
 37
0.0
 76
     0
330
2
331
2E
  0
MATERIAL
  5
41
102
{ACAD_XDICTIONARY
360
42
102
}
102
{ACAD_REACTORS
330
D
102
}
330
D
100
AcDbMaterial
  1
ByBlock
 72
     0
 43
0.0208333333333333
 43
0.0
 43
0.0
 43
0.0
 43
0.0
 43
0.0208333333333333
 43
0.0
 43
0.0
 43
0.0
 43
0.0
 43
1.0
 43
0.0
 43
0.0
 43
0.0
 43
0.0
 43
1.0
 77
     0
 47
0.0208333333333333
 47
0.0
 47
0.0
 47
0.0
 47
0.0
 47
0.0208333333333333
 47
0.0
 47
0.0
 47
0.0
 47
0.0
 47
1.0
 47
0.0
 47
0.0
 47
0.0
 47
0.0
 47
1.0
171
     0
 49
0.0208333333333333
 49
0.0
 49
0.0
 49
0.0
 49
0.0
 49
0.0208333333333333
 49
0.0
 49
0.0
 49
0.0
 49
0.0
 49
1.0
 49
0.0
 49
0.0
 49
0.0
 49
0.0
 49
1.0
175
     0
142
0.0208333333333333
142
0.0
142
0.0
142
0.0
142
0.0
142
0.0208333333333333
142
0.0
142
0.0
142
0.0
142
0.0
142
1.0
142
0.0
142
0.0
142
0.0
142
0.0
142
1.0
179
     0
144
0.0208333333333333
144
0.0
144
0.0
144
0.0
144
0.0
144
0.0208333333333333
144
0.0
144
0.0
144
0.0
144
0.0
144
1.0
144
0.0
144
0.0
144
0.0
144
0.0
144
1.0
147
0.0208333333333333
147
0.0
147
0.0
147
0.0
147
0.0
147
0.0208333333333333
147
0.0
147
0.0
147
0.0
147
0.0
147
1.0
147
0.0
147
0.0
147
0.0
147
0.0
147
1.0
  0
MATERIAL
  5
39
102
{ACAD_XDICTIONARY
360
3A
102
}
102
{ACAD_REACTORS
330
D
102
}
330
D
100
AcDbMaterial
  1
ByLayer
 72
     0
 43
0.0208333333333333
 43
0.0
 43
0.0
 43
0.0
 43
0.0
 43
0.0208333333333333
 43
0.0
 43
0.0
 43
0.0
 43
0.0
 43
1.0
 43
0.0
 43
0.0
 43
0.0
 43
0.0
 43
1.0
 77
     0
 47
0.0208333333333333
 47
0.0
 47
0.0
 47
0.0
 47
0.0
 47
0.0208333333333333
 47
0.0
 47
0.0
 47
0.0
 47
0.0
 47
1.0
 47
0.0
 47
0.0
 47
0.0
 47
0.0
 47
1.0
171
     0
 49
0.0208333333333333
 49
0.0
 49
0.0
 49
0.0
 49
0.0
 49
0.0208333333333333
 49
0.0
 49
0.0
 49
0.0
 49
0.0
 49
1.0
 49
0.0
 49
0.0
 49
0.0
 49
0.0
 49
1.0
175
     0
142
0.0208333333333333
142
0.0
142
0.0
142
0.0
142
0.0
142
0.0208333333333333
142
0.0
142
0.0
142
0.0
142
0.0
142
1.0
142
0.0
142
0.0
142
0.0
142
0.0
142
1.0
179
     0
144
0.0208333333333333
144
0.0
144
0.0
144
0.0
144
0.0
144
0.0208333333333333
144
0.0
144
0.0
144
0.0
144
0.0
144
1.0
144
0.0
144
0.0
144
0.0
144
0.0
144
1.0
147
0.0208333333333333
147
0.0
147
0.0
147
0.0
147
0.0
147
0.0208333333333333
147
0.0
147
0.0
147
0.0
147
0.0
147
1.0
147
0.0
147
0.0
147
0.0
147
0.0
147
1.0
  0
MATERIAL
  5
C
102
{ACAD_XDICTIONARY
360
E
102
}
102
{ACAD_REACTORS
330
D
102
}
330
D
100
AcDbMaterial
  1
Global
 72
     0
 43
0.0208333333333333
 43
0.0
 43
0.0
 43
0.0
 43
0.0
 43
0.0208333333333333
 43
0.0
 43
0.0
 43
0.0
 43
0.0
 43
1.0
 43
0.0
 43
0.0
 43
0.0
 43
0.0
 43
1.0
 77
     0
 47
0.0208333333333333
 47
0.0
 47
0.0
 47
0.0
 47
0.0
 47
0.0208333333333333
 47
0.0
 47
0.0
 47
0.0
 47
0.0
 47
1.0
 47
0.0
 47
0.0
 47
0.0
 47
0.0
 47
1.0
171
     0
 49
0.0208333333333333
 49
0.0
 49
0.0
 49
0.0
 49
0.0
 49
0.0208333333333333
 49
0.0
 49
0.0
 49
0.0
 49
0.0
 49
1.0
 49
0.0
 49
0.0
 49
0.0
 49
0.0
 49
1.0
175
     0
142
0.0208333333333333
142
0.0
142
0.0
142
0.0
142
0.0
142
0.0208333333333333
142
0.0
142
0.0
142
0.0
142
0.0
142
1.0
142
0.0
142
0.0
142
0.0
142
0.0
142
1.0
179
     0
144
0.0208333333333333
144
0.0
144
0.0
144
0.0
144
0.0
144
0.0208333333333333
144
0.0
144
0.0
144
0.0
144
0.0
144
1.0
144
0.0
144
0.0
144
0.0
144
0.0
144
1.0
147
0.0208333333333333
147
0.0
147
0.0
147
0.0
147
0.0
147
0.0208333333333333
147
0.0
147
0.0
147
0.0
147
0.0
147
1.0
147
0.0
147
0.0
147
0.0
147
0.0
147
1.0
  0
MLEADERSTYLE
  5
24A
102
{ACAD_REACTORS
330
249
102
}
330
249
100
AcDbMLeaderStyle
179
     2
170
     2
171
     1
172
     0
 90
        2
 40
0.0
 41
0.0
173
     1
 91
-1056964608
340
29
 92
       -2
290
     1
 42
0.09
291
     1
 43
0.36
  3
Standard
 44
0.18
300

342
26
174
     1
178
     6
175
     1
176
     0
 93
-1056964608
 45
0.18
292
     0
297
     0
 46
0.18
 94
-1056964608
 47
1.0
 49
1.0
140
1.0
293
     1
141
0.0
294
     1
177
     0
142
1.0
295
     0
296
     0
143
0.125
271
     0
272
     9
273
     9
298
     0
  0
MLINESTYLE
  5
4F
102
{ACAD_REACTORS
330
37
102
}
330
37
100
AcDbMlineStyle
  2
STANDARD
 70
     0
  3

 62
   256
 51
90.0
 52
90.0
 71
     2
 49
0.5
 62
   256
  6
BYLAYER
 49
-0.5
 62
   256
  6
BYLAYER
  0
ACDBPLACEHOLDER
  5
9
102
{ACAD_REACTORS
330
A
102
}
330
A
  0
SCALE
  5
54
102
{ACAD_REACTORS
330
4A
102
}
330
4A
100
AcDbScale
 70
     0
300
1:1
140
1.0
141
1.0
290
     1
  0
SCALE
  5
55
102
{ACAD_REACTORS
330
4A
102
}
330
4A
100
AcDbScale
 70
     0
300
1:2
140
1.0
141
2.0
290
     0
  0
SCALE
  5
56
102
{ACAD_REACTORS
330
4A
102
}
330
4A
100
AcDbScale
 70
     0
300
1:4
140
1.0
141
4.0
290
     0
  0
SCALE
  5
57
102
{ACAD_REACTORS
330
4A
102
}
330
4A
100
AcDbScale
 70
     0
300
1:5
140
1.0
141
5.0
290
     0
  0
SCALE
  5
58
102
{ACAD_REACTORS
330
4A
102
}
330
4A
100
AcDbScale
 70
     0
300
1:8
140
1.0
141
8.0
290
     0
  0
SCALE
  5
59
102
{ACAD_REACTORS
330
4A
102
}
330
4A
100
AcDbScale
 70
     0
300
1:10
140
1.0
141
10.0
290
     0
  0
SCALE
  5
5A
102
{ACAD_REACTORS
330
4A
102
}
330
4A
100
AcDbScale
 70
     0
300
1:16
140
1.0
141
16.0
290
     0
  0
SCALE
  5
5B
102
{ACAD_REACTORS
330
4A
102
}
330
4A
100
AcDbScale
 70
     0
300
1:20
140
1.0
141
20.0
290
     0
  0
SCALE
  5
5C
102
{ACAD_REACTORS
330
4A
102
}
330
4A
100
AcDbScale
 70
     0
300
1:30
140
1.0
141
30.0
290
     0
  0
SCALE
  5
5D
102
{ACAD_REACTORS
330
4A
102
}
330
4A
100
AcDbScale
 70
     0
300
1:40
140
1.0
141
40.0
290
     0
  0
SCALE
  5
5E
102
{ACAD_REACTORS
330
4A
102
}
330
4A
100
AcDbScale
 70
     0
300
1:50
140
1.0
141
50.0
290
     0
  0
SCALE
  5
5F
102
{ACAD_REACTORS
330
4A
102
}
330
4A
100
AcDbScale
 70
     0
300
1:100
140
1.0
141
100.0
290
     0
  0
SCALE
  5
60
102
{ACAD_REACTORS
330
4A
102
}
330
4A
100
AcDbScale
 70
     0
300
2:1
140
2.0
141
1.0
290
     0
  0
SCALE
  5
61
102
{ACAD_REACTORS
330
4A
102
}
330
4A
100
AcDbScale
 70
     0
300
4:1
140
4.0
141
1.0
290
     0
  0
SCALE
  5
62
102
{ACAD_REACTORS
330
4A
102
}
330
4A
100
AcDbScale
 70
     0
300
8:1
140
8.0
141
1.0
290
     0
  0
SCALE
  5
63
102
{ACAD_REACTORS
330
4A
102
}
330
4A
100
AcDbScale
 70
     0
300
10:1
140
10.0
141
1.0
290
     0
  0
SCALE
  5
64
102
{ACAD_REACTORS
330
4A
102
}
330
4A
100
AcDbScale
 70
     0
300
100:1
140
100.0
141
1.0
290
     0
  0
SCALE
  5
65
102
{ACAD_REACTORS
330
4A
102
}
330
4A
100
AcDbScale
 70
     0
300
1/128" = 1'-0"
140
0.0078125
141
12.0
290
     0
  0
SCALE
  5
66
102
{ACAD_REACTORS
330
4A
102
}
330
4A
100
AcDbScale
 70
     0
300
1/64" = 1'-0"
140
0.015625
141
12.0
290
     0
  0
SCALE
  5
67
102
{ACAD_REACTORS
330
4A
102
}
330
4A
100
AcDbScale
 70
     0
300
1/32" = 1'-0"
140
0.03125
141
12.0
290
     0
  0
SCALE
  5
68
102
{ACAD_REACTORS
330
4A
102
}
330
4A
100
AcDbScale
 70
     0
300
1/16" = 1'-0"
140
0.0625
141
12.0
290
     0
  0
SCALE
  5
69
102
{ACAD_REACTORS
330
4A
102
}
330
4A
100
AcDbScale
 70
     0
300
3/32" = 1'-0"
140
0.09375
141
12.0
290
     0
  0
SCALE
  5
6A
102
{ACAD_REACTORS
330
4A
102
}
330
4A
100
AcDbScale
 70
     0
300
1/8" = 1'-0"
140
0.125
141
12.0
290
     0
  0
SCALE
  5
6B
102
{ACAD_REACTORS
330
4A
102
}
330
4A
100
AcDbScale
 70
     0
300
3/16" = 1'-0"
140
0.1875
141
12.0
290
     0
  0
SCALE
  5
6C
102
{ACAD_REACTORS
330
4A
102
}
330
4A
100
AcDbScale
 70
     0
300
1/4" = 1'-0"
140
0.25
141
12.0
290
     0
  0
SCALE
  5
6D
102
{ACAD_REACTORS
330
4A
102
}
330
4A
100
AcDbScale
 70
     0
300
3/8" = 1'-0"
140
0.375
141
12.0
290
     0
  0
SCALE
  5
6E
102
{ACAD_REACTORS
330
4A
102
}
330
4A
100
AcDbScale
 70
     0
300
1/2" = 1'-0"
140
0.5
141
12.0
290
     0
  0
SCALE
  5
6F
102
{ACAD_REACTORS
330
4A
102
}
330
4A
100
AcDbScale
 70
     0
300
3/4" = 1'-0"
140
0.75
141
12.0
290
     0
  0
SCALE
  5
70
102
{ACAD_REACTORS
330
4A
102
}
330
4A
100
AcDbScale
 70
     0
300
1" = 1'-0"
140
1.0
141
12.0
290
     0
  0
SCALE
  5
71
102
{ACAD_REACTORS
330
4A
102
}
330
4A
100
AcDbScale
 70
     0
300
1-1/2" = 1'-0"
140
1.5
141
12.0
290
     0
  0
SCALE
  5
72
102
{ACAD_REACTORS
330
4A
102
}
330
4A
100
AcDbScale
 70
     0
300
3" = 1'-0"
140
3.0
141
12.0
290
     0
  0
SCALE
  5
73
102
{ACAD_REACTORS
330
4A
102
}
330
4A
100
AcDbScale
 70
     0
300
6" = 1'-0"
140
6.0
141
12.0
290
     0
  0
SCALE
  5
74
102
{ACAD_REACTORS
330
4A
102
}
330
4A
100
AcDbScale
 70
     0
300
1'-0" = 1'-0"
140
12.0
141
12.0
290
     0
  0
ACDBSECTIONVIEWSTYLE
  5
D86
102
{ACAD_REACTORS
330
D85
102
}
330
D85
100
AcDbModelDocViewStyle
 70
     0
  3
Imperial24
290
     1
300
Imperial24
 90
        0
100
AcDbSectionViewStyle
 70
     0
 71
     0
 90
       78
 71
     1
340
26
 62
   256
 40
0.24
340
0
340
0
 62
   256
 40
0.24
300
I, O, Q, S, X, Z
 40
0.48
 90
        3
 40
0.18
 90
        1
 71
     2
340
15
 90
       25
 62
   256
340
15
 90
       50
 62
   256
 40
0.24
 40
0.0
 40
0.24
 71
     3
340
26
 62
   256
 40
0.24
 90
        1
 40
0.75
 90
        1
300
%<\AcVar ViewType \f "%tc1">% %<\AcVar ViewSectionStartId>%-%<\AcVar ViewSectionEndId>%\PSCALE %<\AcVar ViewScale \f "%sn">%
 71
     4
 62
   256
 62
   257
300
ANSI31
 40
1.0
 90
        0
290
     0
290
     0
 90
        6
 40
0.0
 40
1.570796326794896
 40
0.2617993877991494
 40
1.308996938995747
 40
-0.2617993877991494
 40
1.832595714594046
  0
ACDBSECTIONVIEWSTYLE
  5
E68
102
{ACAD_REACTORS
330
D85
102
}
330
D85
100
AcDbModelDocViewStyle
 70
     0
  3
Metric50
290
     0
300
Metric50
 90
        0
100
AcDbSectionViewStyle
 70
     0
 71
     0
 90
      102
 71
     1
340
26
 62
   256
 40
5.0
340
0
340
0
 62
   256
 40
5.0
300
I, O, Q, S, X, Z
 40
10.0
 90
        0
 40
2.5
 90
        0
 71
     2
340
15
 90
       25
 62
   256
340
15
 90
       50
 62
   256
 40
5.0
 40
2.5
 40
5.0
 71
     3
340
26
 62
   256
 40
5.0
 90
        0
 40
15.0
 90
        1
300
%<\AcVar ViewSectionStartId>%-%<\AcVar ViewSectionEndId>% (%<\AcVar ViewScale \f "%sn">%)
 71
     4
 62
   256
 62
   257
300
ANSI31
 40
1.0
 90
        0
290
     0
290
     0
 90
        6
 40
0.0
 40
1.570796326794896
 40
0.2617993877991494
 40
1.308996938995747
 40
-0.2617993877991494
 40
1.832595714594046
  0
TABLESTYLE
  5
E66
102
{ACAD_XDICTIONARY
360
E67
102
}
102
{ACAD_REACTORS
330
4B
102
}
330
4B
100
AcDbTableStyle
280
     0
  3
Standard
 70
     1
 71
     0
 40
0.5
 41
0.5
280
     0
281
     0
  7
ARIAL
140
2.0
170
     5
 62
     6
 63
     7
283
     0
 90
        4
 91
        0
  1

274
    -2
284
     1
 64
     0
275
    -2
285
     1
 65
     0
276
    -2
286
     1
 66
     0
277
    -2
287
     1
 67
     0
278
    -2
288
     1
 68
     0
279
    -2
289
     1
 69
     0
  7
STANDARD
140
6.0
170
     5
 62
     0
 63
     7
283
     0
 90
        4
 91
        0
  1

274
    -2
284
     1
 64
     0
275
    -2
285
     1
 65
     0
276
    -2
286
     1
 66
     0
277
    -2
287
     1
 67
     0
278
    -2
288
     1
 68
     0
279
    -2
289
     1
 69
     0
  7
STANDARD
140
4.5
170
     5
 62
     0
 63
     7
283
     0
 90
        4
 91
        0
  1

274
    -2
284
     1
 64
     0
275
    -2
285
     1
 65
     0
276
    -2
286
     1
 66
     0
277
    -2
287
     1
 67
     0
278
    -2
288
     1
 68
     0
279
    -2
289
     1
 69
     0
  0
TABLESTYLE
  5
50
102
{ACAD_XDICTIONARY
360
51
102
}
102
{ACAD_REACTORS
330
4B
102
}
330
4B
100
AcDbTableStyle
280
     0
  3
Standard
 70
     0
 71
     0
 40
0.06
 41
0.06
280
     0
281
     0
  7
STANDARD
140
0.18
170
     2
 62
     0
 63
     7
283
     0
 90
      512
 91
        0
  1

274
    -2
284
     1
 64
     0
275
    -2
285
     1
 65
     0
276
    -2
286
     1
 66
     0
277
    -2
287
     1
 67
     0
278
    -2
288
     1
 68
     0
279
    -2
289
     1
 69
     0
  7
STANDARD
140
0.25
170
     5
 62
     0
 63
     7
283
     0
 90
      512
 91
        0
  1

274
    -2
284
     1
 64
     0
275
    -2
285
     1
 65
     0
276
    -2
286
     1
 66
     0
277
    -2
287
     1
 67
     0
278
    -2
288
     1
 68
     0
279
    -2
289
     1
 69
     0
  7
STANDARD
140
0.18
170
     5
 62
     0
 63
     7
283
     0
 90
      512
 91
        0
  1

274
    -2
284
     1
 64
     0
275
    -2
285
     1
 65
     0
276
    -2
286
     1
 66
     0
277
    -2
287
     1
 67
     0
278
    -2
288
     1
 68
     0
279
    -2
289
     1
 69
     0
  0
VISUALSTYLE
  5
2F
102
{ACAD_REACTORS
330
30
102
}
330
30
100
AcDbVisualStyle
  2
2dWireframe
 70
     4
177
     3
291
     0
 70
    58
 90
        0
176
     1
 90
        2
176
     1
 90
        0
176
     1
 90
        0
176
     1
 40
0.6
176
     1
 40
30.0
176
     1
 62
     7
176
     1
 90
        1
176
     1
 90
        4
176
     1
 62
     7
176
     1
 62
   257
176
     1
 90
        1
176
     1
 90
        1
176
     1
 40
1.0
176
     1
 90
        0
176
     1
 62
   257
176
     1
 40
1.0
176
     1
 90
        1
176
     1
 90
        6
176
     1
 90
        2
176
     1
 62
     7
176
     1
 90
        5
176
     1
 90
        0
176
     1
 90
        0
176
     1
290
     0
176
     1
 90
        1
176
     1
 40
0.0
176
     1
 90
        0
176
     1
290
     1
176
     1
290
     1
176
     1
290
     0
176
     1
290
     0
176
     1
290
     0
176
     1
290
     0
176
     1
290
     0
176
     1
290
     0
176
     1
290
     0
176
     1
 90
       50
176
     1
 40
0.0
176
     1
 40
1.0
176
     1
 90
        0
176
     1
 62
    18
420
        0
176
     1
 90
       50
176
     1
 90
        3
176
     1
 62
     5
420
      255
176
     1
290
     0
176
     1
 90
       50
176
     1
 90
       50
176
     1
 90
       50
176
     1
290
     0
176
     1
 90
       50
176
     1
 62
   256
176
     0
 40
1.0
176
     0
 90
        2
176
     1
  1
strokes_ogs.tif
176
     1
290
     0
176
     1
 40
1.0
176
     1
 40
1.0
176
     1
  0
VISUALSTYLE
  5
23E
102
{ACAD_REACTORS
330
30
102
}
330
30
100
AcDbVisualStyle
  2
3D Hidden
 70
     6
177
     3
291
     0
 70
    58
 90
        1
176
     1
 90
        2
176
     1
 90
        2
176
     1
 90
        0
176
     1
 40
0.6
176
     1
 40
30.0
176
     1
 62
     7
420
 16777215
176
     1
 90
        2
176
     1
 90
        2
176
     1
 62
     7
176
     1
 62
   257
176
     1
 90
        2
176
     1
 90
        1
176
     1
 40
179.0
176
     1
 90
        0
176
     1
 62
   257
176
     1
 40
1.0
176
     1
 90
        1
176
     1
 90
        6
176
     1
 90
        2
176
     1
 62
     7
176
     1
 90
        3
176
     1
 90
        0
176
     1
 90
        0
176
     1
290
     0
176
     1
 90
        1
176
     1
 40
0.0
176
     1
 90
        0
176
     1
290
     0
176
     1
290
     1
176
     1
290
     1
176
     1
290
     0
176
     1
290
     0
176
     1
290
     0
176
     1
290
     0
176
     1
290
     0
176
     1
290
     0
176
     1
 90
       50
176
     1
 40
0.0
176
     1
 40
1.0
176
     1
 90
        0
176
     1
 62
    18
420
        0
176
     1
 90
       50
176
     1
 90
        3
176
     1
 62
     5
420
      255
176
     1
290
     0
176
     1
 90
       50
176
     1
 90
       50
176
     1
 90
       50
176
     1
290
     0
176
     1
 90
       50
176
     1
 62
   256
176
     0
 40
1.0
176
     0
 90
        2
176
     1
  1
strokes_ogs.tif
176
     1
290
     0
176
     1
 40
1.0
176
     1
 40
1.0
176
     1
  0
VISUALSTYLE
  5
53
102
{ACAD_REACTORS
330
30
102
}
330
30
100
AcDbVisualStyle
  2
3dWireframe
 70
     5
177
     3
291
     0
 70
    58
 90
        0
176
     1
 90
        2
176
     1
 90
        0
176
     1
 90
        0
176
     1
 40
0.6
176
     1
 40
30.0
176
     1
 62
     7
176
     1
 90
        1
176
     1
 90
        4
176
     1
 62
     7
176
     1
 62
   257
176
     1
 90
        1
176
     1
 90
        1
176
     1
 40
1.0
176
     1
 90
        0
176
     1
 62
   257
176
     1
 40
1.0
176
     1
 90
        1
176
     1
 90
        6
176
     1
 90
        2
176
     1
 62
     7
176
     1
 90
        5
176
     1
 90
        0
176
     1
 90
        0
176
     1
290
     0
176
     1
 90
        1
176
     1
 40
0.0
176
     1
 90
        0
176
     1
290
     0
176
     1
290
     1
176
     1
290
     1
176
     1
290
     0
176
     1
290
     0
176
     1
290
     0
176
     1
290
     0
176
     1
290
     0
176
     1
290
     0
176
     1
 90
       50
176
     1
 40
0.0
176
     1
 40
1.0
176
     1
 90
        0
176
     1
 62
    18
420
        0
176
     1
 90
       50
176
     1
 90
        3
176
     1
 62
     5
420
      255
176
     1
290
     0
176
     1
 90
       50
176
     1
 90
       50
176
     1
 90
       50
176
     1
290
     0
176
     1
 90
       50
176
     1
 62
   256
176
     0
 40
1.0
176
     0
 90
        2
176
     1
  1
strokes_ogs.tif
176
     1
290
     0
176
     1
 40
1.0
176
     1
 40
1.0
176
     1
  0
VISUALSTYLE
  5
23D
102
{ACAD_REACTORS
330
30
102
}
330
30
100
AcDbVisualStyle
  2
Basic
 70
     7
177
     3
291
     1
 70
    58
 90
        1
176
     1
 90
        0
176
     1
 90
        1
176
     1
 90
        0
176
     1
 40
0.6
176
     1
 40
30.0
176
     1
 62
     7
420
 16777215
176
     1
 90
        0
176
     1
 90
        4
176
     1
 62
     7
176
     1
 62
   257
176
     1
 90
        1
176
     1
 90
        1
176
     1
 40
1.0
176
     1
 90
        8
176
     1
 62
     7
176
     1
 40
1.0
176
     1
 90
        1
176
     1
 90
        6
176
     1
 90
        2
176
     1
 62
     7
176
     1
 90
        5
176
     1
 90
        0
176
     1
 90
        0
176
     1
290
     0
176
     1
 90
        1
176
     1
 40
0.0
176
     1
 90
        0
176
     1
290
     0
176
     1
290
     1
176
     1
290
     1
176
     1
290
     0
176
     1
290
     0
176
     1
290
     0
176
     1
290
     0
176
     1
290
     0
176
     1
290
     0
176
     1
 90
       50
176
     1
 40
0.0
176
     1
 40
1.0
176
     1
 90
        0
176
     1
 62
    18
420
        0
176
     1
 90
       50
176
     1
 90
        3
176
     1
 62
     5
420
      255
176
     1
290
     0
176
     1
 90
       50
176
     1
 90
       50
176
     1
 90
       50
176
     1
290
     0
176
     1
 90
       50
176
     1
 62
   256
176
     0
 40
1.0
176
     0
 90
        2
176
     1
  1
strokes_ogs.tif
176
     1
290
     0
176
     1
 40
1.0
176
     1
 40
1.0
176
     1
  0
VISUALSTYLE
  5
241
102
{ACAD_REACTORS
330
30
102
}
330
30
100
AcDbVisualStyle
  2
Brighten
 70
    12
177
     3
291
     1
 70
    58
 90
        2
176
     1
 90
        2
176
     1
 90
        0
176
     1
 90
        0
176
     1
 40
0.6
176
     1
 40
30.0
176
     1
 62
     7
420
 16777215
176
     1
 90
        1
176
     1
 90
        4
176
     1
 62
     7
176
     1
 62
   257
176
     1
 90
        1
176
     1
 90
        1
176
     1
 40
1.0
176
     1
 90
        8
176
     1
 62
     7
176
     1
 40
1.0
176
     1
 90
        1
176
     1
 90
        6
176
     1
 90
        2
176
     1
 62
     7
176
     1
 90
        5
176
     1
 90
        0
176
     1
 90
        0
176
     1
290
     0
176
     1
 90
        1
176
     1
 40
50.0
176
     1
 90
        0
176
     1
290
     0
176
     1
290
     1
176
     1
290
     1
176
     1
290
     0
176
     1
290
     0
176
     1
290
     0
176
     1
290
     0
176
     1
290
     0
176
     1
290
     0
176
     1
 90
       50
176
     1
 40
0.0
176
     1
 40
1.0
176
     1
 90
        0
176
     1
 62
    18
420
        0
176
     1
 90
       50
176
     1
 90
        3
176
     1
 62
     5
420
      255
176
     1
290
     0
176
     1
 90
       50
176
     1
 90
       50
176
     1
 90
       50
176
     1
290
     0
176
     1
 90
       50
176
     1
 62
   256
176
     0
 40
1.0
176
     0
 90
        2
176
     1
  1
strokes_ogs.tif
176
     1
290
     0
176
     1
 40
1.0
176
     1
 40
1.0
176
     1
  0
VISUALSTYLE
  5
245
102
{ACAD_REACTORS
330
30
102
}
330
30
100
AcDbVisualStyle
  2
ColorChange
 70
    16
177
     3
291
     1
 70
    58
 90
        2
176
     1
 90
        2
176
     1
 90
        3
176
     1
 90
        0
176
     1
 40
0.6
176
     1
 40
30.0
176
     1
 62
     8
420
  8421504
176
     1
 90
        1
176
     1
 90
        4
176
     1
 62
     7
176
     1
 62
   257
176
     1
 90
        1
176
     1
 90
        1
176
     1
 40
1.0
176
     1
 90
        8
176
     1
 62
     8
420
  8421504
176
     1
 40
1.0
176
     1
 90
        1
176
     1
 90
        6
176
     1
 90
        2
176
     1
 62
     7
176
     1
 90
        5
176
     1
 90
        0
176
     1
 90
        0
176
     1
290
     0
176
     1
 90
        1
176
     1
 40
0.0
176
     1
 90
        0
176
     1
290
     0
176
     1
290
     1
176
     1
290
     1
176
     1
290
     0
176
     1
290
     0
176
     1
290
     0
176
     1
290
     0
176
     1
290
     0
176
     1
290
     0
176
     1
 90
       50
176
     1
 40
0.0
176
     1
 40
1.0
176
     1
 90
        0
176
     1
 62
    18
420
        0
176
     1
 90
       50
176
     1
 90
        3
176
     1
 62
     5
420
      255
176
     1
290
     0
176
     1
 90
       50
176
     1
 90
       50
176
     1
 90
       50
176
     1
290
     0
176
     1
 90
       50
176
     1
 62
   256
176
     0
 40
1.0
176
     0
 90
        2
176
     1
  1
strokes_ogs.tif
176
     1
290
     0
176
     1
 40
1.0
176
     1
 40
1.0
176
     1
  0
VISUALSTYLE
  5
23F
102
{ACAD_REACTORS
330
30
102
}
330
30
100
AcDbVisualStyle
  2
Conceptual
 70
     9
177
     3
291
     0
 70
    58
 90
        3
176
     1
 90
        2
176
     1
 90
        0
176
     1
 90
        0
176
     1
 40
0.6
176
     1
 40
30.0
176
     1
 62
     7
420
 16777215
176
     1
 90
        2
176
     1
 90
        2
176
     1
 62
     7
176
     1
 62
   257
176
     1
 90
        1
176
     1
 90
        1
176
     1
 40
179.0
176
     1
 90
        8
176
     1
 62
     7
176
     1
 40
1.0
176
     1
 90
        1
176
     1
 90
        6
176
     1
 90
        2
176
     1
 62
     7
176
     1
 90
        3
176
     1
 90
        0
176
     1
 90
        0
176
     1
290
     0
176
     1
 90
        1
176
     1
 40
0.0
176
     1
 90
        0
176
     1
290
     0
176
     1
290
     1
176
     1
290
     1
176
     1
290
     0
176
     1
290
     0
176
     1
290
     0
176
     1
290
     0
176
     1
290
     0
176
     1
290
     0
176
     1
 90
       50
176
     1
 40
0.0
176
     1
 40
1.0
176
     1
 90
        0
176
     1
 62
    18
420
        0
176
     1
 90
       50
176
     1
 90
        3
176
     1
 62
     5
420
      255
176
     1
290
     0
176
     1
 90
       50
176
     1
 90
       50
176
     1
 90
       50
176
     1
290
     0
176
     1
 90
       50
176
     1
 62
   256
176
     0
 40
1.0
176
     0
 90
        2
176
     1
  1
strokes_ogs.tif
176
     1
290
     0
176
     1
 40
1.0
176
     1
 40
1.0
176
     1
  0
VISUALSTYLE
  5
240
102
{ACAD_REACTORS
330
30
102
}
330
30
100
AcDbVisualStyle
  2
Dim
 70
    11
177
     3
291
     1
 70
    58
 90
        2
176
     1
 90
        2
176
     1
 90
        0
176
     1
 90
        0
176
     1
 40
0.6
176
     1
 40
30.0
176
     1
 62
     7
420
 16777215
176
     1
 90
        1
176
     1
 90
        4
176
     1
 62
     7
176
     1
 62
   257
176
     1
 90
        1
176
     1
 90
        1
176
     1
 40
1.0
176
     1
 90
        8
176
     1
 62
     7
176
     1
 40
1.0
176
     1
 90
        1
176
     1
 90
        6
176
     1
 90
        2
176
     1
 62
     7
176
     1
 90
        5
176
     1
 90
        0
176
     1
 90
        0
176
     1
290
     0
176
     1
 90
        1
176
     1
 40
-50.0
176
     1
 90
        0
176
     1
290
     0
176
     1
290
     1
176
     1
290
     1
176
     1
290
     0
176
     1
290
     0
176
     1
290
     0
176
     1
290
     0
176
     1
290
     0
176
     1
290
     0
176
     1
 90
       50
176
     1
 40
0.0
176
     1
 40
1.0
176
     1
 90
        0
176
     1
 62
    18
420
        0
176
     1
 90
       50
176
     1
 90
        3
176
     1
 62
     5
420
      255
176
     1
290
     0
176
     1
 90
       50
176
     1
 90
       50
176
     1
 90
       50
176
     1
290
     0
176
     1
 90
       50
176
     1
 62
   256
176
     0
 40
1.0
176
     0
 90
        2
176
     1
  1
strokes_ogs.tif
176
     1
290
     0
176
     1
 40
1.0
176
     1
 40
1.0
176
     1
  0
VISUALSTYLE
  5
248
102
{ACAD_REACTORS
330
30
102
}
330
30
100
AcDbVisualStyle
  2
EdgeColorOff
 70
    22
177
     3
291
     1
 70
    58
 90
        2
176
     0
 90
        2
176
     0
 90
        0
176
     0
 90
        0
176
     0
 40
0.6
176
     0
 40
30.0
176
     0
 62
     7
420
 16777215
176
     0
 90
        1
176
     0
 90
        4
176
     0
 62
     7
176
     0
 62
   257
176
     0
 90
        1
176
     0
 90
        1
176
     0
 40
1.0
176
     0
 90
        8
176
     2
 62
     7
176
     0
 40
1.0
176
     0
 90
        1
176
     0
 90
        6
176
     0
 90
        2
176
     0
 62
     7
176
     0
 90
        5
176
     0
 90
        0
176
     0
 90
        0
176
     0
290
     0
176
     0
 90
        1
176
     0
 40
0.0
176
     0
 90
        0
176
     0
290
     0
176
     1
290
     1
176
     1
290
     1
176
     1
290
     0
176
     1
290
     0
176
     1
290
     0
176
     1
290
     0
176
     1
290
     0
176
     1
290
     0
176
     1
 90
       50
176
     1
 40
0.0
176
     1
 40
1.0
176
     1
 90
        0
176
     1
 62
    18
420
        0
176
     1
 90
       50
176
     1
 90
        3
176
     1
 62
     5
420
      255
176
     1
290
     0
176
     1
 90
       50
176
     1
 90
       50
176
     1
 90
       50
176
     1
290
     0
176
     1
 90
       50
176
     1
 62
   256
176
     0
 40
1.0
176
     0
 90
        2
176
     1
  1
strokes_ogs.tif
176
     1
290
     0
176
     1
 40
1.0
176
     1
 40
1.0
176
     1
  0
VISUALSTYLE
  5
244
102
{ACAD_REACTORS
330
30
102
}
330
30
100
AcDbVisualStyle
  2
Facepattern
 70
    15
177
     3
291
     1
 70
    58
 90
        2
176
     1
 90
        2
176
     1
 90
        0
176
     1
 90
        0
176
     1
 40
0.6
176
     1
 40
30.0
176
     1
 62
     7
420
 16777215
176
     1
 90
        1
176
     1
 90
        4
176
     1
 62
     7
176
     1
 62
   257
176
     1
 90
        1
176
     1
 90
        1
176
     1
 40
1.0
176
     1
 90
        8
176
     1
 62
     7
176
     1
 40
1.0
176
     1
 90
        1
176
     1
 90
        6
176
     1
 90
        2
176
     1
 62
     7
176
     1
 90
        5
176
     1
 90
        0
176
     1
 90
        0
176
     1
290
     0
176
     1
 90
        1
176
     1
 40
0.0
176
     1
 90
        0
176
     1
290
     0
176
     1
290
     1
176
     1
290
     1
176
     1
290
     0
176
     1
290
     0
176
     1
290
     0
176
     1
290
     0
176
     1
290
     0
176
     1
290
     0
176
     1
 90
       50
176
     1
 40
0.0
176
     1
 40
1.0
176
     1
 90
        0
176
     1
 62
    18
420
        0
176
     1
 90
       50
176
     1
 90
        3
176
     1
 62
     5
420
      255
176
     1
290
     0
176
     1
 90
       50
176
     1
 90
       50
176
     1
 90
       50
176
     1
290
     0
176
     1
 90
       50
176
     1
 62
   256
176
     0
 40
1.0
176
     0
 90
        2
176
     1
  1
strokes_ogs.tif
176
     1
290
     0
176
     1
 40
1.0
176
     1
 40
1.0
176
     1
  0
VISUALSTYLE
  5
239
102
{ACAD_REACTORS
330
30
102
}
330
30
100
AcDbVisualStyle
  2
Flat
 70
     0
177
     3
291
     1
 70
    58
 90
        2
176
     1
 90
        1
176
     1
 90
        1
176
     1
 90
        2
176
     1
 40
0.6
176
     1
 40
30.0
176
     1
 62
     7
420
 16777215
176
     1
 90
        0
176
     1
 90
        4
176
     1
 62
     7
176
     1
 62
   257
176
     1
 90
        1
176
     1
 90
        1
176
     1
 40
1.0
176
     1
 90
        8
176
     1
 62
     7
176
     1
 40
1.0
176
     1
 90
        1
176
     1
 90
        6
176
     1
 90
        2
176
     1
 62
     7
176
     1
 90
        5
176
     1
 90
        0
176
     1
 90
        0
176
     1
290
     0
176
     1
 90
       13
176
     1
 40
0.0
176
     1
 90
        0
176
     1
290
     0
176
     1
290
     1
176
     1
290
     1
176
     1
290
     0
176
     1
290
     0
176
     1
290
     0
176
     1
290
     0
176
     1
290
     0
176
     1
290
     0
176
     1
 90
       50
176
     1
 40
0.0
176
     1
 40
1.0
176
     1
 90
        0
176
     1
 62
    18
420
        0
176
     1
 90
       50
176
     1
 90
        3
176
     1
 62
     5
420
      255
176
     1
290
     0
176
     1
 90
       50
176
     1
 90
       50
176
     1
 90
       50
176
     1
290
     0
176
     1
 90
       50
176
     1
 62
   256
176
     0
 40
1.0
176
     0
 90
        2
176
     1
  1
strokes_ogs.tif
176
     1
290
     0
176
     1
 40
1.0
176
     1
 40
1.0
176
     1
  0
VISUALSTYLE
  5
23A
102
{ACAD_REACTORS
330
30
102
}
330
30
100
AcDbVisualStyle
  2
FlatWithEdges
 70
     1
177
     3
291
     1
 70
    58
 90
        2
176
     1
 90
        1
176
     1
 90
        1
176
     1
 90
        2
176
     1
 40
0.6
176
     1
 40
30.0
176
     1
 62
     7
420
 16777215
176
     1
 90
        1
176
     1
 90
        4
176
     1
 62
     7
176
     1
 62
   257
176
     1
 90
        1
176
     1
 90
        1
176
     1
 40
1.0
176
     1
 90
        0
176
     1
 62
   257
176
     1
 40
1.0
176
     1
 90
        1
176
     1
 90
        6
176
     1
 90
        2
176
     1
 62
     7
176
     1
 90
        5
176
     1
 90
        0
176
     1
 90
        0
176
     1
290
     0
176
     1
 90
       13
176
     1
 40
0.0
176
     1
 90
        0
176
     1
290
     0
176
     1
290
     1
176
     1
290
     1
176
     1
290
     0
176
     1
290
     0
176
     1
290
     0
176
     1
290
     0
176
     1
290
     0
176
     1
290
     0
176
     1
 90
       50
176
     1
 40
0.0
176
     1
 40
1.0
176
     1
 90
        0
176
     1
 62
    18
420
        0
176
     1
 90
       50
176
     1
 90
        3
176
     1
 62
     5
420
      255
176
     1
290
     0
176
     1
 90
       50
176
     1
 90
       50
176
     1
 90
       50
176
     1
290
     0
176
     1
 90
       50
176
     1
 62
   256
176
     0
 40
1.0
176
     0
 90
        2
176
     1
  1
strokes_ogs.tif
176
     1
290
     0
176
     1
 40
1.0
176
     1
 40
1.0
176
     1
  0
VISUALSTYLE
  5
23B
102
{ACAD_REACTORS
330
30
102
}
330
30
100
AcDbVisualStyle
  2
Gouraud
 70
     2
177
     3
291
     1
 70
    58
 90
        2
176
     1
 90
        2
176
     1
 90
        1
176
     1
 90
        2
176
     1
 40
0.6
176
     1
 40
30.0
176
     1
 62
     7
420
 16777215
176
     1
 90
        0
176
     1
 90
        4
176
     1
 62
     7
176
     1
 62
   257
176
     1
 90
        1
176
     1
 90
        1
176
     1
 40
1.0
176
     1
 90
        0
176
     1
 62
     7
176
     1
 40
1.0
176
     1
 90
        1
176
     1
 90
        6
176
     1
 90
        2
176
     1
 62
     7
176
     1
 90
        5
176
     1
 90
        0
176
     1
 90
        0
176
     1
290
     0
176
     1
 90
       13
176
     1
 40
0.0
176
     1
 90
        0
176
     1
290
     0
176
     1
290
     1
176
     1
290
     1
176
     1
290
     0
176
     1
290
     0
176
     1
290
     0
176
     1
290
     0
176
     1
290
     0
176
     1
290
     0
176
     1
 90
       50
176
     1
 40
0.0
176
     1
 40
1.0
176
     1
 90
        0
176
     1
 62
    18
420
        0
176
     1
 90
       50
176
     1
 90
        3
176
     1
 62
     5
420
      255
176
     1
290
     0
176
     1
 90
       50
176
     1
 90
       50
176
     1
 90
       50
176
     1
290
     0
176
     1
 90
       50
176
     1
 62
   256
176
     0
 40
1.0
176
     0
 90
        2
176
     1
  1
strokes_ogs.tif
176
     1
290
     0
176
     1
 40
1.0
176
     1
 40
1.0
176
     1
  0
VISUALSTYLE
  5
23C
102
{ACAD_REACTORS
330
30
102
}
330
30
100
AcDbVisualStyle
  2
GouraudWithEdges
 70
     3
177
     3
291
     1
 70
    58
 90
        2
176
     1
 90
        2
176
     1
 90
        1
176
     1
 90
        2
176
     1
 40
0.6
176
     1
 40
30.0
176
     1
 62
     7
420
 16777215
176
     1
 90
        1
176
     1
 90
        4
176
     1
 62
     7
176
     1
 62
   257
176
     1
 90
        1
176
     1
 90
        1
176
     1
 40
1.0
176
     1
 90
        0
176
     1
 62
   257
176
     1
 40
1.0
176
     1
 90
        1
176
     1
 90
        6
176
     1
 90
        2
176
     1
 62
     7
176
     1
 90
        5
176
     1
 90
        0
176
     1
 90
        0
176
     1
290
     0
176
     1
 90
       13
176
     1
 40
0.0
176
     1
 90
        0
176
     1
290
     0
176
     1
290
     1
176
     1
290
     1
176
     1
290
     0
176
     1
290
     0
176
     1
290
     0
176
     1
290
     0
176
     1
290
     0
176
     1
290
     0
176
     1
 90
       50
176
     1
 40
0.0
176
     1
 40
1.0
176
     1
 90
        0
176
     1
 62
    18
420
        0
176
     1
 90
       50
176
     1
 90
        3
176
     1
 62
     5
420
      255
176
     1
290
     0
176
     1
 90
       50
176
     1
 90
       50
176
     1
 90
       50
176
     1
290
     0
176
     1
 90
       50
176
     1
 62
   256
176
     0
 40
1.0
176
     0
 90
        2
176
     1
  1
strokes_ogs.tif
176
     1
290
     0
176
     1
 40
1.0
176
     1
 40
1.0
176
     1
  0
VISUALSTYLE
  5
D7F
102
{ACAD_REACTORS
330
30
102
}
330
30
100
AcDbVisualStyle
  2
Hidden
 70
     6
177
     3
291
     0
 70
    58
 90
        1
176
     1
 90
        2
176
     1
 90
        2
176
     1
 90
        0
176
     1
 40
0.6
176
     1
 40
30.0
176
     1
 62
     7
420
 16777215
176
     1
 90
        2
176
     1
 90
        2
176
     1
 62
     7
176
     1
 62
   257
176
     1
 90
        2
176
     1
 90
        1
176
     1
 40
40.0
176
     1
 90
        0
176
     1
 62
   257
176
     1
 40
1.0
176
     1
 90
        1
176
     1
 90
        6
176
     1
 90
        2
176
     1
 62
     7
176
     1
 90
        3
176
     1
 90
        0
176
     1
 90
        0
176
     1
290
     0
176
     1
 90
        1
176
     1
 40
0.0
176
     1
 90
        0
176
     1
290
     0
176
     1
290
     1
176
     1
290
     1
176
     1
290
     0
176
     1
290
     0
176
     1
290
     0
176
     1
290
     0
176
     1
290
     0
176
     1
290
     0
176
     1
 90
       50
176
     1
 40
0.0
176
     1
 40
1.0
176
     1
 90
        0
176
     1
 62
    18
420
        0
176
     1
 90
       50
176
     1
 90
        3
176
     1
 62
     5
420
      255
176
     1
290
     0
176
     1
 90
       50
176
     1
 90
       50
176
     1
 90
       50
176
     1
290
     0
176
     1
 90
       50
176
     1
 62
   256
176
     0
 40
1.0
176
     0
 90
        2
176
     1
  1
strokes_ogs.tif
176
     1
290
     0
176
     1
 40
1.0
176
     1
 40
1.0
176
     1
  0
VISUALSTYLE
  5
246
102
{ACAD_REACTORS
330
30
102
}
330
30
100
AcDbVisualStyle
  2
JitterOff
 70
    20
177
     3
291
     1
 70
    58
 90
        2
176
     0
 90
        2
176
     0
 90
        0
176
     0
 90
        0
176
     0
 40
0.6
176
     0
 40
30.0
176
     0
 62
     7
420
 16777215
176
     0
 90
        1
176
     0
 90
        4
176
     0
 62
     7
176
     0
 62
   257
176
     0
 90
        1
176
     0
 90
        1
176
     0
 40
1.0
176
     0
 90
       10
176
     2
 62
     7
176
     0
 40
1.0
176
     0
 90
        1
176
     0
 90
        6
176
     0
 90
        2
176
     0
 62
     7
176
     0
 90
        5
176
     0
 90
        0
176
     0
 90
        0
176
     0
290
     0
176
     0
 90
        1
176
     0
 40
0.0
176
     0
 90
        0
176
     0
290
     0
176
     1
290
     1
176
     1
290
     1
176
     1
290
     0
176
     1
290
     0
176
     1
290
     0
176
     1
290
     0
176
     1
290
     0
176
     1
290
     0
176
     1
 90
       50
176
     1
 40
0.0
176
     1
 40
1.0
176
     1
 90
        0
176
     1
 62
    18
420
        0
176
     1
 90
       50
176
     1
 90
        3
176
     1
 62
     5
420
      255
176
     1
290
     0
176
     1
 90
       50
176
     1
 90
       50
176
     1
 90
       50
176
     1
290
     0
176
     1
 90
       50
176
     1
 62
   256
176
     0
 40
1.0
176
     0
 90
        2
176
     1
  1
strokes_ogs.tif
176
     1
290
     0
176
     1
 40
1.0
176
     1
 40
1.0
176
     1
  0
VISUALSTYLE
  5
243
102
{ACAD_REACTORS
330
30
102
}
330
30
100
AcDbVisualStyle
  2
Linepattern
 70
    14
177
     3
291
     1
 70
    58
 90
        2
176
     1
 90
        2
176
     1
 90
        0
176
     1
 90
        0
176
     1
 40
0.6
176
     1
 40
30.0
176
     1
 62
     7
420
 16777215
176
     1
 90
        1
176
     1
 90
        4
176
     1
 62
     7
176
     1
 62
   257
176
     1
 90
        7
176
     1
 90
        7
176
     1
 40
1.0
176
     1
 90
        8
176
     1
 62
     7
176
     1
 40
1.0
176
     1
 90
        1
176
     1
 90
        6
176
     1
 90
        2
176
     1
 62
     7
176
     1
 90
        5
176
     1
 90
        0
176
     1
 90
        0
176
     1
290
     0
176
     1
 90
        1
176
     1
 40
0.0
176
     1
 90
        0
176
     1
290
     0
176
     1
290
     1
176
     1
290
     1
176
     1
290
     0
176
     1
290
     0
176
     1
290
     0
176
     1
290
     0
176
     1
290
     0
176
     1
290
     0
176
     1
 90
       50
176
     1
 40
0.0
176
     1
 40
1.0
176
     1
 90
        0
176
     1
 62
    18
420
        0
176
     1
 90
       50
176
     1
 90
        3
176
     1
 62
     5
420
      255
176
     1
290
     0
176
     1
 90
       50
176
     1
 90
       50
176
     1
 90
       50
176
     1
290
     0
176
     1
 90
       50
176
     1
 62
   256
176
     0
 40
1.0
176
     0
 90
        2
176
     1
  1
strokes_ogs.tif
176
     1
290
     0
176
     1
 40
1.0
176
     1
 40
1.0
176
     1
  0
VISUALSTYLE
  5
247
102
{ACAD_REACTORS
330
30
102
}
330
30
100
AcDbVisualStyle
  2
OverhangOff
 70
    21
177
     3
291
     1
 70
    58
 90
        2
176
     0
 90
        2
176
     0
 90
        0
176
     0
 90
        0
176
     0
 40
0.6
176
     0
 40
30.0
176
     0
 62
     7
420
 16777215
176
     0
 90
        1
176
     0
 90
        4
176
     0
 62
     7
176
     0
 62
   257
176
     0
 90
        1
176
     0
 90
        1
176
     0
 40
1.0
176
     0
 90
        9
176
     2
 62
     7
176
     0
 40
1.0
176
     0
 90
        1
176
     0
 90
        6
176
     0
 90
        2
176
     0
 62
     7
176
     0
 90
        5
176
     0
 90
        0
176
     0
 90
        0
176
     0
290
     0
176
     0
 90
        1
176
     0
 40
0.0
176
     0
 90
        0
176
     0
290
     0
176
     1
290
     1
176
     1
290
     1
176
     1
290
     0
176
     1
290
     0
176
     1
290
     0
176
     1
290
     0
176
     1
290
     0
176
     1
290
     0
176
     1
 90
       50
176
     1
 40
0.0
176
     1
 40
1.0
176
     1
 90
        0
176
     1
 62
    18
420
        0
176
     1
 90
       50
176
     1
 90
        3
176
     1
 62
     5
420
      255
176
     1
290
     0
176
     1
 90
       50
176
     1
 90
       50
176
     1
 90
       50
176
     1
290
     0
176
     1
 90
       50
176
     1
 62
   256
176
     0
 40
1.0
176
     0
 90
        2
176
     1
  1
strokes_ogs.tif
176
     1
290
     0
176
     1
 40
1.0
176
     1
 40
1.0
176
     1
  0
VISUALSTYLE
  5
52
102
{ACAD_REACTORS
330
30
102
}
330
30
100
AcDbVisualStyle
  2
Realistic
 70
     8
177
     3
291
     0
 70
    58
 90
        2
176
     1
 90
        2
176
     1
 90
        0
176
     1
 90
        0
176
     1
 40
0.6
176
     1
 40
30.0
176
     1
 62
     7
176
     1
 90
        1
176
     1
 90
        0
176
     1
 62
     7
176
     1
 62
   257
176
     1
 90
        1
176
     1
 90
        1
176
     1
 40
1.0
176
     1
 90
        8
176
     1
 62
     8
176
     1
 40
1.0
176
     1
 90
        1
176
     1
 90
        6
176
     1
 90
        2
176
     1
 62
     7
176
     1
 90
        5
176
     1
 90
        0
176
     1
 90
        0
176
     1
290
     0
176
     1
 90
       13
176
     1
 40
0.0
176
     1
 90
        0
176
     1
290
     0
176
     1
290
     1
176
     1
290
     1
176
     1
290
     0
176
     1
290
     0
176
     1
290
     0
176
     1
290
     0
176
     1
290
     0
176
     1
290
     0
176
     1
 90
       50
176
     1
 40
0.0
176
     1
 40
1.0
176
     1
 90
        0
176
     1
 62
    18
420
        0
176
     1
 90
       50
176
     1
 90
        3
176
     1
 62
     5
420
      255
176
     1
290
     0
176
     1
 90
       50
176
     1
 90
       50
176
     1
 90
       50
176
     1
290
     0
176
     1
 90
       50
176
     1
 62
   256
176
     0
 40
1.0
176
     0
 90
        2
176
     1
  1
strokes_ogs.tif
176
     1
290
     0
176
     1
 40
1.0
176
     1
 40
1.0
176
     1
  0
VISUALSTYLE
  5
D84
102
{ACAD_REACTORS
330
30
102
}
330
30
100
AcDbVisualStyle
  2
Shaded
 70
    27
177
     3
291
     0
 70
    58
 90
        2
176
     1
 90
        2
176
     1
 90
        1
176
     1
 90
        2
176
     1
 40
0.6
176
     1
 40
30.0
176
     1
 62
     7
420
 16777215
176
     1
 90
        0
176
     1
 90
        4
176
     1
 62
     7
176
     1
 62
   257
176
     1
 90
        1
176
     1
 90
        1
176
     1
 40
1.0
176
     1
 90
        8
176
     1
 62
   257
176
     1
 40
1.0
176
     1
 90
        1
176
     1
 90
        6
176
     1
 90
        2
176
     1
 62
     8
420
  7895160
176
     1
 90
        3
176
     1
 90
        0
176
     1
 90
        0
176
     1
290
     0
176
     1
 90
        5
176
     1
 40
0.0
176
     1
 90
        0
176
     1
290
     0
176
     1
290
     1
176
     1
290
     1
176
     1
290
     0
176
     1
290
     0
176
     1
290
     0
176
     1
290
     0
176
     1
290
     0
176
     1
290
     0
176
     1
 90
       50
176
     1
 40
0.0
176
     1
 40
1.0
176
     1
 90
        0
176
     1
 62
    18
420
        0
176
     1
 90
       50
176
     1
 90
        3
176
     1
 62
     5
420
      255
176
     1
290
     0
176
     1
 90
       50
176
     1
 90
       50
176
     1
 90
       50
176
     1
290
     0
176
     1
 90
       50
176
     1
 62
   256
176
     0
 40
1.0
176
     0
 90
        2
176
     1
  1
strokes_ogs.tif
176
     1
290
     0
176
     1
 40
1.0
176
     1
 40
1.0
176
     1
  0
VISUALSTYLE
  5
D83
102
{ACAD_REACTORS
330
30
102
}
330
30
100
AcDbVisualStyle
  2
Shaded with edges
 70
    26
177
     3
291
     0
 70
    58
 90
        2
176
     1
 90
        2
176
     1
 90
        1
176
     1
 90
        2
176
     1
 40
0.6
176
     1
 40
30.0
176
     1
 62
     7
420
 16777215
176
     1
 90
        1
176
     1
 90
        2
176
     1
 62
     7
176
     1
 62
   257
176
     1
 90
        2
176
     1
 90
        1
176
     1
 40
1.0
176
     1
 90
        8
176
     1
 62
   257
176
     1
 40
1.0
176
     1
 90
        1
176
     1
 90
        6
176
     1
 90
        2
176
     1
 62
     7
176
     1
 90
        3
176
     1
 90
        0
176
     1
 90
        0
176
     1
290
     0
176
     1
 90
        5
176
     1
 40
0.0
176
     1
 90
        0
176
     1
290
     0
176
     1
290
     1
176
     1
290
     1
176
     1
290
     0
176
     1
290
     0
176
     1
290
     0
176
     1
290
     0
176
     1
290
     0
176
     1
290
     0
176
     1
 90
       50
176
     1
 40
0.0
176
     1
 40
1.0
176
     1
 90
        0
176
     1
 62
    18
420
        0
176
     1
 90
       50
176
     1
 90
        3
176
     1
 62
     5
420
      255
176
     1
290
     0
176
     1
 90
       50
176
     1
 90
       50
176
     1
 90
       50
176
     1
290
     0
176
     1
 90
       50
176
     1
 62
   256
176
     0
 40
1.0
176
     0
 90
        2
176
     1
  1
strokes_ogs.tif
176
     1
290
     0
176
     1
 40
1.0
176
     1
 40
1.0
176
     1
  0
VISUALSTYLE
  5
D80
102
{ACAD_REACTORS
330
30
102
}
330
30
100
AcDbVisualStyle
  2
Shades of Gray
 70
    23
177
     3
291
     0
 70
    58
 90
        2
176
     1
 90
        2
176
     1
 90
        3
176
     1
 90
        0
176
     1
 40
0.6
176
     1
 40
30.0
176
     1
 62
     7
420
 16777215
176
     1
 90
        2
176
     1
 90
        2
176
     1
 62
     7
176
     1
 62
     7
176
     1
 90
        1
176
     1
 90
        1
176
     1
 40
40.0
176
     1
 90
        8
176
     1
 62
     7
176
     1
 40
1.0
176
     1
 90
        1
176
     1
 90
        6
176
     1
 90
        2
176
     1
 62
     7
176
     1
 90
        3
176
     1
 90
        0
176
     1
 90
        0
176
     1
290
     0
176
     1
 90
        1
176
     1
 40
0.0
176
     1
 90
        0
176
     1
290
     0
176
     1
290
     1
176
     1
290
     1
176
     1
290
     0
176
     1
290
     0
176
     1
290
     0
176
     1
290
     0
176
     1
290
     0
176
     1
290
     0
176
     1
 90
       50
176
     1
 40
0.0
176
     1
 40
1.0
176
     1
 90
        0
176
     1
 62
    18
420
        0
176
     1
 90
       50
176
     1
 90
        3
176
     1
 62
     5
420
      255
176
     1
290
     0
176
     1
 90
       50
176
     1
 90
       50
176
     1
 90
       50
176
     1
290
     0
176
     1
 90
       50
176
     1
 62
   256
176
     0
 40
1.0
176
     0
 90
        2
176
     1
  1
strokes_ogs.tif
176
     1
290
     0
176
     1
 40
1.0
176
     1
 40
1.0
176
     1
  0
VISUALSTYLE
  5
D81
102
{ACAD_REACTORS
330
30
102
}
330
30
100
AcDbVisualStyle
  2
Sketchy
 70
    24
177
     3
291
     0
 70
    58
 90
        1
176
     1
 90
        2
176
     1
 90
        2
176
     1
 90
        0
176
     1
 40
0.6
176
     1
 40
30.0
176
     1
 62
     7
420
 16777215
176
     1
 90
        2
176
     1
 90
        2
176
     1
 62
     7
176
     1
 62
     7
176
     1
 90
        1
176
     1
 90
        1
176
     1
 40
40.0
176
     1
 90
       11
176
     1
 62
     7
176
     1
 40
1.0
176
     1
 90
        1
176
     1
 90
        6
176
     1
 90
        2
176
     1
 62
     7
176
     1
 90
        6
176
     1
 90
        0
176
     1
 90
        0
176
     1
290
     0
176
     1
 90
        1
176
     1
 40
0.0
176
     1
 90
        0
176
     1
290
     0
176
     1
290
     1
176
     1
290
     1
176
     1
290
     0
176
     1
290
     0
176
     1
290
     0
176
     1
290
     0
176
     1
290
     0
176
     1
290
     0
176
     1
 90
       50
176
     1
 40
0.0
176
     1
 40
1.0
176
     1
 90
        0
176
     1
 62
    18
420
        0
176
     1
 90
       50
176
     1
 90
        3
176
     1
 62
     5
420
      255
176
     1
290
     0
176
     1
 90
       50
176
     1
 90
       50
176
     1
 90
       50
176
     1
290
     0
176
     1
 90
       50
176
     1
 62
   256
176
     0
 40
1.0
176
     0
 90
        2
176
     1
  1
strokes_ogs.tif
176
     1
290
     0
176
     1
 40
1.0
176
     1
 40
1.0
176
     1
  0
VISUALSTYLE
  5
242
102
{ACAD_REACTORS
330
30
102
}
330
30
100
AcDbVisualStyle
  2
Thicken
 70
    13
177
     3
291
     1
 70
    58
 90
        2
176
     1
 90
        2
176
     1
 90
        0
176
     1
 90
        0
176
     1
 40
0.6
176
     1
 40
30.0
176
     1
 62
     7
420
 16777215
176
     1
 90
        1
176
     1
 90
        4
176
     1
 62
     7
176
     1
 62
   257
176
     1
 90
        1
176
     1
 90
        1
176
     1
 40
1.0
176
     1
 90
       12
176
     1
 62
     7
176
     1
 40
1.0
176
     1
 90
        1
176
     1
 90
        6
176
     1
 90
        2
176
     1
 62
     7
176
     1
 90
        5
176
     1
 90
        0
176
     1
 90
        0
176
     1
290
     0
176
     1
 90
        1
176
     1
 40
0.0
176
     1
 90
        0
176
     1
290
     0
176
     1
290
     1
176
     1
290
     1
176
     1
290
     0
176
     1
290
     0
176
     1
290
     0
176
     1
290
     0
176
     1
290
     0
176
     1
290
     0
176
     1
 90
       50
176
     1
 40
0.0
176
     1
 40
1.0
176
     1
 90
        0
176
     1
 62
    18
420
        0
176
     1
 90
       50
176
     1
 90
        3
176
     1
 62
     5
420
      255
176
     1
290
     0
176
     1
 90
       50
176
     1
 90
       50
176
     1
 90
       50
176
     1
290
     0
176
     1
 90
       50
176
     1
 62
   256
176
     0
 40
1.0
176
     0
 90
        2
176
     1
  1
strokes_ogs.tif
176
     1
290
     0
176
     1
 40
1.0
176
     1
 40
1.0
176
     1
  0
VISUALSTYLE
  5
D7E
102
{ACAD_REACTORS
330
30
102
}
330
30
100
AcDbVisualStyle
  2
Wireframe
 70
     5
177
     3
291
     0
 70
    58
 90
        0
176
     1
 90
        2
176
     1
 90
        0
176
     1
 90
        0
176
     1
 40
0.6
176
     1
 40
30.0
176
     1
 62
     7
420
 16777215
176
     1
 90
        1
176
     1
 90
        4
176
     1
 62
     7
176
     1
 62
   257
176
     1
 90
        1
176
     1
 90
        1
176
     1
 40
1.0
176
     1
 90
        0
176
     1
 62
   257
176
     1
 40
1.0
176
     1
 90
        1
176
     1
 90
        6
176
     1
 90
        2
176
     1
 62
     7
176
     1
 90
        3
176
     1
 90
        0
176
     1
 90
        0
176
     1
290
     0
176
     1
 90
        1
176
     1
 40
0.0
176
     1
 90
        0
176
     1
290
     0
176
     1
290
     1
176
     1
290
     1
176
     1
290
     0
176
     1
290
     0
176
     1
290
     0
176
     1
290
     0
176
     1
290
     0
176
     1
290
     0
176
     1
 90
       50
176
     1
 40
0.0
176
     1
 40
1.0
176
     1
 90
        0
176
     1
 62
    18
420
        0
176
     1
 90
       50
176
     1
 90
        3
176
     1
 62
     5
420
      255
176
     1
290
     0
176
     1
 90
       50
176
     1
 90
       50
176
     1
 90
       50
176
     1
290
     0
176
     1
 90
       50
176
     1
 62
   256
176
     0
 40
1.0
176
     0
 90
        2
176
     1
  1
strokes_ogs.tif
176
     1
290
     0
176
     1
 40
1.0
176
     1
 40
1.0
176
     1
  0
VISUALSTYLE
  5
D82
102
{ACAD_REACTORS
330
30
102
}
330
30
100
AcDbVisualStyle
  2
X-Ray
 70
    25
177
     3
291
     0
 70
    58
 90
        2
176
     1
 90
        2
176
     1
 90
        1
176
     1
 90
        1
176
     1
 40
0.5
176
     1
 40
30.0
176
     1
 62
     7
420
 16777215
176
     1
 90
        1
176
     1
 90
        0
176
     1
 62
     7
176
     1
 62
   257
176
     1
 90
        1
176
     1
 90
        1
176
     1
 40
1.0
176
     1
 90
        8
176
     1
 62
     7
176
     1
 40
1.0
176
     1
 90
        1
176
     1
 90
        6
176
     1
 90
        2
176
     1
 62
     7
176
     1
 90
        3
176
     1
 90
        0
176
     1
 90
        0
176
     1
290
     0
176
     1
 90
       13
176
     1
 40
0.0
176
     1
 90
        0
176
     1
290
     0
176
     1
290
     1
176
     1
290
     1
176
     1
290
     0
176
     1
290
     0
176
     1
290
     0
176
     1
290
     0
176
     1
290
     0
176
     1
290
     0
176
     1
 90
       50
176
     1
 40
0.0
176
     1
 40
1.0
176
     1
 90
        0
176
     1
 62
    18
420
        0
176
     1
 90
       50
176
     1
 90
        3
176
     1
 62
     5
420
      255
176
     1
290
     0
176
     1
 90
       50
176
     1
 90
       50
176
     1
 90
       50
176
     1
290
     0
176
     1
 90
       50
176
     1
 62
   256
176
     0
 40
1.0
176
     0
 90
        2
176
     1
  1
strokes_ogs.tif
176
     1
290
     0
176
     1
 40
1.0
176
     1
 40
1.0
176
     1
  0
DICTIONARYVAR
  5
234
102
{ACAD_REACTORS
330
231
102
}
330
231
100
DictionaryVariables
280
     0
  1
1:1
  0
DICTIONARYVAR
  5
233
102
{ACAD_REACTORS
330
231
102
}
330
231
100
DictionaryVariables
280
     0
  1
STANDARD
  0
DICTIONARYVAR
  5
232
102
{ACAD_REACTORS
330
231
102
}
330
231
100
DictionaryVariables
280
     0
  1
STANDARD
  0
DICTIONARYVAR
  5
E9A
102
{ACAD_REACTORS
330
231
102
}
330
231
100
DictionaryVariables
280
     0
  1
Imperial24
  0
DICTIONARYVAR
  5
E9B
102
{ACAD_REACTORS
330
231
102
}
330
231
100
DictionaryVariables
280
     0
  1
Imperial24
  0
DICTIONARYVAR
  5
236
102
{ACAD_REACTORS
330
231
102
}
330
231
100
DictionaryVariables
280
     0
  1
1
  0
DICTIONARYVAR
  5
237
102
{ACAD_REACTORS
330
231
102
}
330
231
100
DictionaryVariables
280
     0
  1
15
  0
DICTIONARYVAR
  5
235
102
{ACAD_REACTORS
330
231
102
}
330
231
100
DictionaryVariables
280
     0
  1
0
  0
DICTIONARYVAR
  5
CD9
102
{ACAD_REACTORS
330
231
102
}
330
231
100
DictionaryVariables
280
     0
  1
1
  0
DICTIONARY
  5
871
330
17
100
AcDbDictionary
280
     1
281
     1
  0
DICTIONARY
  5
42
330
41
100
AcDbDictionary
280
     1
281
     1
  3
BUMPTILE
360
43
  3
DIFFUSETILE
360
44
  3
OPACITYTILE
360
45
  3
REFLECTIONTILE
360
46
  3
REFRACTIONTILE
360
47
  3
SPECULARTILE
360
48
  0
DICTIONARY
  5
3A
330
39
100
AcDbDictionary
280
     1
281
     1
  3
BUMPTILE
360
3B
  3
DIFFUSETILE
360
3C
  3
OPACITYTILE
360
3D
  3
REFLECTIONTILE
360
3E
  3
REFRACTIONTILE
360
3F
  3
SPECULARTILE
360
40
  0
DICTIONARY
  5
E
330
C
100
AcDbDictionary
280
     1
281
     1
  3
BUMPTILE
360
F
  3
DIFFUSETILE
360
10
  3
OPACITYTILE
360
11
  3
REFLECTIONTILE
360
12
  3
REFRACTIONTILE
360
13
  3
SPECULARTILE
360
14
  0
DICTIONARY
  5
E67
330
E66
100
AcDbDictionary
280
     1
281
     1
  3
ACAD_ROUNDTRIP_2008_TABLESTYLE_CELLSTYLEMAP
360
E9D
  0
DICTIONARY
  5
51
330
50
100
AcDbDictionary
280
     1
281
     1
  3
ACAD_ROUNDTRIP_2008_TABLESTYLE_CELLSTYLEMAP
360
E9C
  0
XRECORD
  5
43
102
{ACAD_REACTORS
330
42
102
}
330
42
100
AcDbXrecord
280
     1
270
     1
271
     1
  0
XRECORD
  5
44
102
{ACAD_REACTORS
330
42
102
}
330
42
100
AcDbXrecord
280
     1
270
     1
271
     1
  0
XRECORD
  5
45
102
{ACAD_REACTORS
330
42
102
}
330
42
100
AcDbXrecord
280
     1
270
     1
271
     1
  0
XRECORD
  5
46
102
{ACAD_REACTORS
330
42
102
}
330
42
100
AcDbXrecord
280
     1
270
     1
271
     1
  0
XRECORD
  5
47
102
{ACAD_REACTORS
330
42
102
}
330
42
100
AcDbXrecord
280
     1
270
     1
271
     1
  0
XRECORD
  5
48
102
{ACAD_REACTORS
330
42
102
}
330
42
100
AcDbXrecord
280
     1
270
     1
271
     1
  0
XRECORD
  5
3B
102
{ACAD_REACTORS
330
3A
102
}
330
3A
100
AcDbXrecord
280
     1
270
     1
271
     1
  0
XRECORD
  5
3C
102
{ACAD_REACTORS
330
3A
102
}
330
3A
100
AcDbXrecord
280
     1
270
     1
271
     1
  0
XRECORD
  5
3D
102
{ACAD_REACTORS
330
3A
102
}
330
3A
100
AcDbXrecord
280
     1
270
     1
271
     1
  0
XRECORD
  5
3E
102
{ACAD_REACTORS
330
3A
102
}
330
3A
100
AcDbXrecord
280
     1
270
     1
271
     1
  0
XRECORD
  5
3F
102
{ACAD_REACTORS
330
3A
102
}
330
3A
100
AcDbXrecord
280
     1
270
     1
271
     1
  0
XRECORD
  5
40
102
{ACAD_REACTORS
330
3A
102
}
330
3A
100
AcDbXrecord
280
     1
270
     1
271
     1
  0
XRECORD
  5
F
102
{ACAD_REACTORS
330
E
102
}
330
E
100
AcDbXrecord
280
     1
270
     1
271
     1
  0
XRECORD
  5
10
102
{ACAD_REACTORS
330
E
102
}
330
E
100
AcDbXrecord
280
     1
270
     1
271
     1
  0
XRECORD
  5
11
102
{ACAD_REACTORS
330
E
102
}
330
E
100
AcDbXrecord
280
     1
270
     1
271
     1
  0
XRECORD
  5
12
102
{ACAD_REACTORS
330
E
102
}
330
E
100
AcDbXrecord
280
     1
270
     1
271
     1
  0
XRECORD
  5
13
102
{ACAD_REACTORS
330
E
102
}
330
E
100
AcDbXrecord
280
     1
270
     1
271
     1
  0
XRECORD
  5
14
102
{ACAD_REACTORS
330
E
102
}
330
E
100
AcDbXrecord
280
     1
270
     1
271
     1
  0
CELLSTYLEMAP
  5
E9D
102
{ACAD_REACTORS
330
E67
102
}
330
E67
100
AcDbCellStyleMap
 90
        3
300
CELLSTYLE
  1
TABLEFORMAT_BEGIN
 90
        5
170
     1
 91
        0
 92
    32768
 62
   257
 93
        1
300
CONTENTFORMAT
  1
CONTENTFORMAT_BEGIN
 90
        0
 91
        0
 92
        4
 93
        0
300

 40
0.0
140
1.0
 94
        5
 62
     0
340
26
144
6.0
309
CONTENTFORMAT_END
171
     1
301
MARGIN
  1
CELLMARGIN_BEGIN
 40
0.5
 40
0.5
 40
0.5
 40
0.5
 40
0.18
 40
0.18
309
CELLMARGIN_END
 94
        6
 95
        1
302
GRIDFORMAT
  1
GRIDFORMAT_BEGIN
 90
        0
 91
        1
 62
     0
 92
       -2
340
0
 93
        0
 40
0.045
309
GRIDFORMAT_END
 95
        2
302
GRIDFORMAT
  1
GRIDFORMAT_BEGIN
 90
        0
 91
        1
 62
     0
 92
       -2
340
0
 93
        0
 40
0.045
309
GRIDFORMAT_END
 95
        4
302
GRIDFORMAT
  1
GRIDFORMAT_BEGIN
 90
        0
 91
        1
 62
     0
 92
       -2
340
0
 93
        0
 40
0.045
309
GRIDFORMAT_END
 95
        8
302
GRIDFORMAT
  1
GRIDFORMAT_BEGIN
 90
        0
 91
        1
 62
     0
 92
       -2
340
0
 93
        0
 40
0.045
309
GRIDFORMAT_END
 95
       16
302
GRIDFORMAT
  1
GRIDFORMAT_BEGIN
 90
        0
 91
        1
 62
     0
 92
       -2
340
0
 93
        0
 40
0.045
309
GRIDFORMAT_END
 95
       32
302
GRIDFORMAT
  1
GRIDFORMAT_BEGIN
 90
        0
 91
        1
 62
     0
 92
       -2
340
0
 93
        0
 40
0.045
309
GRIDFORMAT_END
309
TABLEFORMAT_END
  1
CELLSTYLE_BEGIN
 90
        1
 91
        1
300
_TITLE
309
CELLSTYLE_END
300
CELLSTYLE
  1
TABLEFORMAT_BEGIN
 90
        5
170
     1
 91
        0
 92
        0
 62
   257
 93
        1
300
CONTENTFORMAT
  1
CONTENTFORMAT_BEGIN
 90
        0
 91
        0
 92
        4
 93
        0
300

 40
0.0
140
1.0
 94
        5
 62
     0
340
26
144
4.5
309
CONTENTFORMAT_END
171
     1
301
MARGIN
  1
CELLMARGIN_BEGIN
 40
0.5
 40
0.5
 40
0.5
 40
0.5
 40
0.18
 40
0.18
309
CELLMARGIN_END
 94
        6
 95
        1
302
GRIDFORMAT
  1
GRIDFORMAT_BEGIN
 90
        0
 91
        1
 62
     0
 92
       -2
340
0
 93
        0
 40
0.045
309
GRIDFORMAT_END
 95
        2
302
GRIDFORMAT
  1
GRIDFORMAT_BEGIN
 90
        0
 91
        1
 62
     0
 92
       -2
340
0
 93
        0
 40
0.045
309
GRIDFORMAT_END
 95
        4
302
GRIDFORMAT
  1
GRIDFORMAT_BEGIN
 90
        0
 91
        1
 62
     0
 92
       -2
340
0
 93
        0
 40
0.045
309
GRIDFORMAT_END
 95
        8
302
GRIDFORMAT
  1
GRIDFORMAT_BEGIN
 90
        0
 91
        1
 62
     0
 92
       -2
340
0
 93
        0
 40
0.045
309
GRIDFORMAT_END
 95
       16
302
GRIDFORMAT
  1
GRIDFORMAT_BEGIN
 90
        0
 91
        1
 62
     0
 92
       -2
340
0
 93
        0
 40
0.045
309
GRIDFORMAT_END
 95
       32
302
GRIDFORMAT
  1
GRIDFORMAT_BEGIN
 90
        0
 91
        1
 62
     0
 92
       -2
340
0
 93
        0
 40
0.045
309
GRIDFORMAT_END
309
TABLEFORMAT_END
  1
CELLSTYLE_BEGIN
 90
        2
 91
        1
300
_HEADER
309
CELLSTYLE_END
300
CELLSTYLE
  1
TABLEFORMAT_BEGIN
 90
        5
170
     1
 91
        0
 92
        0
 62
   257
 93
        1
300
CONTENTFORMAT
  1
CONTENTFORMAT_BEGIN
 90
        0
 91
        0
 92
        4
 93
        0
300

 40
0.0
140
1.0
 94
        5
 62
     6
340
E43
144
2.0
309
CONTENTFORMAT_END
171
     1
301
MARGIN
  1
CELLMARGIN_BEGIN
 40
0.5
 40
0.5
 40
0.5
 40
0.5
 40
0.18
 40
0.18
309
CELLMARGIN_END
 94
        6
 95
        1
302
GRIDFORMAT
  1
GRIDFORMAT_BEGIN
 90
        0
 91
        1
 62
     0
 92
       -2
340
0
 93
        0
 40
0.045
309
GRIDFORMAT_END
 95
        2
302
GRIDFORMAT
  1
GRIDFORMAT_BEGIN
 90
        0
 91
        1
 62
     0
 92
       -2
340
0
 93
        0
 40
0.045
309
GRIDFORMAT_END
 95
        4
302
GRIDFORMAT
  1
GRIDFORMAT_BEGIN
 90
        0
 91
        1
 62
     0
 92
       -2
340
0
 93
        0
 40
0.045
309
GRIDFORMAT_END
 95
        8
302
GRIDFORMAT
  1
GRIDFORMAT_BEGIN
 90
        0
 91
        1
 62
     0
 92
       -2
340
0
 93
        0
 40
0.045
309
GRIDFORMAT_END
 95
       16
302
GRIDFORMAT
  1
GRIDFORMAT_BEGIN
 90
        0
 91
        1
 62
     0
 92
       -2
340
0
 93
        0
 40
0.045
309
GRIDFORMAT_END
 95
       32
302
GRIDFORMAT
  1
GRIDFORMAT_BEGIN
 90
        0
 91
        1
 62
     0
 92
       -2
340
0
 93
        0
 40
0.045
309
GRIDFORMAT_END
309
TABLEFORMAT_END
  1
CELLSTYLE_BEGIN
 90
        3
 91
        2
300
_DATA
309
CELLSTYLE_END
  0
CELLSTYLEMAP
  5
E9C
102
{ACAD_REACTORS
330
51
102
}
330
51
100
AcDbCellStyleMap
 90
        3
300
CELLSTYLE
  1
TABLEFORMAT_BEGIN
 90
        5
170
     1
 91
        0
 92
    32768
 62
   257
 93
        1
300
CONTENTFORMAT
  1
CONTENTFORMAT_BEGIN
 90
        0
 91
        0
 92
      512
 93
        0
300

 40
0.0
140
1.0
 94
        5
 62
     0
340
26
144
0.25
309
CONTENTFORMAT_END
171
     1
301
MARGIN
  1
CELLMARGIN_BEGIN
 40
0.06
 40
0.06
 40
0.06
 40
0.06
 40
0.18
 40
0.18
309
CELLMARGIN_END
 94
        6
 95
        1
302
GRIDFORMAT
  1
GRIDFORMAT_BEGIN
 90
        0
 91
        1
 62
     0
 92
       -2
340
0
 93
        0
 40
0.045
309
GRIDFORMAT_END
 95
        2
302
GRIDFORMAT
  1
GRIDFORMAT_BEGIN
 90
        0
 91
        1
 62
     0
 92
       -2
340
0
 93
        0
 40
0.045
309
GRIDFORMAT_END
 95
        4
302
GRIDFORMAT
  1
GRIDFORMAT_BEGIN
 90
        0
 91
        1
 62
     0
 92
       -2
340
0
 93
        0
 40
0.045
309
GRIDFORMAT_END
 95
        8
302
GRIDFORMAT
  1
GRIDFORMAT_BEGIN
 90
        0
 91
        1
 62
     0
 92
       -2
340
0
 93
        0
 40
0.045
309
GRIDFORMAT_END
 95
       16
302
GRIDFORMAT
  1
GRIDFORMAT_BEGIN
 90
        0
 91
        1
 62
     0
 92
       -2
340
0
 93
        0
 40
0.045
309
GRIDFORMAT_END
 95
       32
302
GRIDFORMAT
  1
GRIDFORMAT_BEGIN
 90
        0
 91
        1
 62
     0
 92
       -2
340
0
 93
        0
 40
0.045
309
GRIDFORMAT_END
309
TABLEFORMAT_END
  1
CELLSTYLE_BEGIN
 90
        1
 91
        1
300
_TITLE
309
CELLSTYLE_END
300
CELLSTYLE
  1
TABLEFORMAT_BEGIN
 90
        5
170
     1
 91
        0
 92
        0
 62
   257
 93
        1
300
CONTENTFORMAT
  1
CONTENTFORMAT_BEGIN
 90
        0
 91
        0
 92
      512
 93
        0
300

 40
0.0
140
1.0
 94
        5
 62
     0
340
26
144
0.18
309
CONTENTFORMAT_END
171
     1
301
MARGIN
  1
CELLMARGIN_BEGIN
 40
0.06
 40
0.06
 40
0.06
 40
0.06
 40
0.18
 40
0.18
309
CELLMARGIN_END
 94
        6
 95
        1
302
GRIDFORMAT
  1
GRIDFORMAT_BEGIN
 90
        0
 91
        1
 62
     0
 92
       -2
340
0
 93
        0
 40
0.045
309
GRIDFORMAT_END
 95
        2
302
GRIDFORMAT
  1
GRIDFORMAT_BEGIN
 90
        0
 91
        1
 62
     0
 92
       -2
340
0
 93
        0
 40
0.045
309
GRIDFORMAT_END
 95
        4
302
GRIDFORMAT
  1
GRIDFORMAT_BEGIN
 90
        0
 91
        1
 62
     0
 92
       -2
340
0
 93
        0
 40
0.045
309
GRIDFORMAT_END
 95
        8
302
GRIDFORMAT
  1
GRIDFORMAT_BEGIN
 90
        0
 91
        1
 62
     0
 92
       -2
340
0
 93
        0
 40
0.045
309
GRIDFORMAT_END
 95
       16
302
GRIDFORMAT
  1
GRIDFORMAT_BEGIN
 90
        0
 91
        1
 62
     0
 92
       -2
340
0
 93
        0
 40
0.045
309
GRIDFORMAT_END
 95
       32
302
GRIDFORMAT
  1
GRIDFORMAT_BEGIN
 90
        0
 91
        1
 62
     0
 92
       -2
340
0
 93
        0
 40
0.045
309
GRIDFORMAT_END
309
TABLEFORMAT_END
  1
CELLSTYLE_BEGIN
 90
        2
 91
        1
300
_HEADER
309
CELLSTYLE_END
300
CELLSTYLE
  1
TABLEFORMAT_BEGIN
 90
        5
170
     1
 91
        0
 92
        0
 62
   257
 93
        1
300
CONTENTFORMAT
  1
CONTENTFORMAT_BEGIN
 90
        0
 91
        0
 92
      512
 93
        0
300

 40
0.0
140
1.0
 94
        2
 62
     0
340
26
144
0.18
309
CONTENTFORMAT_END
171
     1
301
MARGIN
  1
CELLMARGIN_BEGIN
 40
0.06
 40
0.06
 40
0.06
 40
0.06
 40
0.18
 40
0.18
309
CELLMARGIN_END
 94
        6
 95
        1
302
GRIDFORMAT
  1
GRIDFORMAT_BEGIN
 90
        0
 91
        1
 62
     0
 92
       -2
340
0
 93
        0
 40
0.045
309
GRIDFORMAT_END
 95
        2
302
GRIDFORMAT
  1
GRIDFORMAT_BEGIN
 90
        0
 91
        1
 62
     0
 92
       -2
340
0
 93
        0
 40
0.045
309
GRIDFORMAT_END
 95
        4
302
GRIDFORMAT
  1
GRIDFORMAT_BEGIN
 90
        0
 91
        1
 62
     0
 92
       -2
340
0
 93
        0
 40
0.045
309
GRIDFORMAT_END
 95
        8
302
GRIDFORMAT
  1
GRIDFORMAT_BEGIN
 90
        0
 91
        1
 62
     0
 92
       -2
340
0
 93
        0
 40
0.045
309
GRIDFORMAT_END
 95
       16
302
GRIDFORMAT
  1
GRIDFORMAT_BEGIN
 90
        0
 91
        1
 62
     0
 92
       -2
340
0
 93
        0
 40
0.045
309
GRIDFORMAT_END
 95
       32
302
GRIDFORMAT
  1
GRIDFORMAT_BEGIN
 90
        0
 91
        1
 62
     0
 92
       -2
340
0
 93
        0
 40
0.045
309
GRIDFORMAT_END
309
TABLEFORMAT_END
  1
CELLSTYLE_BEGIN
 90
        3
 91
        2
300
_DATA
309
CELLSTYLE_END
  0
ENDSEC
  0
SECTION
  2
ACDSDATA
 70
     2
 71
     8
  0
ACDSSCHEMA
 90
        0
  1
AcDb_Thumbnail_Schema
  2
AcDbDs::ID
280
    10
 91
        8
  2
Thumbnail_Data
280
    15
 91
        0
101
ACDSRECORD
 95
        0
 90
        1
  2
AcDbDs::TreatedAsObjectData
280
     1
291
     1
101
ACDSRECORD
 95
        0
 90
        2
  2
AcDbDs::Legacy
280
     1
291
     1
101
ACDSRECORD
  1
AcDbDs::ID
 90
        3
  2
AcDs:Indexable
280
     1
291
     1
101
ACDSRECORD
  1
AcDbDs::ID
 90
        4
  2
AcDbDs::HandleAttribute
280
     7
282
     1
  0
ACDSSCHEMA
 90
        1
  1
AcDbDs::TreatedAsObjectDataSchema
  2
AcDbDs::TreatedAsObjectData
280
     1
 91
        0
  0
ACDSSCHEMA
 90
        2
  1
AcDbDs::LegacySchema
  2
AcDbDs::Legacy
280
     1
 91
        0
  0
ACDSSCHEMA
 90
        3
  1
AcDbDs::IndexedPropertySchema
  2
AcDs:Indexable
280
     1
 91
        0
  0
ACDSSCHEMA
 90
        4
  1
AcDbDs::HandleAttributeSchema
  2
AcDbDs::HandleAttribute
280
     7
 91
        1
284
     1
  0
ACDSRECORD
 90
        0
  2
AcDbDs::ID
280
    10
320
17
  2
Thumbnail_Data
280
    15
 94
     1484
310
89504E470D0A1A0A0000000D49484452000001000000008808030000003F38C55500000300504C5445000000000000FFFFFF0000000000000000000000000000000000000000000000000000330000660000990000CC0000FF0033000033330033660033990033CC0033FF0066000066330066660066990066CC0066FF0099
310
000099330099660099990099CC0099FF00CC0000CC3300CC6600CC9900CCCC00CCFF00FF0000FF3300FF6600FF9900FFCC00FFFF3300003300333300663300993300CC3300FF3333003333333333663333993333CC3333FF3366003366333366663366993366CC3366FF3399003399333399663399993399CC3399FF33CC00
310
33CC3333CC6633CC9933CCCC33CCFF33FF0033FF3333FF6633FF9933FFCC33FFFF6600006600336600666600996600CC6600FF6633006633336633666633996633CC6633FF6666006666336666666666996666CC6666FF6699006699336699666699996699CC6699FF66CC0066CC3366CC6666CC9966CCCC66CCFF66FF0066
310
FF3366FF6666FF9966FFCC66FFFF9900009900339900669900999900CC9900FF9933009933339933669933999933CC9933FF9966009966339966669966999966CC9966FF9999009999339999669999999999CC9999FF99CC0099CC3399CC6699CC9999CCCC99CCFF99FF0099FF3399FF6699FF9999FFCC99FFFFCC0000CC00
310
33CC0066CC0099CC00CCCC00FFCC3300CC3333CC3366CC3399CC33CCCC33FFCC6600CC6633CC6666CC6699CC66CCCC66FFCC9900CC9933CC9966CC9999CC99CCCC99FFCCCC00CCCC33CCCC66CCCC99CCCCCCCCCCFFCCFF00CCFF33CCFF66CCFF99CCFFCCCCFFFFFF0000FF0033FF0066FF0099FF00CCFF00FFFF3300FF3333
310
FF3366FF3399FF33CCFF33FFFF6600FF6633FF6666FF6699FF66CCFF66FFFF9900FF9933FF9966FF9999FF99CCFF99FFFFCC00FFCC33FFCC66FFCC99FFCCCCFFCCFFFFFF00FFFF33FFFF66FFFF99FFFFCCFFFFFF0000000D0D0D1A1A1A2828283535354343435050505D5D5D6B6B6B787878868686939393A1A1A1AEAEAEBB
310
BBBBC9C9C9D6D6D6E4E4E4F1F1F1FFFFFF000000000000000000000000000000000000000000000000000000000000C11FEF66000002874944415478DAEDDC599283201080E1DCFF50FDC24DFA2453C67197558360FF54662A8332095F9A45D17CB4DD24A15456EA58F0D369FD2D00A8146D0A6E3B6E040000000000A0C371
310
F0B6E193080000801E050000C0368028000000000000000000000000006003607B2E2BB98E87D360860096AAAF11EC00EC7711B10520892E762200801E01566FB76780F03ACEBD0092946A036845806514F48D8EBB4DAF03100FC0323BA80C105FCCBCBF09F8010C3581FD3EA2469A00001A0650008C019C0C0AED0204A62C
310
E183FAC0E4B90580E2A45A0410FB970D47C0A1C37E18602C220F251D5F5BE7B7E09DE51D00E659E15C6D5931E6005C3A94B9160172C69F0BB0AB4311803E05F0FDE8B53C025466826601E4C7005385FB07987F65014CF35ED14480844169DB169386B193E2894544A35D706414189BFFBA5BB51901663BC1E3134BC3A0CE13
310
80655DA8BF08B830119ACE7FAD17C672A7C20FCF0413BB0E2F809E1F527579309407D0EDC1D05519EF92A03FABED132217CEA0000040DA4EEF0390BC3D00781B4064E6DAD9DA60E1ABE56CA70954F954EA01B4788144DB09000000000000000EC939A7E343DD9831FE383300C363001814968CE14F331130D6DDB9E9F93757
310
9DBD08706E69028600FE23E06BB0CD6014000000000000000000000000000000000000000000008070AAB93CDE2680026019A0EE35429D47C00DD751370A70F3D5E2AAF2D20848AE2500005803D8750800000040158046BF40A11AC043374E2EF327CFADB37501E42900FFADB344803D80EDEDF33F035887DA2EFC12322425
310
43E319B19E71F7368800001805DE1D01F2E028607E26C8B100000000D008802A0000740CC0CA50E29EA1AF0CEB7A6D30BBC82F97432B03B03CCE1522E6AF116A3BFD0185759D8AB6787DB90000000049454E44AE426082
  0
ENDSEC
  0
EOF
