  0
SECTION
  2
HEADER
  9
$ACADVER
  1
AC1032
  9
$ACADMAINTVER
 90
      155
  9
$DWGCODEPAGE
  3
ANSI_1252
  9
$LASTSAVEDBY
  1
falinoori
  9
$REQUIREDVERSIONS
160
                 0
  9
$INSBASE
 10
0.0
 20
0.0
 30
0.0
  9
$EXTMIN
 10
-459.9840959793814
 20
2787.362114958402
 30
-0.0000000000000018
  9
$EXTMAX
 10
426.6915695749496
 20
3262.38497548804
 30
0.0
  9
$LIMMIN
 10
0.0
 20
0.0
  9
$LIMMAX
 10
420.0
 20
297.0
  9
$ORTHOMODE
 70
     1
  9
$REGENMODE
 70
     1
  9
$FILLMODE
 70
     1
  9
$QTEXTMODE
 70
     0
  9
$MIRRTEXT
 70
     0
  9
$LTSCALE
 40
1.0
  9
$ATTMODE
 70
     1
  9
$TEXTSIZE
 40
2.5
  9
$TRACEWID
 40
1.0
  9
$TEXTSTYLE
  7
Standard
  9
$CLAYER
  8
0
  9
$CELTYPE
  6
ByLayer
  9
$CECOLOR
 62
   256
  9
$CELTSCALE
 40
1.0
  9
$DISPSILH
 70
     0
  9
$DIMSCALE
 40
1.0
  9
$DIMASZ
 40
2.5
  9
$DIMEXO
 40
0.625
  9
$DIMDLI
 40
3.75
  9
$DIMRND
 40
0.0
  9
$DIMDLE
 40
0.0
  9
$DIMEXE
 40
1.25
  9
$DIMTP
 40
0.0
  9
$DIMTM
 40
0.0
  9
$DIMTXT
 40
2.5
  9
$DIMCEN
 40
2.5
  9
$DIMTSZ
 40
0.0
  9
$DIMTOL
 70
     0
  9
$DIMLIM
 70
     0
  9
$DIMTIH
 70
     0
  9
$DIMTOH
 70
     0
  9
$DIMSE1
 70
     0
  9
$DIMSE2
 70
     0
  9
$DIMTAD
 70
     1
  9
$DIMZIN
 70
     8
  9
$DIMBLK
  1

  9
$DIMASO
 70
     1
  9
$DIMSHO
 70
     1
  9
$DIMPOST
  1

  9
$DIMAPOST
  1

  9
$DIMALT
 70
     0
  9
$DIMALTD
 70
     3
  9
$DIMALTF
 40
0.03937007874016
  9
$DIMLFAC
 40
1.0
  9
$DIMTOFL
 70
     1
  9
$DIMTVP
 40
0.0
  9
$DIMTIX
 70
     0
  9
$DIMSOXD
 70
     0
  9
$DIMSAH
 70
     0
  9
$DIMBLK1
  1

  9
$DIMBLK2
  1

  9
$DIMSTYLE
  2
ISO-25
  9
$DIMCLRD
 70
     0
  9
$DIMCLRE
 70
     0
  9
$DIMCLRT
 70
     0
  9
$DIMTFAC
 40
1.0
  9
$DIMGAP
 40
0.625
  9
$DIMJUST
 70
     0
  9
$DIMSD1
 70
     0
  9
$DIMSD2
 70
     0
  9
$DIMTOLJ
 70
     0
  9
$DIMTZIN
 70
     8
  9
$DIMALTZ
 70
     0
  9
$DIMALTTZ
 70
     0
  9
$DIMUPT
 70
     0
  9
$DIMDEC
 70
     2
  9
$DIMTDEC
 70
     2
  9
$DIMALTU
 70
     2
  9
$DIMALTTD
 70
     3
  9
$DIMTXSTY
  7
Standard
  9
$DIMAUNIT
 70
     0
  9
$DIMADEC
 70
     0
  9
$DIMALTRND
 40
0.0
  9
$DIMAZIN
 70
     0
  9
$DIMDSEP
 70
    44
  9
$DIMATFIT
 70
     3
  9
$DIMFRAC
 70
     0
  9
$DIMLDRBLK
  1

  9
$DIMLUNIT
 70
     2
  9
$DIMLWD
 70
    -2
  9
$DIMLWE
 70
    -2
  9
$DIMTMOVE
 70
     0
  9
$DIMFXL
 40
1.0
  9
$DIMFXLON
 70
     0
  9
$DIMJOGANG
 40
0.7853981633974483
  9
$DIMTFILL
 70
     0
  9
$DIMTFILLCLR
 70
     0
  9
$DIMARCSYM
 70
     0
  9
$DIMLTYPE
  6

  9
$DIMLTEX1
  6

  9
$DIMLTEX2
  6

  9
$DIMTXTDIRECTION
 70
     0
  9
$LUNITS
 70
     2
  9
$LUPREC
 70
     4
  9
$SKETCHINC
 40
1.0
  9
$FILLETRAD
 40
0.0
  9
$AUNITS
 70
     0
  9
$AUPREC
 70
     0
  9
$MENU
  1
.
  9
$ELEVATION
 40
0.0
  9
$PELEVATION
 40
0.0
  9
$THICKNESS
 40
0.0
  9
$LIMCHECK
 70
     0
  9
$CHAMFERA
 40
0.0
  9
$CHAMFERB
 40
0.0
  9
$CHAMFERC
 40
0.0
  9
$CHAMFERD
 40
0.0
  9
$SKPOLY
 70
     0
  9
$TDCREATE
 40
2455652.793761574
  9
$TDUCREATE
 40
2455652.335430625
  9
$TDUPDATE
 40
2459587.658483796
  9
$TDUUPDATE
 40
2459587.200150463
  9
$TDINDWG
 40
0.0593397106
  9
$TDUSRTIMER
 40
0.0593395255
  9
$USRTIMER
 70
     1
  9
$ANGBASE
 50
0.0
  9
$ANGDIR
 70
     0
  9
$PDMODE
 70
     0
  9
$PDSIZE
 40
0.0
  9
$PLINEWID
 40
0.0
  9
$SPLFRAME
 70
     0
  9
$SPLINETYPE
 70
     6
  9
$SPLINESEGS
 70
     8
  9
$HANDSEED
  5
FBA
  9
$SURFTAB1
 70
     6
  9
$SURFTAB2
 70
     6
  9
$SURFTYPE
 70
     6
  9
$SURFU
 70
     6
  9
$SURFV
 70
     6
  9
$UCSBASE
  2

  9
$UCSNAME
  2

  9
$UCSORG
 10
0.0
 20
0.0
 30
0.0
  9
$UCSXDIR
 10
1.0
 20
0.0
 30
0.0
  9
$UCSYDIR
 10
0.0
 20
1.0
 30
0.0
  9
$UCSORTHOREF
  2

  9
$UCSORTHOVIEW
 70
     0
  9
$UCSORGTOP
 10
0.0
 20
0.0
 30
0.0
  9
$UCSORGBOTTOM
 10
0.0
 20
0.0
 30
0.0
  9
$UCSORGLEFT
 10
0.0
 20
0.0
 30
0.0
  9
$UCSORGRIGHT
 10
0.0
 20
0.0
 30
0.0
  9
$UCSORGFRONT
 10
0.0
 20
0.0
 30
0.0
  9
$UCSORGBACK
 10
0.0
 20
0.0
 30
0.0
  9
$PUCSBASE
  2

  9
$PUCSNAME
  2

  9
$PUCSORG
 10
0.0
 20
0.0
 30
0.0
  9
$PUCSXDIR
 10
1.0
 20
0.0
 30
0.0
  9
$PUCSYDIR
 10
0.0
 20
1.0
 30
0.0
  9
$PUCSORTHOREF
  2

  9
$PUCSORTHOVIEW
 70
     0
  9
$PUCSORGTOP
 10
0.0
 20
0.0
 30
0.0
  9
$PUCSORGBOTTOM
 10
0.0
 20
0.0
 30
0.0
  9
$PUCSORGLEFT
 10
0.0
 20
0.0
 30
0.0
  9
$PUCSORGRIGHT
 10
0.0
 20
0.0
 30
0.0
  9
$PUCSORGFRONT
 10
0.0
 20
0.0
 30
0.0
  9
$PUCSORGBACK
 10
0.0
 20
0.0
 30
0.0
  9
$USERI1
 70
     0
  9
$USERI2
 70
     0
  9
$USERI3
 70
     0
  9
$USERI4
 70
     0
  9
$USERI5
 70
     0
  9
$USERR1
 40
0.0
  9
$USERR2
 40
0.0
  9
$USERR3
 40
0.0
  9
$USERR4
 40
0.0
  9
$USERR5
 40
0.0
  9
$WORLDVIEW
 70
     1
  9
$SHADEDGE
 70
     3
  9
$SHADEDIF
 70
    70
  9
$TILEMODE
 70
     1
  9
$MAXACTVP
 70
    64
  9
$PINSBASE
 10
0.0
 20
0.0
 30
0.0
  9
$PLIMCHECK
 70
     0
  9
$PEXTMIN
 10
0.0
 20
0.0
 30
0.0
  9
$PEXTMAX
 10
0.0
 20
0.0
 30
0.0
  9
$PLIMMIN
 10
0.0
 20
0.0
  9
$PLIMMAX
 10
12.0
 20
9.0
  9
$UNITMODE
 70
     0
  9
$VISRETAIN
 70
     1
  9
$PLINEGEN
 70
     0
  9
$PSLTSCALE
 70
     1
  9
$TREEDEPTH
 70
  3020
  9
$CMLSTYLE
  2
Standard
  9
$CMLJUST
 70
     0
  9
$CMLSCALE
 40
20.0
  9
$PROXYGRAPHICS
 70
     1
  9
$MEASUREMENT
 70
     1
  9
$CELWEIGHT
370
    -1
  9
$ENDCAPS
280
     0
  9
$JOINSTYLE
280
     0
  9
$LWDISPLAY
290
     0
  9
$INSUNITS
 70
     4
  9
$HYPERLINKBASE
  1

  9
$STYLESHEET
  1

  9
$XEDIT
290
     1
  9
$CEPSNTYPE
380
     0
  9
$PSTYLEMODE
290
     1
  9
$FINGERPRINTGUID
  2
{3B10067A-E248-483D-836F-81B36922CD37}
  9
$VERSIONGUID
  2
{2352B2F4-F12E-F54B-B74A-F7329B5AF939}
  9
$EXTNAMES
290
     1
  9
$PSVPSCALE
 40
0.0
  9
$OLESTARTUP
290
     0
  9
$SORTENTS
280
   127
  9
$INDEXCTL
280
     0
  9
$HIDETEXT
280
     1
  9
$XCLIPFRAME
280
     2
  9
$HALOGAP
280
     0
  9
$OBSCOLOR
 70
   257
  9
$OBSLTYPE
280
     0
  9
$INTERSECTIONDISPLAY
280
     0
  9
$INTERSECTIONCOLOR
 70
   257
  9
$DIMASSOC
280
     2
  9
$PROJECTNAME
  1

  9
$CAMERADISPLAY
290
     0
  9
$LENSLENGTH
 40
50.0
  9
$CAMERAHEIGHT
 40
0.0
  9
$STEPSPERSEC
 40
2.0
  9
$STEPSIZE
 40
6.0
  9
$3DDWFPREC
 40
2.0
  9
$PSOLWIDTH
 40
5.0
  9
$PSOLHEIGHT
 40
80.0
  9
$LOFTANG1
 40
1.570796326794896
  9
$LOFTANG2
 40
1.570796326794896
  9
$LOFTMAG1
 40
0.0
  9
$LOFTMAG2
 40
0.0
  9
$LOFTPARAM
 70
     7
  9
$LOFTNORMALS
280
     1
  9
$LATITUDE
 40
37.795
  9
$LONGITUDE
 40
-122.394
  9
$NORTHDIRECTION
 40
0.0
  9
$TIMEZONE
 70
 -8000
  9
$LIGHTGLYPHDISPLAY
280
     1
  9
$TILEMODELIGHTSYNCH
280
     1
  9
$CMATERIAL
347
EC
  9
$SOLIDHIST
280
     0
  9
$SHOWHIST
280
     1
  9
$DWFFRAME
280
     2
  9
$DGNFRAME
280
     0
  9
$REALWORLDSCALE
290
     1
  9
$INTERFERECOLOR
 62
     1
  9
$INTERFEREOBJVS
345
F9
  9
$INTERFEREVPVS
346
F8A
  9
$CSHADOW
280
     0
  9
$SHADOWPLANELOCATION
 40
0.0
  0
ENDSEC
  0
SECTION
  2
CLASSES
  0
CLASS
  1
ACDBDICTIONARYWDFLT
  2
AcDbDictionaryWithDefault
  3
ObjectDBX Classes
 90
        0
 91
        1
280
     0
281
     0
  0
CLASS
  1
DICTIONARYVAR
  2
AcDbDictionaryVar
  3
ObjectDBX Classes
 90
        0
 91
       16
280
     0
281
     0
  0
CLASS
  1
TABLESTYLE
  2
AcDbTableStyle
  3
ObjectDBX Classes
 90
     4095
 91
        1
280
     0
281
     0
  0
CLASS
  1
MATERIAL
  2
AcDbMaterial
  3
ObjectDBX Classes
 90
     1153
 91
        3
280
     0
281
     0
  0
CLASS
  1
VISUALSTYLE
  2
AcDbVisualStyle
  3
ObjectDBX Classes
 90
     4095
 91
       26
280
     0
281
     0
  0
CLASS
  1
SCALE
  2
AcDbScale
  3
ObjectDBX Classes
 90
     1153
 91
       17
280
     0
281
     0
  0
CLASS
  1
MLEADERSTYLE
  2
AcDbMLeaderStyle
  3
ACDB_MLEADERSTYLE_CLASS
 90
     4095
 91
        1
280
     0
281
     0
  0
CLASS
  1
CELLSTYLEMAP
  2
AcDbCellStyleMap
  3
ObjectDBX Classes
 90
     1152
 91
        2
280
     0
281
     0
  0
CLASS
  1
EXACXREFPANELOBJECT
  2
ExAcXREFPanelObject
  3
EXAC_ESW
 90
     1025
 91
        0
280
     0
281
     0
  0
CLASS
  1
NPOCOLLECTION
  2
AcDbImpNonPersistentObjectsCollection
  3
ObjectDBX Classes
 90
     1153
 91
        0
280
     0
281
     0
  0
CLASS
  1
LAYER_INDEX
  2
AcDbLayerIndex
  3
ObjectDBX Classes
 90
        0
 91
        0
280
     0
281
     0
  0
CLASS
  1
SPATIAL_INDEX
  2
AcDbSpatialIndex
  3
ObjectDBX Classes
 90
        0
 91
        0
280
     0
281
     0
  0
CLASS
  1
IDBUFFER
  2
AcDbIdBuffer
  3
ObjectDBX Classes
 90
        0
 91
        0
280
     0
281
     0
  0
CLASS
  1
SORTENTSTABLE
  2
AcDbSortentsTable
  3
ObjectDBX Classes
 90
        0
 91
        3
280
     0
281
     0
  0
CLASS
  1
AEC_REFEDIT_STATUS_TRACKER
  2
AecDbRefEditStatusTracker
  3
AecArchBase80|Product Desc: Autodesk Architectural Desktop 2007 |Company: Autodesk,Inc. |WEB Address: www.autodesk.com
 90
      129
 91
        0
280
     0
281
     0
  0
CLASS
  1
ACDBSECTIONVIEWSTYLE
  2
AcDbSectionViewStyle
  3
ObjectDBX Classes
 90
     1025
 91
        2
280
     0
281
     0
  0
CLASS
  1
ACDBDETAILVIEWSTYLE
  2
AcDbDetailViewStyle
  3
ObjectDBX Classes
 90
     1025
 91
        2
280
     0
281
     0
  0
ENDSEC
  0
SECTION
  2
TABLES
  0
TABLE
  2
VPORT
  5
8
102
{ACAD_XDICTIONARY
360
F56
102
}
330
0
100
AcDbSymbolTable
 70
     1
  0
VPORT
  5
EA
330
8
100
AcDbSymbolTableRecord
100
AcDbViewportTableRecord
  2
*Active
 70
     0
 10
0.0
 20
0.0
 11
1.0
 21
1.0
 12
-89.03413400122349
 22
2780.320960147679
 13
0.0
 23
0.0
 14
10.0
 24
10.0
 15
10.0
 25
10.0
 16
0.0
 26
0.0
 36
1.0
 17
0.0
 27
0.0
 37
0.0
 40
1103.957039880974
 41
1.787234042553191
 42
50.0
 43
0.0
 44
0.0
 50
0.0
 51
0.0
 71
     0
 72
  1000
 73
     1
 74
     3
 75
     0
 76
     0
 77
     0
 78
     0
281
     0
 65
     1
110
0.0
120
0.0
130
0.0
111
1.0
121
0.0
131
0.0
112
0.0
122
1.0
132
0.0
 79
     0
146
0.0
348
F5
 60
     2
 61
     5
292
     1
282
     1
141
0.0
142
0.0
 63
   250
421
  3355443
1001
ACAD_NAV_VCDISPLAY
1070
     3
  0
ENDTAB
  0
TABLE
  2
LTYPE
  5
5
330
0
100
AcDbSymbolTable
 70
     6
  0
LTYPE
  5
14
330
5
100
AcDbSymbolTableRecord
100
AcDbLinetypeTableRecord
  2
ByBlock
 70
     0
  3

 72
    65
 73
     0
 40
0.0
  0
LTYPE
  5
15
330
5
100
AcDbSymbolTableRecord
100
AcDbLinetypeTableRecord
  2
ByLayer
 70
     0
  3

 72
    65
 73
     0
 40
0.0
  0
LTYPE
  5
16
330
5
100
AcDbSymbolTableRecord
100
AcDbLinetypeTableRecord
  2
Continuous
 70
     0
  3
Solid line
 72
    65
 73
     0
 40
0.0
  0
LTYPE
  5
1F4
330
5
100
AcDbSymbolTableRecord
100
AcDbLinetypeTableRecord
  2
CENTER
 70
     0
  3
____ _ ____ _ ____ _ ____ _ ____ _ ____ _ ____ 
 72
    65
 73
     4
 40
50.8
 49
31.75
 74
     0
 49
-6.349999999999999
 74
     0
 49
6.349999999999999
 74
     0
 49
-6.349999999999999
 74
     0
  0
LTYPE
  5
1F5
330
5
100
AcDbSymbolTableRecord
100
AcDbLinetypeTableRecord
  2
CENTER2
 70
     0
  3
___ _ ___ _ ___ _ ___ _ ___ _ ___ _ ___ _ ___ _
 72
    65
 73
     4
 40
28.575
 49
19.05
 74
     0
 49
-3.174999999999999
 74
     0
 49
3.174999999999999
 74
     0
 49
-3.174999999999999
 74
     0
  0
LTYPE
  5
1F7
330
5
100
AcDbSymbolTableRecord
100
AcDbLinetypeTableRecord
  2
HIDDEN2
 70
     0
  3
_ _ _ _ _ _ _ _ _ _ _ _ _ _ _ _ _ _ _ _ _ _ _ _
 72
    65
 73
     2
 40
4.762499999999999
 49
3.174999999999999
 74
     0
 49
-1.587499999999999
 74
     0
  0
LTYPE
  5
1F9
330
5
100
AcDbSymbolTableRecord
100
AcDbLinetypeTableRecord
  2
HIDDEN1_01
 70
     0
  3
__ __ __ __ __ __ __ __ __ __ __ __ __ __ __ __
 72
    65
 73
     2
 40
5.0
 49
3.0
 74
     0
 49
-2.0
 74
     0
  0
LTYPE
  5
85B
330
5
100
AcDbSymbolTableRecord
100
AcDbLinetypeTableRecord
  2
DASHED
 70
     0
  3
__ __ __ __ __ __ __ __ __ __ __ __ __ __ __ __
 72
    65
 73
     2
 40
19.05
 49
12.7
 74
     0
 49
-6.349999999999999
 74
     0
  0
ENDTAB
  0
TABLE
  2
LAYER
  5
2
102
{ACAD_XDICTIONARY
360
207
102
}
330
0
100
AcDbSymbolTable
 70
     9
  0
LAYER
  5
10
102
{ACAD_XDICTIONARY
360
13C
102
}
330
2
100
AcDbSymbolTableRecord
100
AcDbLayerTableRecord
  2
0
 70
     0
 62
     7
  6
Continuous
370
    -3
390
F
347
EE
348
0
  0
LAYER
  5
202
102
{ACAD_XDICTIONARY
360
203
102
}
330
2
100
AcDbSymbolTableRecord
100
AcDbLayerTableRecord
  2
GRID
 70
     0
 62
     1
  6
Continuous
370
    -3
390
F
347
EE
348
0
  0
LAYER
  5
47A
330
2
100
AcDbSymbolTableRecord
100
AcDbLayerTableRecord
  2
LOCKABLE DOWEL FORMER
 70
     0
 62
     1
  6
Continuous
370
    -3
390
F
347
EE
348
0
1001
AcAecLayerStandard
1000

1000

  0
LAYER
  5
47B
330
2
100
AcDbSymbolTableRecord
100
AcDbLayerTableRecord
  2
LOCKABLE DOWEL SLEEVE
 70
     0
 62
     1
  6
Continuous
370
    -3
390
F
347
EE
348
0
1001
AcAecLayerStandard
1000

1000

  0
LAYER
  5
47C
330
2
100
AcDbSymbolTableRecord
100
AcDbLayerTableRecord
  2
LOCKABLE DOWEL LOCKING PLATE
 70
     0
 62
     1
  6
Continuous
370
    -3
390
F
347
EE
348
0
1001
AcAecLayerStandard
1000

1000

  0
LAYER
  5
4DA
330
2
100
AcDbSymbolTableRecord
100
AcDbLayerTableRecord
  2
SPECP
 70
     0
 62
     6
  6
Continuous
370
    -3
390
F
347
EE
348
0
  0
LAYER
  5
7A9
330
2
100
AcDbSymbolTableRecord
100
AcDbLayerTableRecord
  2
DEFPOINTS
 70
     0
 62
     7
  6
Continuous
290
     0
370
    -3
390
F
347
EE
348
0
  0
LAYER
  5
F9A
102
{ACAD_XDICTIONARY
360
F9B
102
}
330
2
100
AcDbSymbolTableRecord
100
AcDbLayerTableRecord
  2
ANCON-TEXT
 70
     0
 62
     6
  6
Continuous
370
    -3
390
F
347
EE
348
0
  0
LAYER
  5
F9C
102
{ACAD_XDICTIONARY
360
F9D
102
}
330
2
100
AcDbSymbolTableRecord
100
AcDbLayerTableRecord
  2
DIMS
 70
     0
 62
     2
  6
Continuous
370
    13
390
F
347
EE
348
0
  0
ENDTAB
  0
TABLE
  2
STYLE
  5
3
330
0
100
AcDbSymbolTable
 70
     2
  0
STYLE
  5
11
330
3
100
AcDbSymbolTableRecord
100
AcDbTextStyleTableRecord
  2
Standard
 70
     0
 40
0.0
 41
1.0
 50
0.0
 71
     0
 42
2.5
  3
arial.ttf
  4

1001
ACAD
1000
Arial
1071
       34
  0
STYLE
  5
205
330
3
100
AcDbSymbolTableRecord
100
AcDbTextStyleTableRecord
  2
ROMANS
 70
     0
 40
0.0
 41
1.0
 50
0.0
 71
     0
 42
2.5
  3
romans
  4

  0
ENDTAB
  0
TABLE
  2
VIEW
  5
6
330
0
100
AcDbSymbolTable
 70
     0
  0
ENDTAB
  0
TABLE
  2
UCS
  5
7
330
0
100
AcDbSymbolTable
 70
     0
  0
ENDTAB
  0
TABLE
  2
APPID
  5
9
330
0
100
AcDbSymbolTable
 70
    13
  0
APPID
  5
12
330
9
100
AcDbSymbolTableRecord
100
AcDbRegAppTableRecord
  2
ACAD
 70
     0
  0
APPID
  5
9E
330
9
100
AcDbSymbolTableRecord
100
AcDbRegAppTableRecord
  2
ACAD_PSEXT
 70
     0
  0
APPID
  5
133
330
9
100
AcDbSymbolTableRecord
100
AcDbRegAppTableRecord
  2
AcadAnnoPO
 70
     0
  0
APPID
  5
134
330
9
100
AcDbSymbolTableRecord
100
AcDbRegAppTableRecord
  2
AcadAnnotative
 70
     0
  0
APPID
  5
135
330
9
100
AcDbSymbolTableRecord
100
AcDbRegAppTableRecord
  2
ACAD_DSTYLE_DIMJAG
 70
     0
  0
APPID
  5
136
330
9
100
AcDbSymbolTableRecord
100
AcDbRegAppTableRecord
  2
ACAD_DSTYLE_DIMTALN
 70
     0
  0
APPID
  5
165
330
9
100
AcDbSymbolTableRecord
100
AcDbRegAppTableRecord
  2
ACAD_MLEADERVER
 70
     0
  0
APPID
  5
473
330
9
100
AcDbSymbolTableRecord
100
AcDbRegAppTableRecord
  2
ACAD_EXEMPT_FROM_CAD_STANDARDS
 70
     0
  0
APPID
  5
47D
330
9
100
AcDbSymbolTableRecord
100
AcDbRegAppTableRecord
  2
AcAecLayerStandard
 70
     0
  0
APPID
  5
47E
330
9
100
AcDbSymbolTableRecord
100
AcDbRegAppTableRecord
  2
GENIUS_GENODEF_13
 70
     0
  0
APPID
  5
47F
330
9
100
AcDbSymbolTableRecord
100
AcDbRegAppTableRecord
  2
GENIUS_GENOBJ-N-FIL_13
 70
     0
  0
APPID
  5
679
330
9
100
AcDbSymbolTableRecord
100
AcDbRegAppTableRecord
  2
ACAD_DSTYLE_DIMJOGGED_JOGANGLE_SYMBOL
 70
     0
  0
APPID
  5
F9F
330
9
100
AcDbSymbolTableRecord
100
AcDbRegAppTableRecord
  2
ACAD_NAV_VCDISPLAY
 70
     0
  0
ENDTAB
  0
TABLE
  2
DIMSTYLE
  5
A
330
0
100
AcDbSymbolTable
 70
     4
100
AcDbDimStyleTable
 71
     1
340
27
  0
DIMSTYLE
105
1B0
330
A
100
AcDbSymbolTableRecord
100
AcDbDimStyleTableRecord
  2
Standard
 70
     0
340
11
  0
DIMSTYLE
105
27
330
A
100
AcDbSymbolTableRecord
100
AcDbDimStyleTableRecord
  2
ISO-25
 70
     0
 41
2.5
 42
0.625
 43
3.75
 44
1.25
 73
     0
 74
     0
 77
     1
 78
     8
140
2.5
141
2.5
143
0.03937007874016
147
0.625
171
     3
172
     1
271
     2
272
     2
274
     3
278
    44
283
     0
284
     8
340
11
  0
DIMSTYLE
105
F9E
330
A
100
AcDbSymbolTableRecord
100
AcDbDimStyleTableRecord
  2
STD_1_1
 70
     0
 41
2.5
 42
2.0
 43
5.0
 44
2.0
 73
     0
 74
     0
 77
     1
 78
     8
140
3.0
141
0.0
143
0.0394
147
1.0
171
     4
271
     2
272
     0
273
     8
274
     4
340
11
  0
DIMSTYLE
105
FA9
330
A
100
AcDbSymbolTableRecord
100
AcDbDimStyleTableRecord
  2
1-1
 70
     0
 40
0.0
 41
3.0
 42
4.5
 43
10.0
 44
1.5
 45
0.1
 46
1.25
 73
     0
 74
     0
 77
     1
 78
    12
140
2.5
141
0.0
143
0.039
145
1.8
146
0.9
147
1.5
271
     2
272
     2
279
     2
284
    12
285
    12
286
    12
340
11
  0
ENDTAB
  0
TABLE
  2
BLOCK_RECORD
  5
1
330
0
100
AcDbSymbolTable
 70
     3
  0
BLOCK_RECORD
  5
1F
102
{ACAD_XDICTIONARY
360
1CE
102
}
330
1
100
AcDbSymbolTableRecord
100
AcDbBlockTableRecord
  2
*Model_Space
340
22
 70
     0
280
     1
281
     0
  0
BLOCK_RECORD
  5
F4F
330
1
100
AcDbSymbolTableRecord
100
AcDbBlockTableRecord
  2
*Paper_Space
340
F50
 70
     0
280
     1
281
     0
  0
BLOCK_RECORD
  5
4B8
330
1
100
AcDbSymbolTableRecord
100
AcDbBlockTableRecord
  2
*X0
340
0
102
{BLKREFS
331
51D
102
}
 70
     0
280
     1
281
     0
  0
BLOCK_RECORD
  5
FA2
102
{ACAD_XDICTIONARY
360
FA4
102
}
330
1
100
AcDbSymbolTableRecord
100
AcDbBlockTableRecord
  2
A$C4f61d58f
340
0
 70
     0
280
     1
281
     0
  0
ENDTAB
  0
ENDSEC
  0
SECTION
  2
BLOCKS
  0
BLOCK
  5
20
330
1F
100
AcDbEntity
  8
0
100
AcDbBlockBegin
  2
*Model_Space
 70
     0
 10
0.0
 20
0.0
 30
0.0
  3
*Model_Space
  1

  0
ENDBLK
  5
21
330
1F
100
AcDbEntity
  8
0
100
AcDbBlockEnd
  0
BLOCK
  5
F51
330
F4F
100
AcDbEntity
 67
     1
  8
0
100
AcDbBlockBegin
  2
*Paper_Space
 70
     0
 10
0.0
 20
0.0
 30
0.0
  3
*Paper_Space
  1

  0
ENDBLK
  5
F52
330
F4F
100
AcDbEntity
 67
     1
  8
0
100
AcDbBlockEnd
  0
BLOCK
  5
4B9
330
4B8
100
AcDbEntity
  8
0
100
AcDbBlockBegin
  2
*X0
 70
     1
 10
0.0
 20
0.0
 30
0.0
  3
*X0
  1

  0
LINE
  5
4BA
330
4B8
100
AcDbEntity
  8
0
 62
     0
100
AcDbLine
 10
195.5814268087933
 20
147.6268591222841
 30
0.0
 11
195.8430013671036
 21
147.8884336805943
 31
0.0
  0
LINE
  5
4BB
330
4B8
100
AcDbEntity
  8
0
 62
     0
100
AcDbLine
 10
195.8987187564175
 20
147.9441510699082
 30
0.0
 11
196.1604174924433
 21
148.205849805934
 31
0.0
  0
LINE
  5
4BC
330
4B8
100
AcDbEntity
  8
0
 62
     0
100
AcDbLine
 10
195.8430013671036
 20
147.8884336805943
 30
0.0
 11
195.8987187564175
 21
147.9441510699082
 31
0.0
  0
LINE
  5
4BD
330
4B8
100
AcDbEntity
  8
0
 62
     0
100
AcDbLine
 10
195.5444267977305
 20
147.6796616724319
 30
0.0
 11
195.7524673756712
 21
147.8877022503726
 31
0.0
  0
LINE
  5
4BE
330
4B8
100
AcDbEntity
  8
0
 62
     0
100
AcDbLine
 10
195.8987187564175
 20
148.0339536311189
 30
0.0
 11
196.1076149422955
 21
148.2428498169969
 31
0.0
  0
LINE
  5
4BF
330
4B8
100
AcDbEntity
  8
0
 62
     0
100
AcDbLine
 10
195.7524673756712
 20
147.8877022503726
 30
0.0
 11
195.8987187564175
 21
148.0339536311189
 31
0.0
  0
LINE
  5
4C0
330
4B8
100
AcDbEntity
  8
0
 62
     0
100
AcDbLine
 10
195.5151296645027
 20
147.7401671004149
 30
0.0
 11
195.6612648444809
 21
147.886302280393
 31
0.0
  0
LINE
  5
4C1
330
4B8
100
AcDbEntity
  8
0
 62
     0
100
AcDbLine
 10
195.8987187564175
 20
148.1237561923296
 30
0.0
 11
196.0471095143125
 21
148.2721469502246
 31
0.0
  0
LINE
  5
4C2
330
4B8
100
AcDbEntity
  8
0
 62
     0
100
AcDbLine
 10
195.6612648444809
 20
147.886302280393
 30
0.0
 11
195.8987187564175
 21
148.1237561923296
 31
0.0
  0
LINE
  5
4C3
330
4B8
100
AcDbEntity
  8
0
 62
     0
100
AcDbLine
 10
195.4950258363717
 20
147.8098658334945
 30
0.0
 11
195.5693785080192
 21
147.8842185051419
 31
0.0
  0
LINE
  5
4C4
330
4B8
100
AcDbEntity
  8
0
 62
     0
100
AcDbLine
 10
195.8987187564175
 20
148.2135587535403
 30
0.0
 11
195.9774107812329
 21
148.2922507783557
 31
0.0
  0
LINE
  5
4C5
330
4B8
100
AcDbEntity
  8
0
 62
     0
100
AcDbLine
 10
195.5693785080192
 20
147.8842185051419
 30
0.0
 11
195.8987187564175
 21
148.2135587535403
 31
0.0
  0
LINE
  5
4C6
330
4B8
100
AcDbEntity
  8
0
 62
     0
100
AcDbLine
 10
195.4874427351548
 20
147.8920852934883
 30
0.0
 11
195.8951913212391
 21
148.2998338795726
 31
0.0
  0
LINE
  5
4C7
330
4B8
100
AcDbEntity
  8
0
 62
     0
100
AcDbLine
 10
195.5017665306227
 20
147.9962116501669
 30
0.0
 11
195.7910649645605
 21
148.2855100841047
 31
0.0
  0
LINE
  5
4C8
330
4B8
100
AcDbEntity
  8
0
 62
     0
100
AcDbLine
 10
195.6255001039968
 20
147.5811298562768
 30
0.0
 11
195.8987187564175
 21
147.8543485086975
 31
0.0
  0
LINE
  5
4C9
330
4B8
100
AcDbEntity
  8
0
 62
     0
100
AcDbLine
 10
195.9328814224328
 20
147.8885111747128
 30
0.0
 11
196.2061467584506
 21
148.1617765107306
 31
0.0
  0
LINE
  5
4CA
330
4B8
100
AcDbEntity
  8
0
 62
     0
100
AcDbLine
 10
195.8987187564175
 20
147.8543485086975
 30
0.0
 11
195.9328814224328
 21
147.8885111747128
 31
0.0
  0
LINE
  5
4CB
330
4B8
100
AcDbEntity
  8
0
 62
     0
100
AcDbLine
 10
195.6765848418251
 20
147.5424120328945
 30
0.0
 11
195.8987187564175
 21
147.7645459474869
 31
0.0
  0
LINE
  5
4CC
330
4B8
100
AcDbEntity
  8
0
 62
     0
100
AcDbLine
 10
196.0221215226894
 20
147.8879487137588
 30
0.0
 11
196.2448645818329
 21
148.1106917729023
 31
0.0
  0
LINE
  5
4CD
330
4B8
100
AcDbEntity
  8
0
 62
     0
100
AcDbLine
 10
195.8987187564175
 20
147.7645459474869
 30
0.0
 11
196.0221215226894
 21
147.8879487137588
 31
0.0
  0
LINE
  5
4CE
330
4B8
100
AcDbEntity
  8
0
 62
     0
100
AcDbLine
 10
195.7351614899214
 20
147.5111861197801
 30
0.0
 11
195.8987187564175
 21
147.6747433862762
 31
0.0
  0
LINE
  5
4CF
330
4B8
100
AcDbEntity
  8
0
 62
     0
100
AcDbLine
 10
196.1107350625526
 20
147.8867596924113
 30
0.0
 11
196.2760904949473
 21
148.0521151248059
 31
0.0
  0
LINE
  5
4D0
330
4B8
100
AcDbEntity
  8
0
 62
     0
100
AcDbLine
 10
195.8987187564175
 20
147.6747433862762
 30
0.0
 11
196.1107350625526
 21
147.8867596924113
 31
0.0
  0
LINE
  5
4D1
330
4B8
100
AcDbEntity
  8
0
 62
     0
100
AcDbLine
 10
195.8024660335981
 20
147.4886881022461
 30
0.0
 11
195.8987187564175
 21
147.5849408250655
 31
0.0
  0
LINE
  5
4D2
330
4B8
100
AcDbEntity
  8
0
 62
     0
100
AcDbLine
 10
196.1987348839304
 20
147.8849569525784
 30
0.0
 11
196.2985885124813
 21
147.9848105811292
 31
0.0
  0
LINE
  5
4D3
330
4B8
100
AcDbEntity
  8
0
 62
     0
100
AcDbLine
 10
195.8987187564175
 20
147.5849408250655
 30
0.0
 11
196.1987348839304
 21
147.8849569525784
 31
0.0
  0
LINE
  5
4D4
330
4B8
100
AcDbEntity
  8
0
 62
     0
100
AcDbLine
 10
195.8812196371476
 20
147.4776391445849
 30
0.0
 11
195.8987187564175
 21
147.4951382638548
 31
0.0
  0
LINE
  5
4D5
330
4B8
100
AcDbEntity
  8
0
 62
     0
100
AcDbLine
 10
196.2861333070879
 20
147.8825528145251
 30
0.0
 11
196.3096374701425
 21
147.9060569775798
 31
0.0
  0
LINE
  5
4D6
330
4B8
100
AcDbEntity
  8
0
 62
     0
100
AcDbLine
 10
195.8987187564175
 20
147.4951382638548
 30
0.0
 11
196.2861333070879
 21
147.8825528145251
 31
0.0
  0
LINE
  5
4D7
330
4B8
100
AcDbEntity
  8
0
 62
     0
100
AcDbLine
 10
195.9784524383585
 20
147.4850693845851
 30
0.0
 11
196.3022072301423
 21
147.8088241763689
 31
0.0
  0
LINE
  5
4D8
330
4B8
100
AcDbEntity
  8
0
 62
     0
100
AcDbLine
 10
196.1353224713711
 20
147.552136856387
 30
0.0
 11
196.2351397583403
 21
147.6519541433562
 31
0.0
  0
ENDBLK
  5
4D9
330
4B8
100
AcDbEntity
  8
0
100
AcDbBlockEnd
  0
BLOCK
  5
FA6
330
FA2
100
AcDbEntity
  8
0
100
AcDbBlockBegin
  2
A$C4f61d58f
 70
     0
 10
0.0
 20
0.0
 30
0.0
  3
A$C4f61d58f
  1

  0
MTEXT
  5
FA3
330
FA2
100
AcDbEntity
  8
ANCON-TEXT
100
AcDbMText
 10
1.474924556327437
 20
12.55829035047566
 30
0.0
 40
4.0
 41
68.05732020797268
 46
0.0
 71
     1
 72
     5
  1
{\fArial|b0|i0|c0|p34;Ancon BT12 COUPLER\P(L = 28mm, d = 22mm)}
 73
     1
 44
1.0
101
Embedded Object
 70
     1
 10
1.0
 20
0.0
 30
0.0
 11
1.474924556327437
 21
12.55829035047566
 31
0.0
 40
68.05732020797268
 41
0.0
 42
59.24965893587994
 43
11.98180991359709
 71
     2
 72
     1
 44
68.05732020797268
 45
0.5
 73
     0
 74
     0
 46
0.0
  0
ENDBLK
  5
FA7
330
FA2
100
AcDbEntity
  8
0
100
AcDbBlockEnd
  0
ENDSEC
  0
SECTION
  2
ENTITIES
  0
LINE
  5
33E
330
1F
100
AcDbEntity
  8
GRID
  6
CENTER
 48
0.5
100
AcDbLine
 10
-354.0829806240054
 20
3075.607605431579
 30
0.0
 11
58.95700061141035
 21
3075.607605431579
 31
0.0
  0
LINE
  5
343
330
1F
100
AcDbEntity
  8
LOCKABLE DOWEL SLEEVE
 48
0.5
100
AcDbLine
 10
31.78420035990795
 20
3065.607605431579
 30
0.0
 11
36.98420035990822
 21
3065.607605431579
 31
0.0
  0
LINE
  5
3A3
330
1F
100
AcDbEntity
  8
LOCKABLE DOWEL SLEEVE
  6
HIDDEN1_01
100
AcDbLine
 10
-170.8086325595427
 20
3093.107605431578
 30
0.0
 11
-0.8086325595423531
 21
3093.107605431578
 31
0.0
  0
LINE
  5
3A4
330
1F
100
AcDbEntity
  8
LOCKABLE DOWEL SLEEVE
  6
HIDDEN1_01
100
AcDbLine
 10
-170.8086325595427
 20
3091.107605431578
 30
0.0
 11
-0.8086325595423531
 21
3091.107605431578
 31
0.0
  0
LINE
  5
3A5
330
1F
100
AcDbEntity
  8
LOCKABLE DOWEL SLEEVE
  6
HIDDEN1_01
100
AcDbLine
 10
-170.8086325595427
 20
3058.107605431579
 30
0.0
 11
-0.8086325595423531
 21
3058.107605431579
 31
0.0
  0
LINE
  5
3A6
330
1F
100
AcDbEntity
  8
LOCKABLE DOWEL SLEEVE
  6
HIDDEN1_01
100
AcDbLine
 10
-170.8086325595427
 20
3060.107605431579
 30
0.0
 11
-0.8086325595423531
 21
3060.107605431579
 31
0.0
  0
LINE
  5
3A7
330
1F
100
AcDbEntity
  8
LOCKABLE DOWEL SLEEVE
  6
CENTER2
100
AcDbLine
 10
-60.80863255954252
 20
3081.42907023865
 30
0.0
 11
-60.80863255954252
 21
3070.17907023865
 31
0.0
  0
LINE
  5
3A8
330
1F
100
AcDbEntity
  8
LOCKABLE DOWEL SLEEVE
100
AcDbLine
 10
-166.8086325595426
 20
3095.607605431579
 30
0.0
 11
-42.21297867087331
 21
3095.607605431579
 31
0.0
  0
LINE
  5
3A9
330
1F
100
AcDbEntity
  8
LOCKABLE DOWEL SLEEVE
100
AcDbLine
 10
-166.8086325595426
 20
3055.607605431579
 30
0.0
 11
-42.23293725579622
 21
3055.607605431579
 31
0.0
  0
LINE
  5
3AA
330
1F
100
AcDbEntity
  8
LOCKABLE DOWEL SLEEVE
  6
HIDDEN1_01
100
AcDbLine
 10
-170.8086325595427
 20
3093.607605431579
 30
0.0
 11
-0.8086325595423531
 21
3093.607605431579
 31
0.0
  0
LINE
  5
3AB
330
1F
100
AcDbEntity
  8
LOCKABLE DOWEL SLEEVE
  6
HIDDEN1_01
100
AcDbLine
 10
-170.8086325595427
 20
3057.607605431579
 30
0.0
 11
-0.8086325595423531
 21
3057.607605431579
 31
0.0
  0
LINE
  5
3AC
330
1F
100
AcDbEntity
  8
LOCKABLE DOWEL SLEEVE
  6
HIDDEN1_01
100
AcDbLine
 10
-0.8086325595423531
 20
3095.607605431579
 30
0.0
 11
-0.8086325595428078
 21
3055.607605431579
 31
0.0
  0
LINE
  5
3AD
330
1F
100
AcDbEntity
  8
LOCKABLE DOWEL SLEEVE
100
AcDbLine
 10
-166.8086325595426
 20
3125.607605431579
 30
0.0
 11
-166.8086325595426
 21
3025.607605431579
 31
0.0
  0
LINE
  5
3AE
330
1F
100
AcDbEntity
  8
LOCKABLE DOWEL SLEEVE
100
AcDbLine
 10
-170.8086325595427
 20
3125.607605431579
 30
0.0
 11
-170.8086325595427
 21
3025.607605431579
 31
0.0
  0
LINE
  5
3AF
330
1F
100
AcDbEntity
  8
LOCKABLE DOWEL SLEEVE
100
AcDbLine
 10
-170.8086325595427
 20
3025.607605431579
 30
0.0
 11
-166.8086325595426
 21
3025.607605431579
 31
0.0
  0
LINE
  5
3B0
330
1F
100
AcDbEntity
  8
LOCKABLE DOWEL SLEEVE
  6
CENTER2
100
AcDbLine
 10
-176.7254531793309
 20
3117.607605431579
 30
0.0
 11
-160.9334025458269
 21
3117.607605431579
 31
0.0
  0
LINE
  5
3B1
330
1F
100
AcDbEntity
  8
LOCKABLE DOWEL SLEEVE
100
AcDbLine
 10
-170.8086325595427
 20
3125.607605431579
 30
0.0
 11
-166.8086325595426
 21
3125.607605431579
 31
0.0
  0
LINE
  5
3B2
330
1F
100
AcDbEntity
  8
LOCKABLE DOWEL SLEEVE
100
AcDbLine
 10
-166.8086325595426
 20
3098.297702960281
 30
0.0
 11
-164.11853503084
 21
3095.607605431579
 31
0.0
  0
LINE
  5
3B3
330
1F
100
AcDbEntity
  8
LOCKABLE DOWEL SLEEVE
  6
CENTER2
100
AcDbLine
 10
-176.7254531793309
 20
3033.607605431579
 30
0.0
 11
-160.9334025458269
 21
3033.607605431579
 31
0.0
  0
LINE
  5
3B4
330
1F
100
AcDbEntity
  8
LOCKABLE DOWEL SLEEVE
100
AcDbLine
 10
-166.8086325595426
 20
3052.917507902876
 30
0.0
 11
-164.11853503084
 21
3055.607605431579
 31
0.0
  0
HATCH
  5
3B5
330
1F
100
AcDbEntity
  8
LOCKABLE DOWEL SLEEVE
100
AcDbHatch
 10
0.0
 20
0.0
 30
0.0
210
0.0
220
0.0
230
1.0
  2
ANSI31
 70
     0
 71
     0
 91
        2
 92
        7
 72
     0
 73
     1
 93
        3
 10
-166.8086325595426
 20
3098.297702960281
 10
-166.8086325595426
 20
3095.607605431579
 10
-164.11853503084
 20
3095.607605431579
 97
        0
 92
        7
 72
     0
 73
     1
 93
        3
 10
-164.11853503084
 20
3055.607605431579
 10
-166.8086325595426
 20
3055.607605431579
 10
-166.8086325595426
 20
3052.917507902876
 97
        0
 75
     0
 76
     1
 52
0.0
 41
0.1
 77
     0
 78
     1
 53
45.0
 43
-453.0728831024779
 44
2940.219047573269
 45
-0.0088388347648318
 46
0.0088388347648318
 79
     0
 47
0.114135182764989
 98
        2
 10
-165.7265630790147
 20
3096.413073143403
 10
-165.6123377594098
 20
3054.982001409096
  0
ARC
  5
3B6
330
1F
100
AcDbEntity
  8
LOCKABLE DOWEL SLEEVE
  6
HIDDEN1_01
 62
     1
100
AcDbCircle
 10
-60.80863255954252
 20
3075.607605431577
 30
0.0
 40
1.5
100
AcDbArc
 50
238.3881131426517
 51
256.4619414873906
  0
ARC
  5
3B7
330
1F
100
AcDbEntity
  8
LOCKABLE DOWEL SLEEVE
  6
HIDDEN1_01
 62
     1
100
AcDbCircle
 10
-60.80863255954252
 20
3075.607605431577
 30
0.0
 40
1.5
100
AcDbArc
 50
193.5380585126251
 51
211.3119961173989
  0
ARC
  5
3B8
330
1F
100
AcDbEntity
  8
LOCKABLE DOWEL SLEEVE
  6
HIDDEN1_01
 62
     1
100
AcDbCircle
 10
-60.80863255954252
 20
3075.607605431577
 30
0.0
 40
1.5
100
AcDbArc
 50
148.3881131426406
 51
166.4619414873748
  0
ARC
  5
3B9
330
1F
100
AcDbEntity
  8
LOCKABLE DOWEL SLEEVE
  6
HIDDEN1_01
 62
     1
100
AcDbCircle
 10
-60.80863255954252
 20
3075.607605431577
 30
0.0
 40
1.5
100
AcDbArc
 50
103.5380585126093
 51
121.3119961174167
  0
ARC
  5
3BA
330
1F
100
AcDbEntity
  8
LOCKABLE DOWEL SLEEVE
  6
HIDDEN1_01
 62
     1
100
AcDbCircle
 10
-60.80863255954252
 20
3075.607605431577
 30
0.0
 40
1.5
100
AcDbArc
 50
58.3881131426517
 51
76.46194148739064
  0
ARC
  5
3BB
330
1F
100
AcDbEntity
  8
LOCKABLE DOWEL SLEEVE
  6
HIDDEN1_01
 62
     1
100
AcDbCircle
 10
-60.80863255954252
 20
3075.607605431577
 30
0.0
 40
1.5
100
AcDbArc
 50
13.53805851262516
 51
31.31199611739892
  0
ARC
  5
3BC
330
1F
100
AcDbEntity
  8
LOCKABLE DOWEL SLEEVE
  6
HIDDEN1_01
 62
     1
100
AcDbCircle
 10
-60.80863255954252
 20
3075.607605431577
 30
0.0
 40
1.5
100
AcDbArc
 50
328.3881131426517
 51
346.4619414873749
  0
ARC
  5
3BD
330
1F
100
AcDbEntity
  8
LOCKABLE DOWEL SLEEVE
  6
HIDDEN1_01
 62
     1
100
AcDbCircle
 10
-60.80863255954252
 20
3075.607605431577
 30
0.0
 40
1.5
100
AcDbArc
 50
283.5380585126094
 51
301.3119961174167
  0
LINE
  5
3BE
330
1F
100
AcDbEntity
  8
LOCKABLE DOWEL SLEEVE
  6
HIDDEN2
 62
     1
100
AcDbLine
 10
-166.8086325595426
 20
3095.607605431579
 30
0.0
 11
-170.8086325595427
 21
3095.607605431579
 31
0.0
  0
LINE
  5
3BF
330
1F
100
AcDbEntity
  8
LOCKABLE DOWEL SLEEVE
  6
HIDDEN2
 62
     1
100
AcDbLine
 10
-166.8086325595426
 20
3055.607605431578
 30
0.0
 11
-170.8086325595427
 21
3055.607605431578
 31
0.0
  0
LINE
  5
4B2
330
1F
100
AcDbEntity
  8
LOCKABLE DOWEL LOCKING PLATE
  6
HIDDEN1_01
100
AcDbLine
 10
31.88420035990809
 20
3145.607605431579
 30
0.0
 11
36.88420035990809
 21
3145.607605431579
 31
0.0
  0
LINE
  5
4B3
330
1F
100
AcDbEntity
  8
LOCKABLE DOWEL LOCKING PLATE
  6
HIDDEN1_01
100
AcDbLine
 10
36.88420035990809
 20
3145.607605431579
 30
0.0
 11
36.88420035990809
 21
3061.607605431579
 31
0.0
  0
LINE
  5
4B4
330
1F
100
AcDbEntity
  8
LOCKABLE DOWEL LOCKING PLATE
  6
HIDDEN1_01
100
AcDbLine
 10
31.88420035990809
 20
3145.607605431579
 30
0.0
 11
31.88420035990809
 21
3061.607605431579
 31
0.0
  0
LINE
  5
4B5
330
1F
100
AcDbEntity
  8
LOCKABLE DOWEL LOCKING PLATE
  6
HIDDEN1_01
100
AcDbLine
 10
31.88420035990809
 20
3061.607605431579
 30
0.0
 11
36.88420035990809
 21
3061.607605431579
 31
0.0
  0
LINE
  5
4B6
330
1F
100
AcDbEntity
  8
LOCKABLE DOWEL LOCKING PLATE
  6
HIDDEN1_01
100
AcDbLine
 10
31.88420035990809
 20
3127.083495000038
 30
0.0
 11
36.88420035990809
 21
3127.083495000038
 31
0.0
  0
LINE
  5
4B7
330
1F
100
AcDbEntity
  8
LOCKABLE DOWEL LOCKING PLATE
  6
HIDDEN1_01
100
AcDbLine
 10
31.88420035990809
 20
3124.13171586312
 30
0.0
 11
36.88420035990809
 21
3124.13171586312
 31
0.0
  0
LINE
  5
51B
330
1F
100
AcDbEntity
  8
GRID
  6
CENTER
100
AcDbLine
 10
205.2906660366801
 20
3102.804750209886
 30
0.0
 11
205.2906660366801
 21
3048.410460653272
 31
0.0
  0
CIRCLE
  5
51C
330
1F
100
AcDbEntity
  8
LOCKABLE DOWEL SLEEVE
100
AcDbCircle
 10
205.2906660366801
 20
3093.197645641173
 30
0.0
 40
0.4112911480472038
  0
INSERT
  5
51D
330
1F
100
AcDbEntity
  8
LOCKABLE DOWEL SLEEVE
100
AcDbBlockReference
  2
*X0
 10
9.391947280262513
 20
2945.296413059754
 30
0.0
1001
ACAD
1000
HATCH
1002
{
1070
    16
1000
ANSI31
1040
0.02
1040
0.0
1002
}
  0
LINE
  5
51E
330
1F
100
AcDbEntity
  8
LOCKABLE DOWEL SLEEVE
  6
Continuous
100
AcDbLine
 10
165.2906660366801
 20
3055.607605431579
 30
0.0
 11
245.2906660366801
 21
3055.607605431579
 31
0.0
  0
LINE
  5
51F
330
1F
100
AcDbEntity
  8
LOCKABLE DOWEL SLEEVE
  6
Continuous
100
AcDbLine
 10
165.2906660366801
 20
3095.607605431579
 30
0.0
 11
245.2906660366801
 21
3095.607605431579
 31
0.0
  0
LINE
  5
520
330
1F
100
AcDbEntity
  8
LOCKABLE DOWEL SLEEVE
100
AcDbLine
 10
150.2906660366801
 20
3025.607605431579
 30
0.0
 11
260.2906660366802
 21
3025.607605431579
 31
0.0
  0
LINE
  5
521
330
1F
100
AcDbEntity
  8
LOCKABLE DOWEL SLEEVE
100
AcDbLine
 10
150.2906660366801
 20
3125.607605431579
 30
0.0
 11
260.2906660366802
 21
3125.607605431579
 31
0.0
  0
LINE
  5
522
330
1F
100
AcDbEntity
  8
LOCKABLE DOWEL SLEEVE
  6
Continuous
100
AcDbLine
 10
165.2906660366801
 20
3095.607605431579
 30
0.0
 11
165.2906660366801
 21
3055.607605431579
 31
0.0
  0
LINE
  5
523
330
1F
100
AcDbEntity
  8
LOCKABLE DOWEL SLEEVE
100
AcDbLine
 10
150.2906660366801
 20
3125.607605431579
 30
0.0
 11
150.2906660366801
 21
3025.607605431579
 31
0.0
  0
CIRCLE
  5
524
330
1F
100
AcDbEntity
  8
LOCKABLE DOWEL SLEEVE
100
AcDbCircle
 10
158.2906660366801
 20
3033.662014784689
 30
0.0
 40
2.5
  0
CIRCLE
  5
525
330
1F
100
AcDbEntity
  8
LOCKABLE DOWEL SLEEVE
100
AcDbCircle
 10
158.2906660366801
 20
3117.553196078469
 30
0.0
 40
2.5
  0
LINE
  5
526
330
1F
100
AcDbEntity
  8
LOCKABLE DOWEL SLEEVE
  6
CENTER2
100
AcDbLine
 10
158.2906660366801
 20
3124.210499449957
 30
0.0
 11
158.2906660366801
 21
3111.0047114132
 31
0.0
  0
LINE
  5
527
330
1F
100
AcDbEntity
  8
LOCKABLE DOWEL SLEEVE
  6
Continuous
100
AcDbLine
 10
245.2906660366801
 20
3095.607605431579
 30
0.0
 11
245.2906660366801
 21
3055.607605431579
 31
0.0
  0
LINE
  5
528
330
1F
100
AcDbEntity
  8
LOCKABLE DOWEL SLEEVE
100
AcDbLine
 10
260.2906660366802
 20
3125.607605431579
 30
0.0
 11
260.2906660366802
 21
3025.607605431579
 31
0.0
  0
CIRCLE
  5
529
330
1F
100
AcDbEntity
  8
LOCKABLE DOWEL SLEEVE
100
AcDbCircle
 10
252.2906660366801
 20
3033.662014784689
 30
0.0
 40
2.5
  0
CIRCLE
  5
52A
330
1F
100
AcDbEntity
  8
LOCKABLE DOWEL SLEEVE
100
AcDbCircle
 10
252.2906660366801
 20
3117.553196078469
 30
0.0
 40
2.5
  0
LINE
  5
52B
330
1F
100
AcDbEntity
  8
LOCKABLE DOWEL SLEEVE
  6
CENTER2
100
AcDbLine
 10
151.6877720183014
 20
3117.607605431579
 30
0.0
 11
164.8935600550588
 21
3117.607605431579
 31
0.0
  0
LINE
  5
52C
330
1F
100
AcDbEntity
  8
LOCKABLE DOWEL SLEEVE
  6
Continuous
100
AcDbLine
 10
167.129195417256
 20
3093.607605431579
 30
0.0
 11
167.129195417256
 21
3057.607605431579
 31
0.0
  0
LINE
  5
52D
330
1F
100
AcDbEntity
  8
LOCKABLE DOWEL SLEEVE
  6
Continuous
100
AcDbLine
 10
243.129195417256
 20
3093.607605431579
 30
0.0
 11
243.129195417256
 21
3057.607605431579
 31
0.0
  0
LINE
  5
52E
330
1F
100
AcDbEntity
  8
LOCKABLE DOWEL SLEEVE
  6
Continuous
100
AcDbLine
 10
165.129195417256
 20
3095.607605431579
 30
0.0
 11
165.129195417256
 21
3055.607605431579
 31
0.0
  0
LINE
  5
52F
330
1F
100
AcDbEntity
  8
LOCKABLE DOWEL SLEEVE
  6
Continuous
100
AcDbLine
 10
245.129195417256
 20
3095.607605431579
 30
0.0
 11
245.129195417256
 21
3055.607605431579
 31
0.0
  0
LINE
  5
530
330
1F
100
AcDbEntity
  8
LOCKABLE DOWEL SLEEVE
  6
Continuous
100
AcDbLine
 10
167.129195417256
 20
3057.607605431579
 30
0.0
 11
243.129195417256
 21
3057.607605431579
 31
0.0
  0
LINE
  5
531
330
1F
100
AcDbEntity
  8
LOCKABLE DOWEL SLEEVE
  6
Continuous
100
AcDbLine
 10
165.129195417256
 20
3055.607605431579
 30
0.0
 11
245.129195417256
 21
3055.607605431579
 31
0.0
  0
LINE
  5
532
330
1F
100
AcDbEntity
  8
GRID
  6
CENTER
100
AcDbLine
 10
172.4417212475119
 20
3075.607605431579
 30
0.0
 11
238.1396108258483
 21
3075.607605431579
 31
0.0
  0
LINE
  5
533
330
1F
100
AcDbEntity
  8
LOCKABLE DOWEL SLEEVE
  6
Continuous
100
AcDbLine
 10
167.129195417256
 20
3093.607605431579
 30
0.0
 11
243.129195417256
 21
3093.607605431579
 31
0.0
  0
LINE
  5
534
330
1F
100
AcDbEntity
  8
LOCKABLE DOWEL SLEEVE
  6
Continuous
100
AcDbLine
 10
165.129195417256
 20
3095.607605431579
 30
0.0
 11
245.129195417256
 21
3095.607605431579
 31
0.0
  0
CIRCLE
  5
535
330
1F
100
AcDbEntity
  8
LOCKABLE DOWEL SLEEVE
100
AcDbCircle
 10
205.2906660366801
 20
3075.607605431579
 30
0.0
 40
17.59004020959437
  0
CIRCLE
  5
536
330
1F
100
AcDbEntity
  8
LOCKABLE DOWEL SLEEVE
100
AcDbCircle
 10
205.2906660366801
 20
3075.607605431579
 30
0.0
 40
15.69907307306174
  0
LINE
  5
537
330
1F
100
AcDbEntity
  8
LOCKABLE DOWEL SLEEVE
  6
CENTER2
100
AcDbLine
 10
252.2906660366801
 20
3124.210499449957
 30
0.0
 11
252.2906660366801
 21
3111.0047114132
 31
0.0
  0
LINE
  5
538
330
1F
100
AcDbEntity
  8
LOCKABLE DOWEL SLEEVE
  6
CENTER2
100
AcDbLine
 10
258.8935600550589
 20
3117.607605431579
 30
0.0
 11
245.6877720183014
 21
3117.607605431579
 31
0.0
  0
LINE
  5
539
330
1F
100
AcDbEntity
  8
LOCKABLE DOWEL SLEEVE
  6
CENTER2
100
AcDbLine
 10
158.2906660366801
 20
3027.004711413201
 30
0.0
 11
158.2906660366801
 21
3040.210499449957
 31
0.0
  0
LINE
  5
53A
330
1F
100
AcDbEntity
  8
LOCKABLE DOWEL SLEEVE
  6
CENTER2
100
AcDbLine
 10
151.6877720183014
 20
3033.607605431579
 30
0.0
 11
164.8935600550588
 21
3033.607605431579
 31
0.0
  0
LINE
  5
53B
330
1F
100
AcDbEntity
  8
LOCKABLE DOWEL SLEEVE
  6
CENTER2
100
AcDbLine
 10
252.2906660366801
 20
3027.004711413201
 30
0.0
 11
252.2906660366801
 21
3040.210499449957
 31
0.0
  0
LINE
  5
53C
330
1F
100
AcDbEntity
  8
LOCKABLE DOWEL SLEEVE
  6
CENTER2
100
AcDbLine
 10
258.8935600550589
 20
3033.607605431579
 30
0.0
 11
245.6877720183014
 21
3033.607605431579
 31
0.0
  0
LINE
  5
53D
330
1F
100
AcDbEntity
  8
LOCKABLE DOWEL FORMER
  6
Continuous
370
    15
100
AcDbLine
 10
161.5592008158742
 20
3125.661031232513
 30
0.0
 11
161.4393681996812
 21
3224.017836236443
 31
0.0
  0
LINE
  5
53E
330
1F
100
AcDbEntity
  8
LOCKABLE DOWEL FORMER
  6
Continuous
370
     0
100
AcDbLine
 10
249.1420940559258
 20
3224.017836236443
 30
0.0
 11
249.0222614397329
 21
3125.661031232513
 31
0.0
  0
MTEXT
  5
53F
330
1F
100
AcDbEntity
  8
SPECP
 62
     6
100
AcDbMText
 10
-402.4210772721339
 20
3001.312481591416
 30
0.0
 40
5.0
 41
2822.017960969965
 46
0.0
 71
     1
 72
     5
  1
{\H2x;ESDQ-L20W}
  7
ROMANS
 73
     1
 44
1.0
  0
LINE
  5
544
330
1F
100
AcDbEntity
  8
LOCKABLE DOWEL FORMER
100
AcDbLine
 10
161.4393681996812
 20
3224.017836236443
 30
0.0
 11
249.1420940559258
 21
3224.017836236443
 31
0.0
  0
LINE
  5
546
330
1F
100
AcDbEntity
  8
LOCKABLE DOWEL SLEEVE
  6
HIDDEN1_01
100
AcDbLine
 10
161.4637351189174
 20
3204.017836236442
 30
0.0
 11
249.1177271366896
 21
3204.017836236442
 31
0.0
  0
ARC
  5
547
330
1F
100
AcDbEntity
  8
LOCKABLE DOWEL LOCKING PLATE
  6
HIDDEN1_01
100
AcDbCircle
 10
205.2906660366801
 20
3075.607605431579
 30
0.0
 40
10.0
100
AcDbArc
 50
0.0
 51
180.0
  0
LINE
  5
548
330
1F
100
AcDbEntity
  8
LOCKABLE DOWEL LOCKING PLATE
  6
HIDDEN1_01
100
AcDbLine
 10
215.2906660366801
 20
3075.607605431579
 30
0.0
 11
215.2906660366801
 21
3063.607605431579
 31
0.0
  0
ARC
  5
549
330
1F
100
AcDbEntity
  8
LOCKABLE DOWEL LOCKING PLATE
  6
HIDDEN1_01
100
AcDbCircle
 10
217.2906660366801
 20
3063.607605431579
 30
0.0
 40
2.0
100
AcDbArc
 50
180.0
 51
351.7962735766335
  0
LINE
  5
54A
330
1F
100
AcDbEntity
  8
LOCKABLE DOWEL LOCKING PLATE
  6
HIDDEN1_01
100
AcDbLine
 10
219.2701999416059
 20
3063.322218817932
 30
0.0
 11
230.3066256850766
 21
3124.13171586312
 31
0.0
  0
LINE
  5
54B
330
1F
100
AcDbEntity
  8
LOCKABLE DOWEL LOCKING PLATE
  6
HIDDEN1_01
100
AcDbLine
 10
230.8423494262469
 20
3127.083495000038
 30
0.0
 11
232.5639240512733
 21
3136.569182622731
 31
0.0
  0
LINE
  5
54C
330
1F
100
AcDbEntity
  8
LOCKABLE DOWEL LOCKING PLATE
  6
HIDDEN1_01
100
AcDbLine
 10
195.2906660366801
 20
3075.607605431579
 30
0.0
 11
195.29066603668
 21
3063.607605431579
 31
0.0
  0
ARC
  5
54D
330
1F
100
AcDbEntity
  8
LOCKABLE DOWEL LOCKING PLATE
  6
HIDDEN1_01
100
AcDbCircle
 10
193.29066603668
 20
3063.607605431579
 30
0.0
 40
2.0
100
AcDbArc
 50
188.2037264233665
 51
0.0
  0
LINE
  5
54E
330
1F
100
AcDbEntity
  8
LOCKABLE DOWEL LOCKING PLATE
  6
HIDDEN1_01
100
AcDbLine
 10
191.3111321317542
 20
3063.322218817932
 30
0.0
 11
180.2747063882835
 21
3124.13171586312
 31
0.0
  0
LINE
  5
54F
330
1F
100
AcDbEntity
  8
LOCKABLE DOWEL LOCKING PLATE
  6
HIDDEN1_01
100
AcDbLine
 10
179.7389826471134
 20
3127.083495000038
 30
0.0
 11
178.0174080220871
 21
3136.569182622731
 31
0.0
  0
ARC
  5
550
330
1F
100
AcDbEntity
  8
LOCKABLE DOWEL LOCKING PLATE
  6
HIDDEN1_01
100
AcDbCircle
 10
180.0068445176984
 20
3125.607605431579
 30
0.0
 40
1.5
100
AcDbArc
 50
280.2867441474147
 51
100.2867441474146
  0
ARC
  5
551
330
1F
100
AcDbEntity
  8
LOCKABLE DOWEL LOCKING PLATE
  6
HIDDEN1_01
100
AcDbCircle
 10
230.5744875556618
 20
3125.607605431579
 30
0.0
 40
1.5
100
AcDbArc
 50
79.71325585258536
 51
259.7132558525854
  0
ARC
  5
552
330
1F
100
AcDbEntity
  8
LOCKABLE DOWEL LOCKING PLATE
  6
HIDDEN1_01
100
AcDbCircle
 10
205.2906660366801
 20
3059.607605431579
 30
0.0
 40
85.99999999999983
100
AcDbArc
 50
73.98013053629899
 51
106.019869463701
  0
ARC
  5
553
330
1F
100
AcDbEntity
  8
LOCKABLE DOWEL LOCKING PLATE
  6
HIDDEN1_01
100
AcDbCircle
 10
227.6442921564093
 20
3137.462055524681
 30
0.0
 40
5.0
100
AcDbArc
 50
349.7132558525897
 51
73.98013053629899
1001
GENIUS_GENODEF_13
1002
{
1000
HIER
1070
     0
1002
}
1002
{
1000
MANEDIT
1070
     0
1002
}
1002
{
1000
NOSEL
1070
     0
1002
}
1002
{
1000
BEHIND
1070
     0
1002
}
1002
{
1000
OTHER
1070
     0
1002
}
1002
{
1000
REACTOR
1002
}
1001
GENIUS_GENOBJ-N-FIL_13
1002
{
1000
OWNER
1000
GEN
1002
}
  0
ARC
  5
554
330
1F
100
AcDbEntity
  8
LOCKABLE DOWEL LOCKING PLATE
  6
HIDDEN1_01
100
AcDbCircle
 10
182.9370399169511
 20
3137.462055524681
 30
0.0
 40
5.0
100
AcDbArc
 50
106.019869463701
 51
190.2867441474102
1001
GENIUS_GENODEF_13
1002
{
1000
HIER
1070
     0
1002
}
1002
{
1000
MANEDIT
1070
     0
1002
}
1002
{
1000
NOSEL
1070
     0
1002
}
1002
{
1000
BEHIND
1070
     0
1002
}
1002
{
1000
OTHER
1070
     0
1002
}
1002
{
1000
REACTOR
1002
}
1001
GENIUS_GENOBJ-N-FIL_13
1002
{
1000
OWNER
1000
GEN
1002
}
  0
LINE
  5
5F1
330
1F
100
AcDbEntity
  8
LOCKABLE DOWEL SLEEVE
100
AcDbLine
 10
-44.90688596190843
 20
2838.707219774914
 30
0.0
 11
-166.8086325595424
 21
2838.707219774915
 31
0.0
  0
LINE
  5
5F2
330
1F
100
AcDbEntity
  8
LOCKABLE DOWEL SLEEVE
100
AcDbLine
 10
-44.90688596190843
 20
2918.707219774914
 30
0.0
 11
-166.8086325595424
 21
2918.707219774915
 31
0.0
  0
LINE
  5
5F3
330
1F
100
AcDbEntity
  8
LOCKABLE DOWEL SLEEVE
100
AcDbLine
 10
-166.8086325595424
 20
2933.537090169436
 30
0.0
 11
-170.8086325595424
 21
2933.537090169436
 31
0.0
  0
LINE
  5
5F4
330
1F
100
AcDbEntity
  8
LOCKABLE DOWEL SLEEVE
100
AcDbLine
 10
-166.8086325595424
 20
2823.537090169436
 30
0.0
 11
-170.8086325595424
 21
2823.537090169436
 31
0.0
  0
LINE
  5
5F5
330
1F
100
AcDbEntity
  8
LOCKABLE DOWEL SLEEVE
100
AcDbLine
 10
-166.8086325595424
 20
2933.537090169437
 30
0.0
 11
-166.8086325595424
 21
2823.537090169436
 31
0.0
  0
LINE
  5
5F6
330
1F
100
AcDbEntity
  8
LOCKABLE DOWEL SLEEVE
100
AcDbLine
 10
-170.8086325595424
 20
2933.537090169436
 30
0.0
 11
-170.8086325595424
 21
2823.537090169436
 31
0.0
  0
LINE
  5
5F7
330
1F
100
AcDbEntity
  8
LOCKABLE DOWEL SLEEVE
  6
CENTER2
100
AcDbLine
 10
-176.7254531793306
 20
2925.537090169436
 30
0.0
 11
-160.9334025458267
 21
2925.537090169436
 31
0.0
  0
LINE
  5
5F8
330
1F
100
AcDbEntity
  8
LOCKABLE DOWEL SLEEVE
  6
CENTER2
100
AcDbLine
 10
-176.7254531793306
 20
2831.537090169436
 30
0.0
 11
-160.9334025458267
 21
2831.537090169436
 31
0.0
  0
LINE
  5
5F9
330
1F
100
AcDbEntity
  8
LOCKABLE DOWEL FORMER
  6
HIDDEN1_01
100
AcDbLine
 10
31.88420035990789
 20
2851.184269969059
 30
0.0
 11
31.88420035990789
 21
2905.889531439093
 31
0.0
  0
LINE
  5
5FA
330
1F
100
AcDbEntity
  8
LOCKABLE DOWEL FORMER
  6
HIDDEN1_01
100
AcDbLine
 10
36.88420035990789
 20
2851.184269969058
 30
0.0
 11
36.88420035990789
 21
2905.889531439093
 31
0.0
  0
LINE
  5
5FB
330
1F
100
AcDbEntity
  8
LOCKABLE DOWEL FORMER
  6
HIDDEN1_01
100
AcDbLine
 10
31.88420035990789
 20
2851.184269969059
 30
0.0
 11
36.88420035990789
 21
2851.184269969059
 31
0.0
  0
LINE
  5
5FC
330
1F
100
AcDbEntity
  8
LOCKABLE DOWEL FORMER
  6
HIDDEN1_01
100
AcDbLine
 10
31.88420035990789
 20
2905.889531439093
 30
0.0
 11
36.88420035990789
 21
2905.889531439093
 31
0.0
  0
LINE
  5
5FD
330
1F
100
AcDbEntity
  8
LOCKABLE DOWEL SLEEVE
  6
HIDDEN1_01
100
AcDbLine
 10
-8.865799640091829
 20
2888.537090169437
 30
0.0
 11
-3.965799640091852
 21
2888.537090169437
 31
0.0
  0
ARC
  5
5FE
330
1F
100
AcDbEntity
  8
LOCKABLE DOWEL SLEEVE
  6
HIDDEN1_01
100
AcDbCircle
 10
-8.865799640091829
 20
2888.837090169437
 30
0.0
 40
0.3
100
AcDbArc
 50
180.0
 51
270.0
  0
LINE
  5
5FF
330
1F
100
AcDbEntity
  8
LOCKABLE DOWEL SLEEVE
  6
HIDDEN1_01
100
AcDbLine
 10
1.334200359908159
 20
2888.537090169437
 30
0.0
 11
6.234200359908136
 21
2888.537090169437
 31
0.0
  0
LINE
  5
600
330
1F
100
AcDbEntity
  8
LOCKABLE DOWEL SLEEVE
  6
HIDDEN1_01
100
AcDbLine
 10
11.53420035990815
 20
2888.537090169437
 30
0.0
 11
16.43420035990812
 21
2888.537090169437
 31
0.0
  0
LINE
  5
601
330
1F
100
AcDbEntity
  8
LOCKABLE DOWEL SLEEVE
  6
HIDDEN1_01
100
AcDbLine
 10
21.73420035990814
 20
2888.537090169437
 30
0.0
 11
26.63420035990823
 21
2888.537090169437
 31
0.0
  0
LINE
  5
602
330
1F
100
AcDbEntity
  8
LOCKABLE DOWEL SLEEVE
  6
HIDDEN1_01
100
AcDbLine
 10
31.93420035990813
 20
2888.537090169437
 30
0.0
 11
36.8342003599081
 21
2888.537090169437
 31
0.0
  0
LINE
  5
603
330
1F
100
AcDbEntity
  8
LOCKABLE DOWEL SLEEVE
  6
HIDDEN1_01
100
AcDbLine
 10
42.13420035990806
 20
2888.537090169437
 30
0.0
 11
47.03420035990803
 21
2888.537090169437
 31
0.0
  0
LINE
  5
604
330
1F
100
AcDbEntity
  8
LOCKABLE DOWEL SLEEVE
  6
HIDDEN1_01
100
AcDbLine
 10
-3.165799640091783
 20
2864.037090169436
 30
0.0
 11
-2.465799640091852
 21
2864.037090169436
 31
0.0
  0
LINE
  5
605
330
1F
100
AcDbEntity
  8
LOCKABLE DOWEL SLEEVE
  6
HIDDEN1_01
100
AcDbLine
 10
37.63420035990812
 20
2864.037090169436
 30
0.0
 11
41.3342003599081
 21
2864.037090169436
 31
0.0
  0
LINE
  5
606
330
1F
100
AcDbEntity
  8
LOCKABLE DOWEL SLEEVE
  6
HIDDEN1_01
100
AcDbLine
 10
37.13420035990811
 20
2864.537090169437
 30
0.0
 11
37.63420035990812
 21
2864.037090169436
 31
0.0
  0
LINE
  5
607
330
1F
100
AcDbEntity
  8
LOCKABLE DOWEL SLEEVE
  6
HIDDEN1_01
100
AcDbLine
 10
47.8342003599081
 20
2864.037090169436
 30
0.0
 11
51.53420035990809
 21
2864.037090169436
 31
0.0
  0
LINE
  5
608
330
1F
100
AcDbEntity
  8
LOCKABLE DOWEL SLEEVE
  6
HIDDEN1_01
100
AcDbLine
 10
47.3342003599081
 20
2864.537090169437
 30
0.0
 11
47.8342003599081
 21
2864.037090169436
 31
0.0
  0
LINE
  5
609
330
1F
100
AcDbEntity
  8
LOCKABLE DOWEL SLEEVE
  6
HIDDEN1_01
100
AcDbLine
 10
-9.16579964009184
 20
2893.037090169436
 30
0.0
 11
-9.66579964009184
 21
2893.537090169436
 31
0.0
  0
LINE
  5
60A
330
1F
100
AcDbEntity
  8
LOCKABLE DOWEL SLEEVE
  6
HIDDEN1_01
100
AcDbLine
 10
-3.165799640091783
 20
2893.037090169436
 30
0.0
 11
-2.465799640091852
 21
2893.037090169436
 31
0.0
  0
LINE
  5
60B
330
1F
100
AcDbEntity
  8
LOCKABLE DOWEL SLEEVE
  6
HIDDEN1_01
100
AcDbLine
 10
37.63420035990806
 20
2893.037090169436
 30
0.0
 11
41.3342003599081
 21
2893.037090169436
 31
0.0
  0
LINE
  5
60C
330
1F
100
AcDbEntity
  8
LOCKABLE DOWEL SLEEVE
  6
HIDDEN1_01
100
AcDbLine
 10
41.8342003599081
 20
2892.537090169437
 30
0.0
 11
41.3342003599081
 21
2893.037090169436
 31
0.0
  0
LINE
  5
60D
330
1F
100
AcDbEntity
  8
LOCKABLE DOWEL SLEEVE
  6
HIDDEN1_01
100
AcDbLine
 10
37.13420035990806
 20
2892.537090169437
 30
0.0
 11
37.63420035990806
 21
2893.037090169436
 31
0.0
  0
LINE
  5
60E
330
1F
100
AcDbEntity
  8
LOCKABLE DOWEL SLEEVE
  6
HIDDEN1_01
100
AcDbLine
 10
47.8342003599081
 20
2893.037090169436
 30
0.0
 11
51.53420035990803
 21
2893.037090169436
 31
0.0
  0
LINE
  5
60F
330
1F
100
AcDbEntity
  8
LOCKABLE DOWEL SLEEVE
  6
HIDDEN1_01
100
AcDbLine
 10
47.3342003599081
 20
2892.537090169437
 30
0.0
 11
47.8342003599081
 21
2893.037090169436
 31
0.0
  0
LINE
  5
610
330
1F
100
AcDbEntity
  8
LOCKABLE DOWEL SLEEVE
  6
HIDDEN1_01
100
AcDbLine
 10
52.03420035990803
 20
2892.537090169437
 30
0.0
 11
52.03420035990809
 21
2864.537090169437
 31
0.0
  0
LINE
  5
611
330
1F
100
AcDbEntity
  8
LOCKABLE DOWEL SLEEVE
  6
HIDDEN1_01
100
AcDbLine
 10
51.53420035990809
 20
2864.037090169436
 30
0.0
 11
52.03420035990809
 21
2864.537090169437
 31
0.0
  0
LINE
  5
612
330
1F
100
AcDbEntity
  8
LOCKABLE DOWEL SLEEVE
  6
HIDDEN1_01
100
AcDbLine
 10
51.53420035990803
 20
2893.037090169436
 30
0.0
 11
52.03420035990803
 21
2892.537090169437
 31
0.0
  0
LINE
  5
613
330
1F
100
AcDbEntity
  8
LOCKABLE DOWEL SLEEVE
  6
HIDDEN1_01
100
AcDbLine
 10
47.3342003599081
 20
2892.537090169437
 30
0.0
 11
47.3342003599081
 21
2864.537090169437
 31
0.0
  0
LINE
  5
614
330
1F
100
AcDbEntity
  8
LOCKABLE DOWEL SLEEVE
  6
HIDDEN1_01
100
AcDbLine
 10
41.8342003599081
 20
2892.537090169437
 30
0.0
 11
41.8342003599081
 21
2864.537090169437
 31
0.0
  0
LINE
  5
615
330
1F
100
AcDbEntity
  8
LOCKABLE DOWEL SLEEVE
  6
HIDDEN1_01
100
AcDbLine
 10
41.3342003599081
 20
2864.037090169436
 30
0.0
 11
41.8342003599081
 21
2864.537090169437
 31
0.0
  0
LINE
  5
616
330
1F
100
AcDbEntity
  8
LOCKABLE DOWEL SLEEVE
  6
HIDDEN1_01
100
AcDbLine
 10
37.13420035990806
 20
2892.537090169437
 30
0.0
 11
37.13420035990811
 21
2864.537090169437
 31
0.0
  0
LINE
  5
617
330
1F
100
AcDbEntity
  8
LOCKABLE DOWEL SLEEVE
  6
HIDDEN1_01
100
AcDbLine
 10
27.43420035990812
 20
2864.037090169436
 30
0.0
 11
31.13420035990806
 21
2864.037090169436
 31
0.0
  0
LINE
  5
618
330
1F
100
AcDbEntity
  8
LOCKABLE DOWEL SLEEVE
  6
HIDDEN1_01
100
AcDbLine
 10
31.63420035990806
 20
2864.537090169437
 30
0.0
 11
31.13420035990806
 21
2864.037090169436
 31
0.0
  0
LINE
  5
619
330
1F
100
AcDbEntity
  8
LOCKABLE DOWEL SLEEVE
  6
HIDDEN1_01
100
AcDbLine
 10
26.93420035990813
 20
2864.537090169437
 30
0.0
 11
27.43420035990812
 21
2864.037090169436
 31
0.0
  0
LINE
  5
61A
330
1F
100
AcDbEntity
  8
LOCKABLE DOWEL SLEEVE
  6
HIDDEN1_01
100
AcDbLine
 10
27.43420035990818
 20
2893.037090169436
 30
0.0
 11
31.13420035990812
 21
2893.037090169436
 31
0.0
  0
LINE
  5
61B
330
1F
100
AcDbEntity
  8
LOCKABLE DOWEL SLEEVE
  6
HIDDEN1_01
100
AcDbLine
 10
31.63420035990812
 20
2892.537090169437
 30
0.0
 11
31.13420035990812
 21
2893.037090169436
 31
0.0
  0
LINE
  5
61C
330
1F
100
AcDbEntity
  8
LOCKABLE DOWEL SLEEVE
  6
HIDDEN1_01
100
AcDbLine
 10
26.93420035990818
 20
2892.537090169437
 30
0.0
 11
27.43420035990818
 21
2893.037090169436
 31
0.0
  0
LINE
  5
61D
330
1F
100
AcDbEntity
  8
LOCKABLE DOWEL SLEEVE
  6
HIDDEN1_01
100
AcDbLine
 10
31.63420035990812
 20
2892.537090169437
 30
0.0
 11
31.63420035990806
 21
2864.537090169437
 31
0.0
  0
LINE
  5
61E
330
1F
100
AcDbEntity
  8
LOCKABLE DOWEL SLEEVE
  6
HIDDEN1_01
100
AcDbLine
 10
26.93420035990818
 20
2892.537090169437
 30
0.0
 11
26.93420035990813
 21
2864.537090169437
 31
0.0
  0
LINE
  5
61F
330
1F
100
AcDbEntity
  8
LOCKABLE DOWEL SLEEVE
  6
HIDDEN1_01
100
AcDbLine
 10
17.23420035990814
 20
2864.037090169436
 30
0.0
 11
20.93420035990807
 21
2864.037090169436
 31
0.0
  0
LINE
  5
620
330
1F
100
AcDbEntity
  8
LOCKABLE DOWEL SLEEVE
  6
HIDDEN1_01
100
AcDbLine
 10
17.23420035990814
 20
2893.037090169436
 30
0.0
 11
20.93420035990813
 21
2893.037090169436
 31
0.0
  0
LINE
  5
621
330
1F
100
AcDbEntity
  8
LOCKABLE DOWEL SLEEVE
  6
HIDDEN1_01
100
AcDbLine
 10
16.73420035990814
 20
2892.537090169437
 30
0.0
 11
17.23420035990814
 21
2893.037090169436
 31
0.0
  0
LINE
  5
622
330
1F
100
AcDbEntity
  8
LOCKABLE DOWEL SLEEVE
  6
HIDDEN1_01
100
AcDbLine
 10
21.43420035990812
 20
2892.537090169437
 30
0.0
 11
20.93420035990813
 21
2893.037090169436
 31
0.0
  0
LINE
  5
623
330
1F
100
AcDbEntity
  8
LOCKABLE DOWEL SLEEVE
  6
HIDDEN1_01
100
AcDbLine
 10
21.43420035990812
 20
2892.537090169437
 30
0.0
 11
21.43420035990807
 21
2864.537090169437
 31
0.0
  0
LINE
  5
624
330
1F
100
AcDbEntity
  8
LOCKABLE DOWEL SLEEVE
  6
HIDDEN1_01
100
AcDbLine
 10
20.93420035990807
 20
2864.037090169436
 30
0.0
 11
21.43420035990807
 21
2864.537090169437
 31
0.0
  0
LINE
  5
625
330
1F
100
AcDbEntity
  8
LOCKABLE DOWEL SLEEVE
  6
HIDDEN1_01
100
AcDbLine
 10
16.73420035990814
 20
2892.537090169437
 30
0.0
 11
16.73420035990814
 21
2864.537090169437
 31
0.0
  0
LINE
  5
626
330
1F
100
AcDbEntity
  8
LOCKABLE DOWEL SLEEVE
  6
HIDDEN1_01
100
AcDbLine
 10
17.23420035990814
 20
2864.037090169436
 30
0.0
 11
16.73420035990814
 21
2864.537090169437
 31
0.0
  0
LINE
  5
627
330
1F
100
AcDbEntity
  8
LOCKABLE DOWEL SLEEVE
  6
HIDDEN1_01
100
AcDbLine
 10
7.034200359908147
 20
2864.037090169436
 30
0.0
 11
10.73420035990808
 21
2864.037090169436
 31
0.0
  0
LINE
  5
628
330
1F
100
AcDbEntity
  8
LOCKABLE DOWEL SLEEVE
  6
HIDDEN1_01
100
AcDbLine
 10
6.534200359908147
 20
2864.537090169437
 30
0.0
 11
7.034200359908147
 21
2864.037090169436
 31
0.0
  0
LINE
  5
629
330
1F
100
AcDbEntity
  8
LOCKABLE DOWEL SLEEVE
  6
HIDDEN1_01
100
AcDbLine
 10
7.034200359908147
 20
2893.037090169436
 30
0.0
 11
10.73420035990813
 21
2893.037090169436
 31
0.0
  0
LINE
  5
62A
330
1F
100
AcDbEntity
  8
LOCKABLE DOWEL SLEEVE
  6
HIDDEN1_01
100
AcDbLine
 10
11.23420035990813
 20
2892.537090169437
 30
0.0
 11
10.73420035990813
 21
2893.037090169436
 31
0.0
  0
LINE
  5
62B
330
1F
100
AcDbEntity
  8
LOCKABLE DOWEL SLEEVE
  6
HIDDEN1_01
100
AcDbLine
 10
6.534200359908147
 20
2892.537090169437
 30
0.0
 11
7.034200359908147
 21
2893.037090169436
 31
0.0
  0
LINE
  5
62C
330
1F
100
AcDbEntity
  8
LOCKABLE DOWEL SLEEVE
  6
HIDDEN1_01
100
AcDbLine
 10
11.23420035990813
 20
2892.537090169437
 30
0.0
 11
11.23420035990808
 21
2864.537090169437
 31
0.0
  0
LINE
  5
62D
330
1F
100
AcDbEntity
  8
LOCKABLE DOWEL SLEEVE
  6
HIDDEN1_01
100
AcDbLine
 10
10.73420035990808
 20
2864.037090169436
 30
0.0
 11
11.23420035990808
 21
2864.537090169437
 31
0.0
  0
LINE
  5
62E
330
1F
100
AcDbEntity
  8
LOCKABLE DOWEL SLEEVE
  6
HIDDEN1_01
100
AcDbLine
 10
6.534200359908147
 20
2892.537090169437
 30
0.0
 11
6.534200359908147
 21
2864.537090169437
 31
0.0
  0
LINE
  5
62F
330
1F
100
AcDbEntity
  8
LOCKABLE DOWEL SLEEVE
  6
HIDDEN1_01
100
AcDbLine
 10
-3.165799640091783
 20
2864.037090169436
 30
0.0
 11
0.5342003599080912
 21
2864.037090169436
 31
0.0
  0
LINE
  5
630
330
1F
100
AcDbEntity
  8
LOCKABLE DOWEL SLEEVE
  6
HIDDEN1_01
100
AcDbLine
 10
-3.665799640091783
 20
2864.537090169437
 30
0.0
 11
-3.165799640091783
 21
2864.037090169436
 31
0.0
  0
LINE
  5
631
330
1F
100
AcDbEntity
  8
LOCKABLE DOWEL SLEEVE
  6
HIDDEN1_01
100
AcDbLine
 10
-3.16579964009184
 20
2893.037090169436
 30
0.0
 11
0.5342003599082048
 21
2893.037090169436
 31
0.0
  0
LINE
  5
632
330
1F
100
AcDbEntity
  8
LOCKABLE DOWEL SLEEVE
  6
HIDDEN1_01
100
AcDbLine
 10
-3.66579964009184
 20
2892.537090169437
 30
0.0
 11
-3.16579964009184
 21
2893.037090169436
 31
0.0
  0
LINE
  5
633
330
1F
100
AcDbEntity
  8
LOCKABLE DOWEL SLEEVE
  6
HIDDEN1_01
100
AcDbLine
 10
1.034200359908204
 20
2892.537090169437
 30
0.0
 11
1.034200359908091
 21
2864.537090169437
 31
0.0
  0
LINE
  5
634
330
1F
100
AcDbEntity
  8
LOCKABLE DOWEL SLEEVE
  6
HIDDEN1_01
100
AcDbLine
 10
0.5342003599082048
 20
2893.037090169436
 30
0.0
 11
1.034200359908204
 21
2892.537090169437
 31
0.0
  0
LINE
  5
635
330
1F
100
AcDbEntity
  8
LOCKABLE DOWEL SLEEVE
  6
HIDDEN1_01
100
AcDbLine
 10
0.5342003599080912
 20
2864.037090169436
 30
0.0
 11
1.034200359908091
 21
2864.537090169437
 31
0.0
  0
LINE
  5
636
330
1F
100
AcDbEntity
  8
LOCKABLE DOWEL SLEEVE
  6
HIDDEN1_01
100
AcDbLine
 10
-3.66579964009184
 20
2892.537090169437
 30
0.0
 11
-3.665799640091783
 21
2864.537090169437
 31
0.0
  0
ARC
  5
637
330
1F
100
AcDbEntity
  8
LOCKABLE DOWEL SLEEVE
  6
HIDDEN1_01
100
AcDbCircle
 10
-3.965799640091852
 20
2888.837090169437
 30
0.0
 40
0.3
100
AcDbArc
 50
270.0
 51
0.0
  0
LINE
  5
638
330
1F
100
AcDbEntity
  8
LOCKABLE DOWEL SLEEVE
  6
HIDDEN1_01
100
AcDbLine
 10
-9.16579964009184
 20
2893.037090169436
 30
0.0
 11
-9.16579964009184
 21
2864.037090169436
 31
0.0
  0
LINE
  5
639
330
1F
100
AcDbEntity
  8
LOCKABLE DOWEL SLEEVE
  6
HIDDEN1_01
100
AcDbLine
 10
-9.66579964009184
 20
2863.537090169437
 30
0.0
 11
-9.16579964009184
 21
2864.037090169436
 31
0.0
  0
LINE
  5
63A
330
1F
100
AcDbEntity
  8
LOCKABLE DOWEL SLEEVE
  6
HIDDEN1_01
100
AcDbLine
 10
-9.66579964009184
 20
2893.537090169436
 30
0.0
 11
-9.66579964009184
 21
2884.964787652012
 31
0.0
  0
LINE
  5
63B
330
1F
100
AcDbEntity
  8
LOCKABLE DOWEL SLEEVE
  6
HIDDEN1_01
100
AcDbLine
 10
-9.66579964009184
 20
2863.537090169437
 30
0.0
 11
-9.66579964009184
 21
2871.15427952052
 31
0.0
  0
LINE
  5
63C
330
1F
100
AcDbEntity
  8
LOCKABLE DOWEL SLEEVE
  6
HIDDEN1_01
100
AcDbLine
 10
-3.16579964009184
 20
2893.037090169436
 30
0.0
 11
-3.16579964009184
 21
2884.964787652012
 31
0.0
  0
LINE
  5
63D
330
1F
100
AcDbEntity
  8
LOCKABLE DOWEL SLEEVE
  6
HIDDEN1_01
100
AcDbLine
 10
-3.16579964009184
 20
2864.037090169436
 30
0.0
 11
-3.16579964009184
 21
2871.15427952052
 31
0.0
  0
LINE
  5
63E
330
1F
100
AcDbEntity
  8
LOCKABLE DOWEL SLEEVE
  6
HIDDEN1_01
100
AcDbLine
 10
0.5342003599082048
 20
2893.037090169436
 30
0.0
 11
0.5342003599082048
 21
2884.964787652012
 31
0.0
  0
LINE
  5
63F
330
1F
100
AcDbEntity
  8
LOCKABLE DOWEL SLEEVE
  6
HIDDEN1_01
100
AcDbLine
 10
0.5342003599082048
 20
2864.037090169436
 30
0.0
 11
0.5342003599082048
 21
2871.15427952052
 31
0.0
  0
LINE
  5
640
330
1F
100
AcDbEntity
  8
LOCKABLE DOWEL SLEEVE
  6
HIDDEN1_01
100
AcDbLine
 10
7.034200359908147
 20
2893.037090169436
 30
0.0
 11
7.034200359908147
 21
2884.964787652012
 31
0.0
  0
LINE
  5
641
330
1F
100
AcDbEntity
  8
LOCKABLE DOWEL SLEEVE
  6
HIDDEN1_01
100
AcDbLine
 10
7.034200359908147
 20
2864.037090169436
 30
0.0
 11
7.034200359908147
 21
2871.15427952052
 31
0.0
  0
LINE
  5
642
330
1F
100
AcDbEntity
  8
LOCKABLE DOWEL SLEEVE
  6
HIDDEN1_01
100
AcDbLine
 10
10.73420035990813
 20
2893.037090169436
 30
0.0
 11
10.73420035990813
 21
2884.964787652012
 31
0.0
  0
LINE
  5
643
330
1F
100
AcDbEntity
  8
LOCKABLE DOWEL SLEEVE
  6
HIDDEN1_01
100
AcDbLine
 10
10.73420035990813
 20
2864.037090169436
 30
0.0
 11
10.73420035990813
 21
2871.15427952052
 31
0.0
  0
LINE
  5
644
330
1F
100
AcDbEntity
  8
LOCKABLE DOWEL SLEEVE
  6
HIDDEN1_01
100
AcDbLine
 10
17.23420035990814
 20
2893.037090169436
 30
0.0
 11
17.23420035990814
 21
2884.964787652012
 31
0.0
  0
LINE
  5
645
330
1F
100
AcDbEntity
  8
LOCKABLE DOWEL SLEEVE
  6
HIDDEN1_01
100
AcDbLine
 10
17.23420035990814
 20
2864.037090169436
 30
0.0
 11
17.23420035990814
 21
2871.15427952052
 31
0.0
  0
LINE
  5
646
330
1F
100
AcDbEntity
  8
LOCKABLE DOWEL SLEEVE
  6
HIDDEN1_01
100
AcDbLine
 10
20.93420035990813
 20
2893.037090169436
 30
0.0
 11
20.93420035990813
 21
2884.964787652012
 31
0.0
  0
LINE
  5
647
330
1F
100
AcDbEntity
  8
LOCKABLE DOWEL SLEEVE
  6
HIDDEN1_01
100
AcDbLine
 10
20.93420035990813
 20
2864.037090169436
 30
0.0
 11
20.93420035990813
 21
2871.15427952052
 31
0.0
  0
LINE
  5
648
330
1F
100
AcDbEntity
  8
LOCKABLE DOWEL SLEEVE
  6
HIDDEN1_01
100
AcDbLine
 10
27.43420035990818
 20
2893.037090169436
 30
0.0
 11
27.43420035990818
 21
2884.964787652012
 31
0.0
  0
LINE
  5
649
330
1F
100
AcDbEntity
  8
LOCKABLE DOWEL SLEEVE
  6
HIDDEN1_01
100
AcDbLine
 10
27.43420035990818
 20
2864.037090169436
 30
0.0
 11
27.43420035990818
 21
2871.15427952052
 31
0.0
  0
LINE
  5
64A
330
1F
100
AcDbEntity
  8
LOCKABLE DOWEL SLEEVE
  6
HIDDEN1_01
100
AcDbLine
 10
31.13420035990812
 20
2893.037090169436
 30
0.0
 11
31.13420035990812
 21
2884.964787652012
 31
0.0
  0
LINE
  5
64B
330
1F
100
AcDbEntity
  8
LOCKABLE DOWEL SLEEVE
  6
HIDDEN1_01
100
AcDbLine
 10
31.13420035990812
 20
2864.037090169436
 30
0.0
 11
31.13420035990812
 21
2871.15427952052
 31
0.0
  0
LINE
  5
64C
330
1F
100
AcDbEntity
  8
LOCKABLE DOWEL SLEEVE
  6
HIDDEN1_01
100
AcDbLine
 10
37.63420035990806
 20
2893.037090169436
 30
0.0
 11
37.63420035990806
 21
2884.964787652012
 31
0.0
  0
LINE
  5
64D
330
1F
100
AcDbEntity
  8
LOCKABLE DOWEL SLEEVE
  6
HIDDEN1_01
100
AcDbLine
 10
37.63420035990806
 20
2864.037090169436
 30
0.0
 11
37.63420035990806
 21
2871.15427952052
 31
0.0
  0
LINE
  5
64E
330
1F
100
AcDbEntity
  8
LOCKABLE DOWEL SLEEVE
  6
HIDDEN1_01
100
AcDbLine
 10
41.3342003599081
 20
2893.037090169436
 30
0.0
 11
41.3342003599081
 21
2884.964787652012
 31
0.0
  0
LINE
  5
64F
330
1F
100
AcDbEntity
  8
LOCKABLE DOWEL SLEEVE
  6
HIDDEN1_01
100
AcDbLine
 10
41.3342003599081
 20
2864.037090169436
 30
0.0
 11
41.3342003599081
 21
2871.15427952052
 31
0.0
  0
LINE
  5
650
330
1F
100
AcDbEntity
  8
LOCKABLE DOWEL SLEEVE
  6
HIDDEN1_01
100
AcDbLine
 10
47.8342003599081
 20
2893.037090169436
 30
0.0
 11
47.8342003599081
 21
2884.964787652012
 31
0.0
  0
LINE
  5
651
330
1F
100
AcDbEntity
  8
LOCKABLE DOWEL SLEEVE
  6
HIDDEN1_01
100
AcDbLine
 10
47.8342003599081
 20
2864.037090169436
 30
0.0
 11
47.8342003599081
 21
2871.15427952052
 31
0.0
  0
LINE
  5
652
330
1F
100
AcDbEntity
  8
LOCKABLE DOWEL SLEEVE
  6
HIDDEN1_01
100
AcDbLine
 10
51.53420035990803
 20
2893.037090169436
 30
0.0
 11
51.53420035990803
 21
2884.964787652012
 31
0.0
  0
LINE
  5
653
330
1F
100
AcDbEntity
  8
LOCKABLE DOWEL SLEEVE
  6
HIDDEN1_01
100
AcDbLine
 10
51.53420035990803
 20
2864.037090169436
 30
0.0
 11
51.53420035990803
 21
2871.15427952052
 31
0.0
  0
ARC
  5
654
330
1F
100
AcDbEntity
  8
LOCKABLE DOWEL SLEEVE
  6
HIDDEN1_01
100
AcDbCircle
 10
1.334200359908159
 20
2888.837090169437
 30
0.0
 40
0.3
100
AcDbArc
 50
180.0
 51
270.0
  0
ARC
  5
655
330
1F
100
AcDbEntity
  8
LOCKABLE DOWEL SLEEVE
  6
HIDDEN1_01
100
AcDbCircle
 10
6.234200359908136
 20
2888.837090169437
 30
0.0
 40
0.3
100
AcDbArc
 50
270.0
 51
0.0
  0
ARC
  5
656
330
1F
100
AcDbEntity
  8
LOCKABLE DOWEL SLEEVE
  6
HIDDEN1_01
100
AcDbCircle
 10
11.53420035990815
 20
2888.837090169437
 30
0.0
 40
0.3
100
AcDbArc
 50
180.0
 51
270.0
  0
ARC
  5
657
330
1F
100
AcDbEntity
  8
LOCKABLE DOWEL SLEEVE
  6
HIDDEN1_01
100
AcDbCircle
 10
16.43420035990812
 20
2888.837090169437
 30
0.0
 40
0.3
100
AcDbArc
 50
270.0
 51
0.0
  0
ARC
  5
658
330
1F
100
AcDbEntity
  8
LOCKABLE DOWEL SLEEVE
  6
HIDDEN1_01
100
AcDbCircle
 10
21.73420035990819
 20
2888.837090169437
 30
0.0
 40
0.3
100
AcDbArc
 50
180.0
 51
270.0
  0
ARC
  5
659
330
1F
100
AcDbEntity
  8
LOCKABLE DOWEL SLEEVE
  6
HIDDEN1_01
100
AcDbCircle
 10
26.63420035990817
 20
2888.837090169437
 30
0.0
 40
0.3
100
AcDbArc
 50
270.0
 51
0.0
  0
ARC
  5
65A
330
1F
100
AcDbEntity
  8
LOCKABLE DOWEL SLEEVE
  6
HIDDEN1_01
100
AcDbCircle
 10
31.93420035990813
 20
2888.837090169437
 30
0.0
 40
0.3
100
AcDbArc
 50
180.0
 51
270.0
  0
ARC
  5
65B
330
1F
100
AcDbEntity
  8
LOCKABLE DOWEL SLEEVE
  6
HIDDEN1_01
100
AcDbCircle
 10
36.8342003599081
 20
2888.837090169437
 30
0.0
 40
0.3
100
AcDbArc
 50
270.0
 51
0.0
  0
ARC
  5
65C
330
1F
100
AcDbEntity
  8
LOCKABLE DOWEL SLEEVE
  6
HIDDEN1_01
100
AcDbCircle
 10
42.13420035990806
 20
2888.837090169437
 30
0.0
 40
0.3
100
AcDbArc
 50
180.0
 51
270.0
  0
ARC
  5
65D
330
1F
100
AcDbEntity
  8
LOCKABLE DOWEL SLEEVE
  6
HIDDEN1_01
100
AcDbCircle
 10
47.03420035990803
 20
2888.837090169437
 30
0.0
 40
0.3
100
AcDbArc
 50
270.0
 51
0.0
  0
LINE
  5
65E
330
1F
100
AcDbEntity
  8
LOCKABLE DOWEL SLEEVE
  6
HIDDEN1_01
100
AcDbLine
 10
-8.865799640091829
 20
2868.537090169437
 30
0.0
 11
-3.965799640091852
 21
2868.537090169437
 31
0.0
  0
ARC
  5
65F
330
1F
100
AcDbEntity
  8
LOCKABLE DOWEL SLEEVE
  6
HIDDEN1_01
100
AcDbCircle
 10
-8.865799640091829
 20
2868.237090169437
 30
0.0
 40
0.3
100
AcDbArc
 50
90.0
 51
180.0
  0
LINE
  5
660
330
1F
100
AcDbEntity
  8
LOCKABLE DOWEL SLEEVE
  6
HIDDEN1_01
100
AcDbLine
 10
1.334200359908159
 20
2868.537090169437
 30
0.0
 11
6.234200359908136
 21
2868.537090169437
 31
0.0
  0
LINE
  5
661
330
1F
100
AcDbEntity
  8
LOCKABLE DOWEL SLEEVE
  6
HIDDEN1_01
100
AcDbLine
 10
11.53420035990815
 20
2868.537090169437
 30
0.0
 11
16.43420035990812
 21
2868.537090169437
 31
0.0
  0
LINE
  5
662
330
1F
100
AcDbEntity
  8
LOCKABLE DOWEL SLEEVE
  6
HIDDEN1_01
100
AcDbLine
 10
21.73420035990814
 20
2868.537090169437
 30
0.0
 11
26.63420035990823
 21
2868.537090169437
 31
0.0
  0
LINE
  5
663
330
1F
100
AcDbEntity
  8
LOCKABLE DOWEL SLEEVE
  6
HIDDEN1_01
100
AcDbLine
 10
31.93420035990813
 20
2868.537090169437
 30
0.0
 11
36.8342003599081
 21
2868.537090169437
 31
0.0
  0
LINE
  5
664
330
1F
100
AcDbEntity
  8
LOCKABLE DOWEL SLEEVE
  6
HIDDEN1_01
100
AcDbLine
 10
42.13420035990806
 20
2868.537090169437
 30
0.0
 11
47.03420035990803
 21
2868.537090169437
 31
0.0
  0
ARC
  5
665
330
1F
100
AcDbEntity
  8
LOCKABLE DOWEL SLEEVE
  6
HIDDEN1_01
100
AcDbCircle
 10
-3.965799640091852
 20
2868.237090169437
 30
0.0
 40
0.3
100
AcDbArc
 50
0.0
 51
90.0
  0
ARC
  5
666
330
1F
100
AcDbEntity
  8
LOCKABLE DOWEL SLEEVE
  6
HIDDEN1_01
100
AcDbCircle
 10
1.334200359908159
 20
2868.237090169437
 30
0.0
 40
0.3
100
AcDbArc
 50
90.0
 51
180.0
  0
ARC
  5
667
330
1F
100
AcDbEntity
  8
LOCKABLE DOWEL SLEEVE
  6
HIDDEN1_01
100
AcDbCircle
 10
6.234200359908136
 20
2868.237090169437
 30
0.0
 40
0.3
100
AcDbArc
 50
0.0
 51
90.0
  0
ARC
  5
668
330
1F
100
AcDbEntity
  8
LOCKABLE DOWEL SLEEVE
  6
HIDDEN1_01
100
AcDbCircle
 10
11.53420035990815
 20
2868.237090169437
 30
0.0
 40
0.3
100
AcDbArc
 50
90.0
 51
180.0
  0
ARC
  5
669
330
1F
100
AcDbEntity
  8
LOCKABLE DOWEL SLEEVE
  6
HIDDEN1_01
100
AcDbCircle
 10
16.43420035990812
 20
2868.237090169437
 30
0.0
 40
0.3
100
AcDbArc
 50
0.0
 51
90.0
  0
ARC
  5
66A
330
1F
100
AcDbEntity
  8
LOCKABLE DOWEL SLEEVE
  6
HIDDEN1_01
100
AcDbCircle
 10
21.73420035990819
 20
2868.237090169437
 30
0.0
 40
0.3
100
AcDbArc
 50
90.0
 51
180.0
  0
ARC
  5
66B
330
1F
100
AcDbEntity
  8
LOCKABLE DOWEL SLEEVE
  6
HIDDEN1_01
100
AcDbCircle
 10
26.63420035990817
 20
2868.237090169437
 30
0.0
 40
0.3
100
AcDbArc
 50
0.0
 51
90.0
  0
ARC
  5
66C
330
1F
100
AcDbEntity
  8
LOCKABLE DOWEL SLEEVE
  6
HIDDEN1_01
100
AcDbCircle
 10
31.93420035990813
 20
2868.237090169436
 30
0.0
 40
0.3
100
AcDbArc
 50
90.0
 51
180.0
  0
ARC
  5
66D
330
1F
100
AcDbEntity
  8
LOCKABLE DOWEL SLEEVE
  6
HIDDEN1_01
100
AcDbCircle
 10
36.8342003599081
 20
2868.237090169436
 30
0.0
 40
0.3
100
AcDbArc
 50
0.0
 51
90.0
  0
ARC
  5
66E
330
1F
100
AcDbEntity
  8
LOCKABLE DOWEL SLEEVE
  6
HIDDEN1_01
100
AcDbCircle
 10
42.13420035990806
 20
2868.237090169437
 30
0.0
 40
0.3
100
AcDbArc
 50
90.0
 51
180.0
  0
ARC
  5
66F
330
1F
100
AcDbEntity
  8
LOCKABLE DOWEL SLEEVE
  6
HIDDEN1_01
100
AcDbCircle
 10
47.03420035990803
 20
2868.237090169437
 30
0.0
 40
0.3
100
AcDbArc
 50
0.0
 51
90.0
  0
LINE
  5
670
330
1F
100
AcDbEntity
  8
LOCKABLE DOWEL SLEEVE
  6
HIDDEN1_01
100
AcDbLine
 10
-9.66579964009184
 20
2893.537090169436
 30
0.0
 11
-170.8086325595424
 21
2893.537090169437
 31
0.0
  0
LINE
  5
671
330
1F
100
AcDbEntity
  8
LOCKABLE DOWEL SLEEVE
  6
HIDDEN1_01
100
AcDbLine
 10
-170.8086325595424
 20
2863.537090169437
 30
0.0
 11
-9.66579964009184
 21
2863.537090169437
 31
0.0
  0
LINE
  5
672
330
1F
100
AcDbEntity
  8
LOCKABLE DOWEL SLEEVE
  6
HIDDEN1_01
100
AcDbLine
 10
-0.8086325595423531
 20
2918.707219774915
 30
0.0
 11
-0.8086325595423531
 21
2838.707219774914
 31
0.0
  0
LINE
  5
673
330
1F
100
AcDbEntity
  8
LOCKABLE DOWEL SLEEVE
  6
HIDDEN1_01
100
AcDbLine
 10
-44.90688596190843
 20
2918.707219774914
 30
0.0
 11
-0.8086325595423531
 21
2918.707219774915
 31
0.0
  0
LINE
  5
674
330
1F
100
AcDbEntity
  8
LOCKABLE DOWEL SLEEVE
  6
HIDDEN1_01
100
AcDbLine
 10
-44.90688596190843
 20
2838.707219774914
 30
0.0
 11
-0.8086325595423531
 21
2838.707219774914
 31
0.0
  0
LINE
  5
6FF
330
1F
100
AcDbEntity
  8
LOCKABLE DOWEL SLEEVE
  6
HIDDEN1_01
100
AcDbLine
 10
-8.865799640091857
 20
3085.607605431579
 30
0.0
 11
-3.96579964009188
 21
3085.607605431579
 31
0.0
  0
LINE
  5
700
330
1F
100
AcDbEntity
  8
LOCKABLE DOWEL SLEEVE
100
AcDbLine
 10
-215.965799640092
 20
3060.607605431579
 30
0.0
 11
-170.8086325595427
 21
3060.60760543158
 31
0.0
  0
LINE
  5
701
330
1F
100
AcDbEntity
  8
LOCKABLE DOWEL SLEEVE
  6
HIDDEN1_01
100
AcDbLine
 10
-3.165799640091812
 20
3061.107605431579
 30
0.0
 11
-2.46579964009188
 21
3061.107605431579
 31
0.0
  0
LINE
  5
702
330
1F
100
AcDbEntity
  8
LOCKABLE DOWEL SLEEVE
  6
HIDDEN1_01
100
AcDbLine
 10
37.63420035990808
 20
3061.107605431579
 30
0.0
 11
41.33420035990807
 21
3061.107605431579
 31
0.0
  0
LINE
  5
703
330
1F
100
AcDbEntity
  8
LOCKABLE DOWEL SLEEVE
  6
HIDDEN1_01
100
AcDbLine
 10
37.13420035990809
 20
3061.607605431579
 30
0.0
 11
37.63420035990808
 21
3061.107605431579
 31
0.0
  0
LINE
  5
704
330
1F
100
AcDbEntity
  8
LOCKABLE DOWEL SLEEVE
  6
HIDDEN1_01
100
AcDbLine
 10
47.83420035990807
 20
3061.107605431579
 30
0.0
 11
51.53420035990806
 21
3061.107605431579
 31
0.0
  0
LINE
  5
705
330
1F
100
AcDbEntity
  8
LOCKABLE DOWEL SLEEVE
  6
HIDDEN1_01
100
AcDbLine
 10
47.33420035990807
 20
3061.607605431579
 30
0.0
 11
47.83420035990807
 21
3061.107605431579
 31
0.0
  0
LINE
  5
706
330
1F
100
AcDbEntity
  8
LOCKABLE DOWEL SLEEVE
  6
HIDDEN1_01
100
AcDbLine
 10
-217.9657996400919
 20
3062.607605431578
 30
0.0
 11
-215.965799640092
 21
3060.607605431579
 31
0.0
  0
LINE
  5
707
330
1F
100
AcDbEntity
  8
LOCKABLE DOWEL SLEEVE
100
AcDbLine
 10
-215.965799640092
 20
3090.607605431579
 30
0.0
 11
-170.8086325595427
 21
3090.607605431579
 31
0.0
  0
LINE
  5
708
330
1F
100
AcDbEntity
  8
LOCKABLE DOWEL SLEEVE
  6
HIDDEN1_01
100
AcDbLine
 10
-9.165799640091869
 20
3090.107605431579
 30
0.0
 11
-9.665799640091869
 21
3090.607605431579
 31
0.0
  0
LINE
  5
709
330
1F
100
AcDbEntity
  8
LOCKABLE DOWEL SLEEVE
  6
HIDDEN1_01
100
AcDbLine
 10
-3.165799640091812
 20
3090.107605431579
 30
0.0
 11
-2.46579964009188
 21
3090.107605431579
 31
0.0
  0
LINE
  5
70A
330
1F
100
AcDbEntity
  8
LOCKABLE DOWEL SLEEVE
  6
HIDDEN1_01
100
AcDbLine
 10
37.63420035990803
 20
3090.107605431579
 30
0.0
 11
41.33420035990807
 21
3090.107605431579
 31
0.0
  0
LINE
  5
70B
330
1F
100
AcDbEntity
  8
LOCKABLE DOWEL SLEEVE
  6
HIDDEN1_01
100
AcDbLine
 10
41.83420035990807
 20
3089.607605431579
 30
0.0
 11
41.33420035990807
 21
3090.107605431579
 31
0.0
  0
LINE
  5
70C
330
1F
100
AcDbEntity
  8
LOCKABLE DOWEL SLEEVE
  6
HIDDEN1_01
100
AcDbLine
 10
37.13420035990803
 20
3089.607605431579
 30
0.0
 11
37.63420035990803
 21
3090.107605431579
 31
0.0
  0
LINE
  5
70D
330
1F
100
AcDbEntity
  8
LOCKABLE DOWEL SLEEVE
  6
HIDDEN1_01
100
AcDbLine
 10
47.83420035990807
 20
3090.107605431579
 30
0.0
 11
51.53420035990801
 21
3090.107605431579
 31
0.0
  0
LINE
  5
70E
330
1F
100
AcDbEntity
  8
LOCKABLE DOWEL SLEEVE
  6
HIDDEN1_01
100
AcDbLine
 10
47.33420035990807
 20
3089.607605431579
 30
0.0
 11
47.83420035990807
 21
3090.107605431579
 31
0.0
  0
LINE
  5
70F
330
1F
100
AcDbEntity
  8
LOCKABLE DOWEL SLEEVE
  6
HIDDEN1_01
100
AcDbLine
 10
-217.9657996400919
 20
3088.607605431579
 30
0.0
 11
-215.965799640092
 21
3090.607605431579
 31
0.0
  0
LINE
  5
710
330
1F
100
AcDbEntity
  8
LOCKABLE DOWEL SLEEVE
  6
HIDDEN1_01
100
AcDbLine
 10
-217.9657996400919
 20
3088.607605431579
 30
0.0
 11
-217.9657996400919
 21
3062.607605431578
 31
0.0
  0
LINE
  5
711
330
1F
100
AcDbEntity
  8
LOCKABLE DOWEL SLEEVE
100
AcDbLine
 10
-190.9657996400919
 20
3090.607605431579
 30
0.0
 11
-190.9657996400919
 21
3060.607605431579
 31
0.0
  0
LINE
  5
712
330
1F
100
AcDbEntity
  8
LOCKABLE DOWEL SLEEVE
  6
HIDDEN1_01
100
AcDbLine
 10
52.034200359908
 20
3089.607605431579
 30
0.0
 11
52.03420035990806
 21
3061.607605431579
 31
0.0
  0
LINE
  5
713
330
1F
100
AcDbEntity
  8
LOCKABLE DOWEL SLEEVE
  6
HIDDEN1_01
100
AcDbLine
 10
51.53420035990806
 20
3061.107605431579
 30
0.0
 11
52.03420035990806
 21
3061.607605431579
 31
0.0
  0
LINE
  5
714
330
1F
100
AcDbEntity
  8
LOCKABLE DOWEL SLEEVE
  6
HIDDEN1_01
100
AcDbLine
 10
51.53420035990801
 20
3090.107605431579
 30
0.0
 11
52.034200359908
 21
3089.607605431579
 31
0.0
  0
LINE
  5
715
330
1F
100
AcDbEntity
  8
LOCKABLE DOWEL SLEEVE
  6
HIDDEN1_01
100
AcDbLine
 10
47.33420035990807
 20
3089.607605431579
 30
0.0
 11
47.33420035990807
 21
3061.607605431579
 31
0.0
  0
LINE
  5
716
330
1F
100
AcDbEntity
  8
LOCKABLE DOWEL SLEEVE
  6
HIDDEN1_01
100
AcDbLine
 10
41.83420035990807
 20
3089.607605431579
 30
0.0
 11
41.83420035990807
 21
3061.607605431579
 31
0.0
  0
LINE
  5
717
330
1F
100
AcDbEntity
  8
LOCKABLE DOWEL SLEEVE
  6
HIDDEN1_01
100
AcDbLine
 10
41.33420035990807
 20
3061.107605431579
 30
0.0
 11
41.83420035990807
 21
3061.607605431579
 31
0.0
  0
LINE
  5
718
330
1F
100
AcDbEntity
  8
LOCKABLE DOWEL SLEEVE
  6
HIDDEN1_01
100
AcDbLine
 10
37.13420035990803
 20
3089.607605431579
 30
0.0
 11
37.13420035990809
 21
3061.607605431579
 31
0.0
  0
LINE
  5
719
330
1F
100
AcDbEntity
  8
LOCKABLE DOWEL SLEEVE
  6
HIDDEN1_01
100
AcDbLine
 10
-217.9657996400919
 20
3088.260105431579
 30
0.0
 11
-190.9657996400919
 21
3088.260105431579
 31
0.0
  0
LINE
  5
71A
330
1F
100
AcDbEntity
  8
LOCKABLE DOWEL SLEEVE
  6
HIDDEN1_01
100
AcDbLine
 10
-215.965799640092
 20
3090.607605431579
 30
0.0
 11
-215.965799640092
 21
3060.607605431579
 31
0.0
  0
LINE
  5
71C
330
1F
100
AcDbEntity
  8
LOCKABLE DOWEL SLEEVE
  6
HIDDEN1_01
100
AcDbLine
 10
-217.9657996400919
 20
3062.955105431579
 30
0.0
 11
-190.9657996400919
 21
3062.955105431579
 31
0.0
  0
LINE
  5
71D
330
1F
100
AcDbEntity
  8
LOCKABLE DOWEL SLEEVE
  6
HIDDEN1_01
100
AcDbLine
 10
27.4342003599081
 20
3061.107605431579
 30
0.0
 11
31.13420035990803
 21
3061.107605431579
 31
0.0
  0
LINE
  5
71E
330
1F
100
AcDbEntity
  8
LOCKABLE DOWEL SLEEVE
  6
HIDDEN1_01
100
AcDbLine
 10
31.63420035990803
 20
3061.607605431579
 30
0.0
 11
31.13420035990803
 21
3061.107605431579
 31
0.0
  0
LINE
  5
71F
330
1F
100
AcDbEntity
  8
LOCKABLE DOWEL SLEEVE
  6
HIDDEN1_01
100
AcDbLine
 10
26.9342003599081
 20
3061.607605431579
 30
0.0
 11
27.4342003599081
 21
3061.107605431579
 31
0.0
  0
LINE
  5
720
330
1F
100
AcDbEntity
  8
LOCKABLE DOWEL SLEEVE
  6
HIDDEN1_01
100
AcDbLine
 10
27.43420035990816
 20
3090.107605431579
 30
0.0
 11
31.13420035990809
 21
3090.107605431579
 31
0.0
  0
LINE
  5
721
330
1F
100
AcDbEntity
  8
LOCKABLE DOWEL SLEEVE
  6
HIDDEN1_01
100
AcDbLine
 10
31.63420035990809
 20
3089.607605431579
 30
0.0
 11
31.13420035990809
 21
3090.107605431579
 31
0.0
  0
LINE
  5
722
330
1F
100
AcDbEntity
  8
LOCKABLE DOWEL SLEEVE
  6
HIDDEN1_01
100
AcDbLine
 10
26.93420035990815
 20
3089.607605431579
 30
0.0
 11
27.43420035990816
 21
3090.107605431579
 31
0.0
  0
LINE
  5
723
330
1F
100
AcDbEntity
  8
LOCKABLE DOWEL SLEEVE
  6
HIDDEN1_01
100
AcDbLine
 10
31.63420035990809
 20
3089.607605431579
 30
0.0
 11
31.63420035990803
 21
3061.607605431579
 31
0.0
  0
LINE
  5
724
330
1F
100
AcDbEntity
  8
LOCKABLE DOWEL SLEEVE
  6
HIDDEN1_01
100
AcDbLine
 10
26.93420035990815
 20
3089.607605431579
 30
0.0
 11
26.9342003599081
 21
3061.607605431579
 31
0.0
  0
LINE
  5
725
330
1F
100
AcDbEntity
  8
LOCKABLE DOWEL SLEEVE
  6
HIDDEN1_01
100
AcDbLine
 10
17.23420035990811
 20
3061.107605431579
 30
0.0
 11
20.93420035990804
 21
3061.107605431579
 31
0.0
  0
LINE
  5
726
330
1F
100
AcDbEntity
  8
LOCKABLE DOWEL SLEEVE
  6
HIDDEN1_01
100
AcDbLine
 10
17.23420035990811
 20
3090.107605431579
 30
0.0
 11
20.9342003599081
 21
3090.107605431579
 31
0.0
  0
LINE
  5
727
330
1F
100
AcDbEntity
  8
LOCKABLE DOWEL SLEEVE
  6
HIDDEN1_01
100
AcDbLine
 10
21.4342003599081
 20
3089.607605431579
 30
0.0
 11
20.9342003599081
 21
3090.107605431579
 31
0.0
  0
LINE
  5
728
330
1F
100
AcDbEntity
  8
LOCKABLE DOWEL SLEEVE
  6
HIDDEN1_01
100
AcDbLine
 10
16.73420035990811
 20
3089.607605431579
 30
0.0
 11
17.23420035990811
 21
3090.107605431579
 31
0.0
  0
LINE
  5
729
330
1F
100
AcDbEntity
  8
LOCKABLE DOWEL SLEEVE
  6
HIDDEN1_01
100
AcDbLine
 10
21.4342003599081
 20
3089.607605431579
 30
0.0
 11
21.43420035990804
 21
3061.607605431579
 31
0.0
  0
LINE
  5
72A
330
1F
100
AcDbEntity
  8
LOCKABLE DOWEL SLEEVE
  6
HIDDEN1_01
100
AcDbLine
 10
20.93420035990804
 20
3061.107605431579
 30
0.0
 11
21.43420035990804
 21
3061.607605431579
 31
0.0
  0
LINE
  5
72B
330
1F
100
AcDbEntity
  8
LOCKABLE DOWEL SLEEVE
  6
HIDDEN1_01
100
AcDbLine
 10
16.73420035990811
 20
3089.607605431579
 30
0.0
 11
16.73420035990811
 21
3061.607605431579
 31
0.0
  0
LINE
  5
72C
330
1F
100
AcDbEntity
  8
LOCKABLE DOWEL SLEEVE
  6
HIDDEN1_01
100
AcDbLine
 10
17.23420035990811
 20
3061.107605431579
 30
0.0
 11
16.73420035990811
 21
3061.607605431579
 31
0.0
  0
LINE
  5
72D
330
1F
100
AcDbEntity
  8
LOCKABLE DOWEL SLEEVE
  6
HIDDEN1_01
100
AcDbLine
 10
7.034200359908119
 20
3061.107605431579
 30
0.0
 11
10.73420035990805
 21
3061.107605431579
 31
0.0
  0
LINE
  5
72E
330
1F
100
AcDbEntity
  8
LOCKABLE DOWEL SLEEVE
  6
HIDDEN1_01
100
AcDbLine
 10
6.534200359908119
 20
3061.607605431579
 30
0.0
 11
7.034200359908119
 21
3061.107605431579
 31
0.0
  0
LINE
  5
72F
330
1F
100
AcDbEntity
  8
LOCKABLE DOWEL SLEEVE
  6
HIDDEN1_01
100
AcDbLine
 10
7.034200359908119
 20
3090.107605431579
 30
0.0
 11
10.73420035990811
 21
3090.107605431579
 31
0.0
  0
LINE
  5
730
330
1F
100
AcDbEntity
  8
LOCKABLE DOWEL SLEEVE
  6
HIDDEN1_01
100
AcDbLine
 10
11.23420035990811
 20
3089.607605431579
 30
0.0
 11
10.73420035990811
 21
3090.107605431579
 31
0.0
  0
LINE
  5
731
330
1F
100
AcDbEntity
  8
LOCKABLE DOWEL SLEEVE
  6
HIDDEN1_01
100
AcDbLine
 10
6.534200359908119
 20
3089.607605431579
 30
0.0
 11
7.034200359908119
 21
3090.107605431579
 31
0.0
  0
LINE
  5
732
330
1F
100
AcDbEntity
  8
LOCKABLE DOWEL SLEEVE
  6
HIDDEN1_01
100
AcDbLine
 10
11.23420035990811
 20
3089.607605431579
 30
0.0
 11
11.23420035990805
 21
3061.607605431579
 31
0.0
  0
LINE
  5
733
330
1F
100
AcDbEntity
  8
LOCKABLE DOWEL SLEEVE
  6
HIDDEN1_01
100
AcDbLine
 10
10.73420035990805
 20
3061.107605431579
 30
0.0
 11
11.23420035990805
 21
3061.607605431579
 31
0.0
  0
LINE
  5
734
330
1F
100
AcDbEntity
  8
LOCKABLE DOWEL SLEEVE
  6
HIDDEN1_01
100
AcDbLine
 10
6.534200359908119
 20
3089.607605431579
 30
0.0
 11
6.534200359908119
 21
3061.607605431579
 31
0.0
  0
LINE
  5
735
330
1F
100
AcDbEntity
  8
LOCKABLE DOWEL SLEEVE
  6
HIDDEN1_01
100
AcDbLine
 10
-3.165799640091812
 20
3061.107605431579
 30
0.0
 11
0.5342003599080627
 21
3061.107605431579
 31
0.0
  0
LINE
  5
736
330
1F
100
AcDbEntity
  8
LOCKABLE DOWEL SLEEVE
  6
HIDDEN1_01
100
AcDbLine
 10
-3.665799640091812
 20
3061.607605431579
 30
0.0
 11
-3.165799640091812
 21
3061.107605431579
 31
0.0
  0
LINE
  5
737
330
1F
100
AcDbEntity
  8
LOCKABLE DOWEL SLEEVE
  6
HIDDEN1_01
100
AcDbLine
 10
-3.165799640091869
 20
3090.107605431579
 30
0.0
 11
0.5342003599081764
 21
3090.107605431579
 31
0.0
  0
LINE
  5
738
330
1F
100
AcDbEntity
  8
LOCKABLE DOWEL SLEEVE
  6
HIDDEN1_01
100
AcDbLine
 10
-3.665799640091869
 20
3089.607605431579
 30
0.0
 11
-3.165799640091869
 21
3090.107605431579
 31
0.0
  0
LINE
  5
739
330
1F
100
AcDbEntity
  8
LOCKABLE DOWEL SLEEVE
  6
HIDDEN1_01
100
AcDbLine
 10
1.034200359908176
 20
3089.607605431579
 30
0.0
 11
1.034200359908062
 21
3061.607605431579
 31
0.0
  0
LINE
  5
73A
330
1F
100
AcDbEntity
  8
LOCKABLE DOWEL SLEEVE
  6
HIDDEN1_01
100
AcDbLine
 10
0.5342003599081764
 20
3090.107605431579
 30
0.0
 11
1.034200359908176
 21
3089.607605431579
 31
0.0
  0
LINE
  5
73B
330
1F
100
AcDbEntity
  8
LOCKABLE DOWEL SLEEVE
  6
HIDDEN1_01
100
AcDbLine
 10
0.5342003599080627
 20
3061.107605431579
 30
0.0
 11
1.034200359908062
 21
3061.607605431579
 31
0.0
  0
LINE
  5
73C
330
1F
100
AcDbEntity
  8
LOCKABLE DOWEL SLEEVE
  6
HIDDEN1_01
100
AcDbLine
 10
-3.665799640091869
 20
3089.607605431579
 30
0.0
 11
-3.665799640091869
 21
3061.607605431579
 31
0.0
  0
ARC
  5
73D
330
1F
100
AcDbEntity
  8
LOCKABLE DOWEL SLEEVE
  6
HIDDEN1_01
100
AcDbCircle
 10
-3.96579964009188
 20
3085.907605431578
 30
0.0
 40
0.3
100
AcDbArc
 50
270.0
 51
0.0
  0
LINE
  5
73E
330
1F
100
AcDbEntity
  8
LOCKABLE DOWEL SLEEVE
  6
HIDDEN1_01
100
AcDbLine
 10
-9.165799640091869
 20
3090.107605431579
 30
0.0
 11
-9.165799640091869
 21
3061.107605431579
 31
0.0
  0
ARC
  5
73F
330
1F
100
AcDbEntity
  8
LOCKABLE DOWEL SLEEVE
  6
HIDDEN1_01
100
AcDbCircle
 10
-8.865799640091857
 20
3085.907605431578
 30
0.0
 40
0.3
100
AcDbArc
 50
180.0
 51
270.0
  0
LINE
  5
740
330
1F
100
AcDbEntity
  8
LOCKABLE DOWEL SLEEVE
  6
HIDDEN1_01
100
AcDbLine
 10
-9.665799640091869
 20
3060.607605431579
 30
0.0
 11
-9.165799640091869
 21
3061.107605431579
 31
0.0
  0
LINE
  5
741
330
1F
100
AcDbEntity
  8
LOCKABLE DOWEL SLEEVE
  6
HIDDEN1_01
100
AcDbLine
 10
-9.665799640091869
 20
3090.607605431579
 30
0.0
 11
-9.665799640091869
 21
3082.035302914154
 31
0.0
  0
LINE
  5
742
330
1F
100
AcDbEntity
  8
LOCKABLE DOWEL SLEEVE
  6
HIDDEN1_01
100
AcDbLine
 10
-9.665799640091869
 20
3060.607605431579
 30
0.0
 11
-9.665799640091869
 21
3068.224794782663
 31
0.0
  0
LINE
  5
743
330
1F
100
AcDbEntity
  8
LOCKABLE DOWEL SLEEVE
  6
HIDDEN1_01
100
AcDbLine
 10
-3.165799640091869
 20
3090.107605431579
 30
0.0
 11
-3.165799640091869
 21
3082.035302914154
 31
0.0
  0
LINE
  5
744
330
1F
100
AcDbEntity
  8
LOCKABLE DOWEL SLEEVE
  6
HIDDEN1_01
100
AcDbLine
 10
-3.165799640091869
 20
3061.107605431579
 30
0.0
 11
-3.165799640091869
 21
3068.224794782663
 31
0.0
  0
LINE
  5
745
330
1F
100
AcDbEntity
  8
LOCKABLE DOWEL SLEEVE
  6
HIDDEN1_01
100
AcDbLine
 10
0.5342003599081764
 20
3090.107605431579
 30
0.0
 11
0.5342003599081764
 21
3082.035302914154
 31
0.0
  0
LINE
  5
746
330
1F
100
AcDbEntity
  8
LOCKABLE DOWEL SLEEVE
  6
HIDDEN1_01
100
AcDbLine
 10
0.5342003599081764
 20
3061.107605431579
 30
0.0
 11
0.5342003599081764
 21
3068.224794782663
 31
0.0
  0
LINE
  5
747
330
1F
100
AcDbEntity
  8
LOCKABLE DOWEL SLEEVE
  6
HIDDEN1_01
100
AcDbLine
 10
7.034200359908119
 20
3090.107605431579
 30
0.0
 11
7.034200359908119
 21
3082.035302914154
 31
0.0
  0
LINE
  5
748
330
1F
100
AcDbEntity
  8
LOCKABLE DOWEL SLEEVE
  6
HIDDEN1_01
100
AcDbLine
 10
7.034200359908119
 20
3061.107605431579
 30
0.0
 11
7.034200359908119
 21
3068.224794782663
 31
0.0
  0
LINE
  5
749
330
1F
100
AcDbEntity
  8
LOCKABLE DOWEL SLEEVE
  6
HIDDEN1_01
100
AcDbLine
 10
10.73420035990811
 20
3090.107605431579
 30
0.0
 11
10.73420035990811
 21
3082.035302914154
 31
0.0
  0
LINE
  5
74A
330
1F
100
AcDbEntity
  8
LOCKABLE DOWEL SLEEVE
  6
HIDDEN1_01
100
AcDbLine
 10
10.73420035990811
 20
3061.107605431579
 30
0.0
 11
10.73420035990811
 21
3068.224794782663
 31
0.0
  0
LINE
  5
74B
330
1F
100
AcDbEntity
  8
LOCKABLE DOWEL SLEEVE
  6
HIDDEN1_01
100
AcDbLine
 10
17.23420035990811
 20
3090.107605431579
 30
0.0
 11
17.23420035990811
 21
3082.035302914154
 31
0.0
  0
LINE
  5
74C
330
1F
100
AcDbEntity
  8
LOCKABLE DOWEL SLEEVE
  6
HIDDEN1_01
100
AcDbLine
 10
17.23420035990811
 20
3061.107605431579
 30
0.0
 11
17.23420035990811
 21
3068.224794782663
 31
0.0
  0
LINE
  5
74D
330
1F
100
AcDbEntity
  8
LOCKABLE DOWEL SLEEVE
  6
HIDDEN1_01
100
AcDbLine
 10
20.9342003599081
 20
3090.107605431579
 30
0.0
 11
20.9342003599081
 21
3082.035302914154
 31
0.0
  0
LINE
  5
74E
330
1F
100
AcDbEntity
  8
LOCKABLE DOWEL SLEEVE
  6
HIDDEN1_01
100
AcDbLine
 10
20.9342003599081
 20
3061.107605431579
 30
0.0
 11
20.9342003599081
 21
3068.224794782663
 31
0.0
  0
LINE
  5
74F
330
1F
100
AcDbEntity
  8
LOCKABLE DOWEL SLEEVE
  6
HIDDEN1_01
100
AcDbLine
 10
27.43420035990816
 20
3090.107605431579
 30
0.0
 11
27.43420035990816
 21
3082.035302914154
 31
0.0
  0
LINE
  5
750
330
1F
100
AcDbEntity
  8
LOCKABLE DOWEL SLEEVE
  6
HIDDEN1_01
100
AcDbLine
 10
27.43420035990816
 20
3061.107605431579
 30
0.0
 11
27.43420035990816
 21
3068.224794782663
 31
0.0
  0
LINE
  5
751
330
1F
100
AcDbEntity
  8
LOCKABLE DOWEL SLEEVE
  6
HIDDEN1_01
100
AcDbLine
 10
31.13420035990809
 20
3090.107605431579
 30
0.0
 11
31.13420035990809
 21
3082.035302914154
 31
0.0
  0
LINE
  5
752
330
1F
100
AcDbEntity
  8
LOCKABLE DOWEL SLEEVE
  6
HIDDEN1_01
100
AcDbLine
 10
31.13420035990809
 20
3061.107605431579
 30
0.0
 11
31.13420035990809
 21
3068.224794782663
 31
0.0
  0
LINE
  5
753
330
1F
100
AcDbEntity
  8
LOCKABLE DOWEL SLEEVE
  6
HIDDEN1_01
100
AcDbLine
 10
37.63420035990803
 20
3090.107605431579
 30
0.0
 11
37.63420035990803
 21
3082.035302914154
 31
0.0
  0
LINE
  5
754
330
1F
100
AcDbEntity
  8
LOCKABLE DOWEL SLEEVE
  6
HIDDEN1_01
100
AcDbLine
 10
37.63420035990803
 20
3061.107605431579
 30
0.0
 11
37.63420035990803
 21
3068.224794782663
 31
0.0
  0
LINE
  5
755
330
1F
100
AcDbEntity
  8
LOCKABLE DOWEL SLEEVE
  6
HIDDEN1_01
100
AcDbLine
 10
41.33420035990807
 20
3090.107605431579
 30
0.0
 11
41.33420035990807
 21
3082.035302914154
 31
0.0
  0
LINE
  5
756
330
1F
100
AcDbEntity
  8
LOCKABLE DOWEL SLEEVE
  6
HIDDEN1_01
100
AcDbLine
 10
41.33420035990807
 20
3061.107605431579
 30
0.0
 11
41.33420035990807
 21
3068.224794782663
 31
0.0
  0
LINE
  5
757
330
1F
100
AcDbEntity
  8
LOCKABLE DOWEL SLEEVE
  6
HIDDEN1_01
100
AcDbLine
 10
47.83420035990807
 20
3090.107605431579
 30
0.0
 11
47.83420035990807
 21
3082.035302914154
 31
0.0
  0
LINE
  5
758
330
1F
100
AcDbEntity
  8
LOCKABLE DOWEL SLEEVE
  6
HIDDEN1_01
100
AcDbLine
 10
47.83420035990807
 20
3061.107605431579
 30
0.0
 11
47.83420035990807
 21
3068.224794782663
 31
0.0
  0
LINE
  5
759
330
1F
100
AcDbEntity
  8
LOCKABLE DOWEL SLEEVE
  6
HIDDEN1_01
100
AcDbLine
 10
51.53420035990801
 20
3090.107605431579
 30
0.0
 11
51.53420035990801
 21
3082.035302914154
 31
0.0
  0
LINE
  5
75A
330
1F
100
AcDbEntity
  8
LOCKABLE DOWEL SLEEVE
  6
HIDDEN1_01
100
AcDbLine
 10
51.53420035990801
 20
3061.107605431579
 30
0.0
 11
51.53420035990801
 21
3068.224794782663
 31
0.0
  0
LINE
  5
75B
330
1F
100
AcDbEntity
  8
LOCKABLE DOWEL SLEEVE
  6
HIDDEN1_01
100
AcDbLine
 10
1.33420035990813
 20
3085.607605431579
 30
0.0
 11
6.234200359908108
 21
3085.607605431579
 31
0.0
  0
ARC
  5
75C
330
1F
100
AcDbEntity
  8
LOCKABLE DOWEL SLEEVE
  6
HIDDEN1_01
100
AcDbCircle
 10
6.234200359908108
 20
3085.907605431578
 30
0.0
 40
0.3
100
AcDbArc
 50
270.0
 51
0.0
  0
ARC
  5
75D
330
1F
100
AcDbEntity
  8
LOCKABLE DOWEL SLEEVE
  6
HIDDEN1_01
100
AcDbCircle
 10
1.33420035990813
 20
3085.907605431578
 30
0.0
 40
0.3
100
AcDbArc
 50
180.0
 51
270.0
  0
LINE
  5
75E
330
1F
100
AcDbEntity
  8
LOCKABLE DOWEL SLEEVE
  6
HIDDEN1_01
100
AcDbLine
 10
11.53420035990812
 20
3085.607605431579
 30
0.0
 11
16.4342003599081
 21
3085.607605431579
 31
0.0
  0
ARC
  5
75F
330
1F
100
AcDbEntity
  8
LOCKABLE DOWEL SLEEVE
  6
HIDDEN1_01
100
AcDbCircle
 10
16.4342003599081
 20
3085.907605431578
 30
0.0
 40
0.3
100
AcDbArc
 50
270.0
 51
0.0
  0
ARC
  5
760
330
1F
100
AcDbEntity
  8
LOCKABLE DOWEL SLEEVE
  6
HIDDEN1_01
100
AcDbCircle
 10
11.53420035990812
 20
3085.907605431578
 30
0.0
 40
0.3
100
AcDbArc
 50
180.0
 51
270.0
  0
LINE
  5
761
330
1F
100
AcDbEntity
  8
LOCKABLE DOWEL SLEEVE
  6
HIDDEN1_01
100
AcDbLine
 10
21.73420035990817
 20
3085.607605431579
 30
0.0
 11
26.63420035990814
 21
3085.607605431579
 31
0.0
  0
ARC
  5
762
330
1F
100
AcDbEntity
  8
LOCKABLE DOWEL SLEEVE
  6
HIDDEN1_01
100
AcDbCircle
 10
26.63420035990814
 20
3085.907605431578
 30
0.0
 40
0.3
100
AcDbArc
 50
270.0
 51
0.0
  0
ARC
  5
763
330
1F
100
AcDbEntity
  8
LOCKABLE DOWEL SLEEVE
  6
HIDDEN1_01
100
AcDbCircle
 10
21.73420035990817
 20
3085.907605431578
 30
0.0
 40
0.3
100
AcDbArc
 50
180.0
 51
270.0
  0
LINE
  5
764
330
1F
100
AcDbEntity
  8
LOCKABLE DOWEL SLEEVE
  6
HIDDEN1_01
100
AcDbLine
 10
31.9342003599081
 20
3085.607605431579
 30
0.0
 11
36.83420035990808
 21
3085.607605431579
 31
0.0
  0
ARC
  5
765
330
1F
100
AcDbEntity
  8
LOCKABLE DOWEL SLEEVE
  6
HIDDEN1_01
100
AcDbCircle
 10
36.83420035990808
 20
3085.907605431579
 30
0.0
 40
0.3
100
AcDbArc
 50
270.0
 51
0.0
  0
ARC
  5
766
330
1F
100
AcDbEntity
  8
LOCKABLE DOWEL SLEEVE
  6
HIDDEN1_01
100
AcDbCircle
 10
31.9342003599081
 20
3085.907605431579
 30
0.0
 40
0.3
100
AcDbArc
 50
180.0
 51
270.0
  0
LINE
  5
767
330
1F
100
AcDbEntity
  8
LOCKABLE DOWEL SLEEVE
  6
HIDDEN1_01
100
AcDbLine
 10
42.13420035990808
 20
3085.607605431579
 30
0.0
 11
47.03420035990806
 21
3085.607605431579
 31
0.0
  0
ARC
  5
768
330
1F
100
AcDbEntity
  8
LOCKABLE DOWEL SLEEVE
  6
HIDDEN1_01
100
AcDbCircle
 10
47.03420035990806
 20
3085.907605431578
 30
0.0
 40
0.3
100
AcDbArc
 50
270.0
 51
0.0
  0
ARC
  5
769
330
1F
100
AcDbEntity
  8
LOCKABLE DOWEL SLEEVE
  6
HIDDEN1_01
100
AcDbCircle
 10
42.13420035990808
 20
3085.907605431578
 30
0.0
 40
0.3
100
AcDbArc
 50
180.0
 51
270.0
  0
LINE
  5
76A
330
1F
100
AcDbEntity
  8
LOCKABLE DOWEL SLEEVE
  6
HIDDEN1_01
100
AcDbLine
 10
-8.865799640091857
 20
3065.607605431579
 30
0.0
 11
-3.96579964009188
 21
3065.607605431579
 31
0.0
  0
ARC
  5
76B
330
1F
100
AcDbEntity
  8
LOCKABLE DOWEL SLEEVE
  6
HIDDEN1_01
100
AcDbCircle
 10
-3.96579964009188
 20
3065.307605431579
 30
0.0
 40
0.3
100
AcDbArc
 50
0.0
 51
90.0
  0
ARC
  5
76C
330
1F
100
AcDbEntity
  8
LOCKABLE DOWEL SLEEVE
  6
HIDDEN1_01
100
AcDbCircle
 10
-8.865799640091857
 20
3065.307605431579
 30
0.0
 40
0.3
100
AcDbArc
 50
90.0
 51
180.0
  0
LINE
  5
76D
330
1F
100
AcDbEntity
  8
LOCKABLE DOWEL SLEEVE
  6
HIDDEN1_01
100
AcDbLine
 10
1.33420035990813
 20
3065.607605431579
 30
0.0
 11
6.234200359908108
 21
3065.607605431579
 31
0.0
  0
ARC
  5
76E
330
1F
100
AcDbEntity
  8
LOCKABLE DOWEL SLEEVE
  6
HIDDEN1_01
100
AcDbCircle
 10
6.234200359908108
 20
3065.307605431579
 30
0.0
 40
0.3
100
AcDbArc
 50
0.0
 51
90.0
  0
ARC
  5
76F
330
1F
100
AcDbEntity
  8
LOCKABLE DOWEL SLEEVE
  6
HIDDEN1_01
100
AcDbCircle
 10
1.33420035990813
 20
3065.307605431579
 30
0.0
 40
0.3
100
AcDbArc
 50
90.0
 51
180.0
  0
LINE
  5
770
330
1F
100
AcDbEntity
  8
LOCKABLE DOWEL SLEEVE
  6
HIDDEN1_01
100
AcDbLine
 10
11.53420035990812
 20
3065.607605431579
 30
0.0
 11
16.4342003599081
 21
3065.607605431579
 31
0.0
  0
ARC
  5
771
330
1F
100
AcDbEntity
  8
LOCKABLE DOWEL SLEEVE
  6
HIDDEN1_01
100
AcDbCircle
 10
16.4342003599081
 20
3065.307605431579
 30
0.0
 40
0.3
100
AcDbArc
 50
0.0
 51
90.0
  0
ARC
  5
772
330
1F
100
AcDbEntity
  8
LOCKABLE DOWEL SLEEVE
  6
HIDDEN1_01
100
AcDbCircle
 10
11.53420035990812
 20
3065.307605431579
 30
0.0
 40
0.3
100
AcDbArc
 50
90.0
 51
180.0
  0
LINE
  5
773
330
1F
100
AcDbEntity
  8
LOCKABLE DOWEL SLEEVE
  6
HIDDEN1_01
100
AcDbLine
 10
21.73420035990817
 20
3065.607605431579
 30
0.0
 11
26.63420035990814
 21
3065.607605431579
 31
0.0
  0
ARC
  5
774
330
1F
100
AcDbEntity
  8
LOCKABLE DOWEL SLEEVE
  6
HIDDEN1_01
100
AcDbCircle
 10
26.63420035990814
 20
3065.307605431579
 30
0.0
 40
0.3
100
AcDbArc
 50
0.0
 51
90.0
  0
ARC
  5
775
330
1F
100
AcDbEntity
  8
LOCKABLE DOWEL SLEEVE
  6
HIDDEN1_01
100
AcDbCircle
 10
21.73420035990817
 20
3065.307605431579
 30
0.0
 40
0.3
100
AcDbArc
 50
90.0
 51
180.0
  0
LINE
  5
776
330
1F
100
AcDbEntity
  8
LOCKABLE DOWEL SLEEVE
  6
HIDDEN1_01
100
AcDbLine
 10
31.9342003599081
 20
3065.607605431579
 30
0.0
 11
36.83420035990808
 21
3065.607605431579
 31
0.0
  0
ARC
  5
777
330
1F
100
AcDbEntity
  8
LOCKABLE DOWEL SLEEVE
  6
HIDDEN1_01
100
AcDbCircle
 10
36.83420035990808
 20
3065.307605431579
 30
0.0
 40
0.3
100
AcDbArc
 50
0.0
 51
90.0
  0
ARC
  5
778
330
1F
100
AcDbEntity
  8
LOCKABLE DOWEL SLEEVE
  6
HIDDEN1_01
100
AcDbCircle
 10
31.9342003599081
 20
3065.307605431579
 30
0.0
 40
0.3
100
AcDbArc
 50
90.0
 51
180.0
  0
LINE
  5
779
330
1F
100
AcDbEntity
  8
LOCKABLE DOWEL SLEEVE
  6
HIDDEN1_01
100
AcDbLine
 10
42.13420035990808
 20
3065.607605431579
 30
0.0
 11
47.03420035990806
 21
3065.607605431579
 31
0.0
  0
ARC
  5
77A
330
1F
100
AcDbEntity
  8
LOCKABLE DOWEL SLEEVE
  6
HIDDEN1_01
100
AcDbCircle
 10
47.03420035990806
 20
3065.307605431579
 30
0.0
 40
0.3
100
AcDbArc
 50
0.0
 51
90.0
  0
ARC
  5
77B
330
1F
100
AcDbEntity
  8
LOCKABLE DOWEL SLEEVE
  6
HIDDEN1_01
100
AcDbCircle
 10
42.13420035990808
 20
3065.307605431579
 30
0.0
 40
0.3
100
AcDbArc
 50
90.0
 51
180.0
  0
LINE
  5
78A
330
1F
100
AcDbEntity
  8
GRID
  6
CENTER
 48
0.5
100
AcDbLine
 10
-354.0829806240054
 20
2878.537090169436
 30
0.0
 11
58.95700061141037
 21
2878.537090169436
 31
0.0
  0
LINE
  5
78B
330
1F
100
AcDbEntity
  8
LOCKABLE DOWEL SLEEVE
100
AcDbLine
 10
-215.9657996400919
 20
2863.537090169437
 30
0.0
 11
-170.8086325595424
 21
2863.537090169437
 31
0.0
  0
LINE
  5
78C
330
1F
100
AcDbEntity
  8
LOCKABLE DOWEL SLEEVE
100
AcDbLine
 10
-217.9657996400919
 20
2865.537090169437
 30
0.0
 11
-215.9657996400919
 21
2863.537090169437
 31
0.0
  0
LINE
  5
78D
330
1F
100
AcDbEntity
  8
LOCKABLE DOWEL SLEEVE
100
AcDbLine
 10
-215.9657996400919
 20
2893.537090169436
 30
0.0
 11
-170.8086325595424
 21
2893.537090169437
 31
0.0
  0
LINE
  5
78E
330
1F
100
AcDbEntity
  8
LOCKABLE DOWEL SLEEVE
  6
HIDDEN1_01
100
AcDbLine
 10
-217.9657996400919
 20
2891.537090169436
 30
0.0
 11
-215.9657996400919
 21
2893.537090169436
 31
0.0
  0
LINE
  5
78F
330
1F
100
AcDbEntity
  8
LOCKABLE DOWEL SLEEVE
  6
HIDDEN1_01
100
AcDbLine
 10
-217.9657996400919
 20
2891.537090169436
 30
0.0
 11
-217.9657996400919
 21
2865.537090169437
 31
0.0
  0
LINE
  5
790
330
1F
100
AcDbEntity
  8
LOCKABLE DOWEL SLEEVE
100
AcDbLine
 10
-190.9657996400919
 20
2893.537090169436
 30
0.0
 11
-190.9657996400919
 21
2863.537090169437
 31
0.0
  0
LINE
  5
791
330
1F
100
AcDbEntity
  8
LOCKABLE DOWEL SLEEVE
  6
HIDDEN1_01
100
AcDbLine
 10
-217.9657996400919
 20
2891.189590169436
 30
0.0
 11
-190.9657996400919
 21
2891.189590169436
 31
0.0
  0
LINE
  5
792
330
1F
100
AcDbEntity
  8
LOCKABLE DOWEL SLEEVE
  6
HIDDEN1_01
100
AcDbLine
 10
-215.9657996400919
 20
2893.537090169436
 30
0.0
 11
-215.9657996400919
 21
2863.537090169437
 31
0.0
  0
LINE
  5
794
330
1F
100
AcDbEntity
  8
LOCKABLE DOWEL SLEEVE
  6
HIDDEN1_01
100
AcDbLine
 10
-217.9657996400919
 20
2865.884590169436
 30
0.0
 11
-190.9657996400919
 21
2865.884590169436
 31
0.0
  0
LINE
  5
795
330
1F
100
AcDbEntity
  8
LOCKABLE DOWEL SLEEVE
  6
HIDDEN1_01
100
AcDbLine
 10
-170.8086325595427
 20
3090.607605431579
 30
0.0
 11
-9.665799640091869
 21
3090.607605431579
 31
0.0
  0
LINE
  5
797
330
1F
100
AcDbEntity
  8
LOCKABLE DOWEL SLEEVE
  6
HIDDEN1_01
100
AcDbLine
 10
-170.8086325595427
 20
3060.607605431579
 30
0.0
 11
-9.665799640091925
 21
3060.607605431579
 31
0.0
  0
LINE
  5
798
330
1F
100
AcDbEntity
  8
LOCKABLE DOWEL SLEEVE
  6
HIDDEN1_01
100
AcDbLine
 10
-0.8086325595428078
 20
3055.607605431579
 30
0.0
 11
-42.23293725579622
 21
3055.607605431579
 31
0.0
  0
LINE
  5
799
330
1F
100
AcDbEntity
  8
LOCKABLE DOWEL SLEEVE
  6
HIDDEN1_01
100
AcDbLine
 10
-42.21297867087332
 20
3095.607605431579
 30
0.0
 11
-0.8086325595423531
 21
3095.607605431579
 31
0.0
  0
LINE
  5
7D7
330
1F
100
AcDbEntity
  8
LOCKABLE DOWEL SLEEVE
100
AcDbLine
 10
-340.965799640092
 20
3132.725168641063
 30
0.0
 11
-340.965799640092
 21
3018.490042222094
 31
0.0
  0
LINE
  5
7D8
330
1F
100
AcDbEntity
  8
LOCKABLE DOWEL SLEEVE
100
AcDbLine
 10
-339.715799640092
 20
3017.240042222094
 30
0.0
 11
-332.2157996400918
 21
3017.240042222094
 31
0.0
  0
LINE
  5
7D9
330
1F
100
AcDbEntity
  8
LOCKABLE DOWEL SLEEVE
100
AcDbLine
 10
-330.9657996400917
 20
3018.490042222094
 30
0.0
 11
-330.965799640092
 21
3132.725168641063
 31
0.0
  0
LINE
  5
7DA
330
1F
100
AcDbEntity
  8
LOCKABLE DOWEL SLEEVE
100
AcDbLine
 10
-332.215799640092
 20
3133.975168641063
 30
0.0
 11
-339.715799640092
 21
3133.975168641063
 31
0.0
  0
LINE
  5
7DB
330
1F
100
AcDbEntity
  8
LOCKABLE DOWEL SLEEVE
100
AcDbLine
 10
-328.8805990142241
 20
3129.503441468239
 30
0.0
 11
-310.1947683324545
 21
3097.772786950052
 31
0.0
  0
LINE
  5
7DC
330
1F
100
AcDbEntity
  8
LOCKABLE DOWEL SLEEVE
100
AcDbLine
 10
-328.8805990142241
 20
3021.711769394918
 30
0.0
 11
-310.1947683324545
 21
3053.442423913106
 31
0.0
  0
LINE
  5
7DD
330
1F
100
AcDbEntity
  8
LOCKABLE DOWEL SLEEVE
100
AcDbLine
 10
-306.7961141310668
 20
3095.607605431579
 30
0.0
 11
-190.9657996400919
 21
3095.607605431579
 31
0.0
  0
LINE
  5
7DE
330
1F
100
AcDbEntity
  8
LOCKABLE DOWEL SLEEVE
100
AcDbLine
 10
-306.7961141310668
 20
3055.607605431579
 30
0.0
 11
-190.9657996400919
 21
3055.607605431579
 31
0.0
  0
LINE
  5
7DF
330
1F
100
AcDbEntity
  8
LOCKABLE DOWEL SLEEVE
100
AcDbLine
 10
-190.9657996400919
 20
3095.607605431579
 30
0.0
 11
-190.9657996400919
 21
3055.607605431579
 31
0.0
  0
ARC
  5
7E0
330
1F
100
AcDbEntity
  8
LOCKABLE DOWEL SLEEVE
100
AcDbCircle
 10
-306.7961141310668
 20
3099.357605431579
 30
0.0
 40
3.749999999999999
100
AcDbArc
 50
205.0000000000052
 51
270.0
  0
ARC
  5
7E1
330
1F
100
AcDbEntity
  8
LOCKABLE DOWEL SLEEVE
100
AcDbCircle
 10
-306.7961141310668
 20
3051.857605431579
 30
0.0
 40
3.749999999999999
100
AcDbArc
 50
90.0
 51
154.9999999999947
  0
LINE
  5
7E2
330
1F
100
AcDbEntity
  8
LOCKABLE DOWEL SLEEVE
100
AcDbLine
 10
-306.7961141310668
 20
3095.607605431579
 30
0.0
 11
-306.7961141310668
 21
3055.607605431579
 31
0.0
  0
LINE
  5
7E3
330
1F
100
AcDbEntity
  8
LOCKABLE DOWEL SLEEVE
100
AcDbLine
 10
-310.1947683324545
 20
3053.442423913106
 30
0.0
 11
-310.1947683324545
 21
3097.772786950052
 31
0.0
  0
LINE
  5
7E4
330
1F
100
AcDbEntity
  8
LOCKABLE DOWEL SLEEVE
  6
HIDDEN1_01
100
AcDbLine
 10
-227.9657996400919
 20
3088.853105431579
 30
0.0
 11
-227.9657996400919
 21
3062.362105431579
 31
0.0
  0
LINE
  5
7E5
330
1F
100
AcDbEntity
  8
LOCKABLE DOWEL SLEEVE
  6
HIDDEN1_01
100
AcDbLine
 10
-227.9657996400919
 20
3088.853105431579
 30
0.0
 11
-190.9657996400919
 21
3088.853105431579
 31
0.0
  0
LINE
  5
7E6
330
1F
100
AcDbEntity
  8
LOCKABLE DOWEL SLEEVE
  6
HIDDEN1_01
100
AcDbLine
 10
-227.9657996400919
 20
3062.362105431579
 30
0.0
 11
-190.9657996400919
 21
3062.362105431579
 31
0.0
  0
LINE
  5
7E7
330
1F
100
AcDbEntity
  8
LOCKABLE DOWEL SLEEVE
  6
HIDDEN1_01
100
AcDbLine
 10
-227.9657996400919
 20
3088.853105431579
 30
0.0
 11
-235.5435219232057
 21
3075.728105431579
 31
0.0
  0
LINE
  5
7E8
330
1F
100
AcDbEntity
  8
LOCKABLE DOWEL SLEEVE
  6
HIDDEN1_01
100
AcDbLine
 10
-235.5435219232057
 20
3075.487105431579
 30
0.0
 11
-227.9657996400919
 21
3062.362105431579
 31
0.0
  0
LINE
  5
7E9
330
1F
100
AcDbEntity
  8
LOCKABLE DOWEL SLEEVE
  6
HIDDEN1_01
100
AcDbLine
 10
-219.2157996400919
 20
3090.607605431579
 30
0.0
 11
-190.9657996400919
 21
3090.607605431579
 31
0.0
  0
LINE
  5
7EA
330
1F
100
AcDbEntity
  8
LOCKABLE DOWEL SLEEVE
100
AcDbLine
 10
-219.2157996400919
 20
3060.607605431579
 30
0.0
 11
-190.9657996400919
 21
3060.607605431579
 31
0.0
  0
LINE
  5
7EB
330
1F
100
AcDbEntity
  8
LOCKABLE DOWEL SLEEVE
  6
HIDDEN1_01
100
AcDbLine
 10
-219.2157996400919
 20
3090.607605431579
 30
0.0
 11
-219.2157996400919
 21
3060.607605431579
 31
0.0
  0
LINE
  5
7EC
330
1F
100
AcDbEntity
  8
LOCKABLE DOWEL SLEEVE
100
AcDbLine
 10
-330.965799640092
 20
3101.051355431579
 30
0.0
 11
-340.965799640092
 21
3101.051355431579
 31
0.0
  0
LINE
  5
7ED
330
1F
100
AcDbEntity
  8
LOCKABLE DOWEL SLEEVE
100
AcDbLine
 10
-330.965799640092
 20
3050.163855431579
 30
0.0
 11
-340.965799640092
 21
3050.163855431579
 31
0.0
  0
LINE
  5
7EE
330
1F
100
AcDbEntity
  8
LOCKABLE DOWEL SLEEVE
100
AcDbLine
 10
-330.965799640092
 20
3130.225168641063
 30
0.0
 11
-330.01348374802
 21
3130.225168641063
 31
0.0
  0
LINE
  5
7EF
330
1F
100
AcDbEntity
  8
LOCKABLE DOWEL SLEEVE
100
AcDbLine
 10
-330.965799640092
 20
3020.990042222094
 30
0.0
 11
-330.01348374802
 21
3020.990042222094
 31
0.0
  0
ARC
  5
7F0
330
1F
100
AcDbEntity
  8
LOCKABLE DOWEL SLEEVE
100
AcDbCircle
 10
-330.01348374802
 20
3022.240042222094
 30
0.0
 40
1.249999999999999
100
AcDbArc
 50
270.0
 51
334.9999999999947
  0
ARC
  5
7F1
330
1F
100
AcDbEntity
  8
LOCKABLE DOWEL SLEEVE
100
AcDbCircle
 10
-330.01348374802
 20
3128.975168641063
 30
0.0
 40
1.249999999999999
100
AcDbArc
 50
25.00000000000525
 51
90.0
  0
ARC
  5
7F2
330
1F
100
AcDbEntity
  8
LOCKABLE DOWEL SLEEVE
100
AcDbCircle
 10
-332.215799640092
 20
3132.725168641063
 30
0.0
 40
1.249999999999999
100
AcDbArc
 50
0.0
 51
90.0
  0
ARC
  5
7F3
330
1F
100
AcDbEntity
  8
LOCKABLE DOWEL SLEEVE
100
AcDbCircle
 10
-332.2157996400918
 20
3018.490042222094
 30
0.0
 40
1.249999999999999
100
AcDbArc
 50
270.0
 51
0.0
  0
ARC
  5
7F4
330
1F
100
AcDbEntity
  8
LOCKABLE DOWEL SLEEVE
100
AcDbCircle
 10
-339.715799640092
 20
3018.490042222094
 30
0.0
 40
1.249999999999999
100
AcDbArc
 50
180.0
 51
270.0
  0
ARC
  5
7F5
330
1F
100
AcDbEntity
  8
LOCKABLE DOWEL SLEEVE
100
AcDbCircle
 10
-339.715799640092
 20
3132.725168641063
 30
0.0
 40
1.249999999999999
100
AcDbArc
 50
90.0
 51
180.0
  0
LINE
  5
7F6
330
1F
100
AcDbEntity
  8
LOCKABLE DOWEL SLEEVE
100
AcDbLine
 10
-306.7961141310668
 20
3075.607605431579
 30
0.0
 11
-306.7961141310668
 21
3075.607605431579
 31
0.0
  0
LINE
  5
811
330
1F
100
AcDbEntity
  8
LOCKABLE DOWEL SLEEVE
100
AcDbLine
 10
-190.9657996400919
 20
2893.537090169437
 30
0.0
 11
-190.9657996400919
 21
2863.537090169437
 31
0.0
  0
LINE
  5
812
330
1F
100
AcDbEntity
  8
LOCKABLE DOWEL SLEEVE
100
AcDbLine
 10
-340.965799640092
 20
2935.654653378922
 30
0.0
 11
-340.965799640092
 21
2821.419526959952
 31
0.0
  0
LINE
  5
813
330
1F
100
AcDbEntity
  8
LOCKABLE DOWEL SLEEVE
100
AcDbLine
 10
-339.715799640092
 20
2820.169526959952
 30
0.0
 11
-332.2157996400918
 21
2820.169526959952
 31
0.0
  0
LINE
  5
814
330
1F
100
AcDbEntity
  8
LOCKABLE DOWEL SLEEVE
100
AcDbLine
 10
-330.9657996400917
 20
2821.419526959952
 30
0.0
 11
-330.965799640092
 21
2935.654653378921
 31
0.0
  0
LINE
  5
815
330
1F
100
AcDbEntity
  8
LOCKABLE DOWEL SLEEVE
100
AcDbLine
 10
-332.215799640092
 20
2936.904653378922
 30
0.0
 11
-339.715799640092
 21
2936.904653378922
 31
0.0
  0
LINE
  5
816
330
1F
100
AcDbEntity
  8
LOCKABLE DOWEL SLEEVE
100
AcDbLine
 10
-328.8805990142241
 20
2932.432926206097
 30
0.0
 11
-310.1947683324545
 21
2900.70227168791
 31
0.0
  0
LINE
  5
817
330
1F
100
AcDbEntity
  8
LOCKABLE DOWEL SLEEVE
100
AcDbLine
 10
-328.8805990142241
 20
2824.641254132777
 30
0.0
 11
-310.1947683324545
 21
2856.371908650965
 31
0.0
  0
LINE
  5
818
330
1F
100
AcDbEntity
  8
LOCKABLE DOWEL SLEEVE
100
AcDbLine
 10
-306.7961141310668
 20
2898.537090169437
 30
0.0
 11
-190.9657996400919
 21
2898.537090169437
 31
0.0
  0
LINE
  5
819
330
1F
100
AcDbEntity
  8
LOCKABLE DOWEL SLEEVE
100
AcDbLine
 10
-306.7961141310668
 20
2858.537090169437
 30
0.0
 11
-190.9657996400919
 21
2858.537090169437
 31
0.0
  0
LINE
  5
81A
330
1F
100
AcDbEntity
  8
LOCKABLE DOWEL SLEEVE
100
AcDbLine
 10
-190.9657996400919
 20
2898.537090169437
 30
0.0
 11
-190.9657996400919
 21
2858.537090169437
 31
0.0
  0
ARC
  5
81B
330
1F
100
AcDbEntity
  8
LOCKABLE DOWEL SLEEVE
100
AcDbCircle
 10
-306.7961141310668
 20
2902.287090169437
 30
0.0
 40
3.749999999999999
100
AcDbArc
 50
205.0000000000051
 51
270.0
  0
ARC
  5
81C
330
1F
100
AcDbEntity
  8
LOCKABLE DOWEL SLEEVE
100
AcDbCircle
 10
-306.7961141310668
 20
2854.787090169437
 30
0.0
 40
3.749999999999999
100
AcDbArc
 50
90.0
 51
154.9999999999948
  0
LINE
  5
81D
330
1F
100
AcDbEntity
  8
LOCKABLE DOWEL SLEEVE
100
AcDbLine
 10
-306.7961141310668
 20
2898.537090169437
 30
0.0
 11
-306.7961141310668
 21
2858.537090169437
 31
0.0
  0
LINE
  5
81E
330
1F
100
AcDbEntity
  8
LOCKABLE DOWEL SLEEVE
100
AcDbLine
 10
-310.1947683324545
 20
2856.371908650965
 30
0.0
 11
-310.1947683324545
 21
2900.70227168791
 31
0.0
  0
LINE
  5
81F
330
1F
100
AcDbEntity
  8
LOCKABLE DOWEL SLEEVE
  6
HIDDEN1_01
100
AcDbLine
 10
-227.9657996400919
 20
2891.782590169437
 30
0.0
 11
-227.9657996400919
 21
2865.291590169437
 31
0.0
  0
LINE
  5
820
330
1F
100
AcDbEntity
  8
LOCKABLE DOWEL SLEEVE
  6
HIDDEN1_01
100
AcDbLine
 10
-227.9657996400919
 20
2891.782590169437
 30
0.0
 11
-190.9657996400919
 21
2891.782590169437
 31
0.0
  0
LINE
  5
821
330
1F
100
AcDbEntity
  8
LOCKABLE DOWEL SLEEVE
  6
HIDDEN1_01
100
AcDbLine
 10
-227.9657996400919
 20
2865.291590169437
 30
0.0
 11
-190.9657996400919
 21
2865.291590169437
 31
0.0
  0
LINE
  5
822
330
1F
100
AcDbEntity
  8
LOCKABLE DOWEL SLEEVE
  6
HIDDEN1_01
100
AcDbLine
 10
-227.9657996400919
 20
2891.782590169437
 30
0.0
 11
-235.5435219232057
 21
2878.657590169437
 31
0.0
  0
LINE
  5
823
330
1F
100
AcDbEntity
  8
LOCKABLE DOWEL SLEEVE
  6
HIDDEN1_01
100
AcDbLine
 10
-235.5435219232057
 20
2878.416590169437
 30
0.0
 11
-227.9657996400919
 21
2865.291590169437
 31
0.0
  0
LINE
  5
824
330
1F
100
AcDbEntity
  8
LOCKABLE DOWEL SLEEVE
  6
HIDDEN1_01
100
AcDbLine
 10
-219.2157996400919
 20
2893.537090169437
 30
0.0
 11
-190.9657996400919
 21
2893.537090169437
 31
0.0
  0
LINE
  5
825
330
1F
100
AcDbEntity
  8
LOCKABLE DOWEL SLEEVE
100
AcDbLine
 10
-219.2157996400919
 20
2863.537090169437
 30
0.0
 11
-190.9657996400919
 21
2863.537090169437
 31
0.0
  0
LINE
  5
826
330
1F
100
AcDbEntity
  8
LOCKABLE DOWEL SLEEVE
  6
HIDDEN1_01
100
AcDbLine
 10
-219.2157996400919
 20
2893.537090169437
 30
0.0
 11
-219.2157996400919
 21
2863.537090169437
 31
0.0
  0
LINE
  5
829
330
1F
100
AcDbEntity
  8
LOCKABLE DOWEL SLEEVE
100
AcDbLine
 10
-330.965799640092
 20
2933.154653378921
 30
0.0
 11
-330.01348374802
 21
2933.154653378921
 31
0.0
  0
LINE
  5
82A
330
1F
100
AcDbEntity
  8
LOCKABLE DOWEL SLEEVE
100
AcDbLine
 10
-330.965799640092
 20
2823.919526959953
 30
0.0
 11
-330.01348374802
 21
2823.919526959953
 31
0.0
  0
ARC
  5
82B
330
1F
100
AcDbEntity
  8
LOCKABLE DOWEL SLEEVE
100
AcDbCircle
 10
-330.01348374802
 20
2825.169526959952
 30
0.0
 40
1.249999999999999
100
AcDbArc
 50
270.0
 51
334.9999999999949
  0
ARC
  5
82C
330
1F
100
AcDbEntity
  8
LOCKABLE DOWEL SLEEVE
100
AcDbCircle
 10
-330.01348374802
 20
2931.904653378921
 30
0.0
 40
1.249999999999999
100
AcDbArc
 50
25.00000000000513
 51
90.0
  0
ARC
  5
82D
330
1F
100
AcDbEntity
  8
LOCKABLE DOWEL SLEEVE
100
AcDbCircle
 10
-332.215799640092
 20
2935.654653378922
 30
0.0
 40
1.249999999999999
100
AcDbArc
 50
0.0
 51
90.0
  0
ARC
  5
82E
330
1F
100
AcDbEntity
  8
LOCKABLE DOWEL SLEEVE
100
AcDbCircle
 10
-332.2157996400918
 20
2821.419526959952
 30
0.0
 40
1.249999999999999
100
AcDbArc
 50
270.0
 51
0.0
  0
ARC
  5
82F
330
1F
100
AcDbEntity
  8
LOCKABLE DOWEL SLEEVE
100
AcDbCircle
 10
-339.715799640092
 20
2821.419526959952
 30
0.0
 40
1.249999999999999
100
AcDbArc
 50
180.0
 51
270.0
  0
ARC
  5
830
330
1F
100
AcDbEntity
  8
LOCKABLE DOWEL SLEEVE
100
AcDbCircle
 10
-339.715799640092
 20
2935.654653378922
 30
0.0
 40
1.249999999999999
100
AcDbArc
 50
90.0
 51
180.0
  0
LINE
  5
831
330
1F
100
AcDbEntity
  8
LOCKABLE DOWEL SLEEVE
100
AcDbLine
 10
-306.7961141310668
 20
2878.537090169437
 30
0.0
 11
-306.7961141310668
 21
2878.537090169437
 31
0.0
  0
LINE
  5
946
330
1F
100
AcDbEntity
  8
LOCKABLE DOWEL SLEEVE
  6
DASHED
 48
0.1
100
AcDbLine
 10
-170.8086325595425
 20
3031.107605431579
 30
0.0
 11
-166.8086325595425
 21
3031.107605431579
 31
0.0
  0
LINE
  5
947
330
1F
100
AcDbEntity
  8
LOCKABLE DOWEL SLEEVE
  6
DASHED
 48
0.1
100
AcDbLine
 10
-170.8086325595425
 20
3036.107605431579
 30
0.0
 11
-166.8086325595425
 21
3036.107605431579
 31
0.0
  0
LINE
  5
948
330
1F
100
AcDbEntity
  8
LOCKABLE DOWEL SLEEVE
  6
DASHED
 48
0.1
100
AcDbLine
 10
-170.8086325595425
 20
3115.107605431579
 30
0.0
 11
-166.8086325595425
 21
3115.107605431579
 31
0.0
  0
LINE
  5
949
330
1F
100
AcDbEntity
  8
LOCKABLE DOWEL SLEEVE
  6
DASHED
 48
0.1
100
AcDbLine
 10
-170.8086325595425
 20
3120.107605431579
 30
0.0
 11
-166.8086325595425
 21
3120.107605431579
 31
0.0
  0
LINE
  5
94A
330
1F
100
AcDbEntity
  8
LOCKABLE DOWEL SLEEVE
  6
DASHED
 48
0.1
100
AcDbLine
 10
-170.8086325595424
 20
2829.037090169436
 30
0.0
 11
-166.8086325595424
 21
2829.037090169436
 31
0.0
  0
LINE
  5
94B
330
1F
100
AcDbEntity
  8
LOCKABLE DOWEL SLEEVE
  6
DASHED
 48
0.1
100
AcDbLine
 10
-170.8086325595424
 20
2834.037090169436
 30
0.0
 11
-166.8086325595424
 21
2834.037090169436
 31
0.0
  0
LINE
  5
94C
330
1F
100
AcDbEntity
  8
LOCKABLE DOWEL SLEEVE
  6
DASHED
 48
0.1
100
AcDbLine
 10
-170.8086325595424
 20
2923.037090169437
 30
0.0
 11
-166.8086325595424
 21
2923.037090169437
 31
0.0
  0
LINE
  5
94D
330
1F
100
AcDbEntity
  8
LOCKABLE DOWEL SLEEVE
  6
DASHED
 48
0.1
100
AcDbLine
 10
-170.8086325595423
 20
2928.037090169437
 30
0.0
 11
-166.8086325595424
 21
2928.037090169437
 31
0.0
  0
ELLIPSE
  5
C89
330
1F
100
AcDbEntity
  8
LOCKABLE DOWEL FORMER
100
AcDbEllipse
 10
80.27551817591774
 20
2838.493833327225
 30
0.0
 11
2.501523860747056
 21
-0.0000000000000005
 31
0.0
210
0.0
220
0.0
230
1.0
 40
0.9993908270191177
 41
4.729842272904662
 42
6.283185307179586
  0
LINE
  5
C8A
330
1F
100
AcDbEntity
  8
LOCKABLE DOWEL FORMER
100
AcDbLine
 10
80.31917578704787
 20
2835.994214089335
 30
0.0
 11
5.322117160795357
 21
2834.685933016857
 31
0.0
  0
LINE
  5
C8E
330
1F
100
AcDbEntity
  8
LOCKABLE DOWEL FORMER
100
AcDbLine
 10
80.31917578704787
 20
2921.079966249538
 30
0.0
 11
5.322117160795357
 21
2922.388247322016
 31
0.0
  0
LINE
  5
C8F
330
1F
100
AcDbEntity
  8
LOCKABLE DOWEL FORMER
100
AcDbLine
 10
82.77704203666434
 20
2838.493833327225
 30
0.0
 11
82.77704203666434
 21
2918.580347011647
 31
0.0
  0
ELLIPSE
  5
C90
330
1F
100
AcDbEntity
  8
LOCKABLE DOWEL FORMER
100
AcDbEllipse
 10
80.27551817591774
 20
2918.580347011647
 30
0.0
 11
2.501523860747056
 21
-0.0000000000000005
 31
0.0
210
0.0
220
0.0
230
1.0
 40
0.9993908270190948
 41
0.0
 42
1.553343034274939
  0
LINE
  5
CA6
330
1F
100
AcDbEntity
  8
LOCKABLE DOWEL FORMER
100
AcDbLine
 10
-42.22295796333475
 20
2839.027228086708
 30
0.0
 11
-42.22295796333475
 21
2918.046952252165
 31
0.0
  0
LINE
  5
CA7
330
1F
100
AcDbEntity
  8
LOCKABLE DOWEL FORMER
100
AcDbLine
 10
-42.22295796333475
 20
2920.547706936186
 30
0.0
 11
4.257437833777828
 21
2922.170899929917
 31
0.0
  0
LINE
  5
CA8
330
1F
100
AcDbEntity
  8
LOCKABLE DOWEL FORMER
100
AcDbLine
 10
-42.22295796333475
 20
2918.046952252165
 30
0.0
 11
-42.22295796333475
 21
2920.547706936186
 31
0.0
  0
LINE
  5
CA9
330
1F
100
AcDbEntity
  8
LOCKABLE DOWEL FORMER
100
AcDbLine
 10
4.257437833777828
 20
2834.903280408956
 30
0.0
 11
-42.22295796333475
 21
2836.526473402687
 31
0.0
  0
LINE
  5
CAA
330
1F
100
AcDbEntity
  8
LOCKABLE DOWEL FORMER
100
AcDbLine
 10
-42.22295796333475
 20
2836.526473402687
 30
0.0
 11
-42.22295796333475
 21
2839.027228086708
 31
0.0
  0
ELLIPSE
  5
CCA
330
1F
100
AcDbEntity
  8
LOCKABLE DOWEL FORMER
100
AcDbEllipse
 10
5.278565897411851
 20
2837.185554109924
 30
0.0
 11
2.500004633991352
 21
0.0872223205460041
 31
0.0
210
0.0
220
0.0
230
1.0
 40
0.9993900861919769
 41
3.106739189013102
 42
4.694946288682824
  0
LINE
  5
CCB
330
1F
100
AcDbEntity
  8
LOCKABLE DOWEL FORMER
100
AcDbLine
 10
2.77704203666525
 20
2837.185447810772
 30
0.0
 11
2.77704203666525
 21
2919.888732528101
 31
0.0
  0
ELLIPSE
  5
CCC
330
1F
100
AcDbEntity
  8
LOCKABLE DOWEL FORMER
100
AcDbEllipse
 10
5.278565897411851
 20
2919.888626228949
 30
0.0
 11
2.500004633991351
 21
-0.0872223205461187
 31
0.0
210
0.0
220
0.0
230
1.0
 40
0.9993900861920208
 41
1.588239018496822
 42
3.176446118166564
  0
LINE
  5
CF6
330
1F
100
AcDbEntity
  8
LOCKABLE DOWEL SLEEVE
  6
Continuous
 62
     1
370
    15
100
AcDbLine
 10
2.77704203666525
 20
3223.964410435509
 30
0.0
 11
7.125726038498612
 21
3099.434393911645
 31
0.0
  0
LINE
  5
CFF
330
1F
100
AcDbEntity
  8
LOCKABLE DOWEL SLEEVE
  6
Continuous
 62
     1
370
    15
100
AcDbLine
 10
8.736136737558297
 20
3053.318265243855
 30
0.0
 11
74.44556329130278
 21
3053.891702721996
 31
0.0
  0
LINE
  5
D06
330
1F
100
AcDbEntity
  8
LOCKABLE DOWEL SLEEVE
  6
Continuous
 62
     1
370
    15
100
AcDbLine
 10
-42.22295796333475
 20
3056.256223701045
 30
0.0
 11
-42.22295796333475
 21
3053.762978526047
 31
0.0
  0
LINE
  5
D07
330
1F
100
AcDbEntity
  8
LOCKABLE DOWEL SLEEVE
  6
Continuous
 62
     1
370
    15
100
AcDbLine
 10
-42.22295796333475
 20
3053.762978526047
 30
0.0
 11
8.735971910580758
 21
3053.318266682278
 31
0.0
  0
ARC
  5
D0C
330
1F
100
AcDbEntity
  8
LOCKABLE DOWEL SLEEVE
  6
Continuous
 62
     1
370
    15
100
AcDbCircle
 10
5.626639797969971
 20
3099.382044666591
 30
0.0
 40
1.500000000000006
100
AcDbArc
 50
294.3635996431203
 51
2.000000000003592
  0
LINE
  5
D0F
330
1F
100
AcDbEntity
  8
LOCKABLE DOWEL SLEEVE
  6
Continuous
 62
     1
370
    15
100
AcDbLine
 10
-42.22295796333475
 20
3056.256223701045
 30
0.0
 11
-42.22295796333475
 21
3094.958987162113
 31
0.0
  0
ARC
  5
D10
330
1F
100
AcDbEntity
  8
LOCKABLE DOWEL SLEEVE
  6
Continuous
 62
     1
370
    15
100
AcDbCircle
 10
5.626639797969971
 20
3099.382044666591
 30
0.0
 40
1.500000000000006
100
AcDbArc
 50
270.499999999998
 51
294.3635996431203
  0
LINE
  5
D12
330
1F
100
AcDbEntity
  8
LOCKABLE DOWEL SLEEVE
  6
Continuous
 62
     1
370
    15
100
AcDbLine
 10
5.639729601217538
 20
3097.882101781995
 30
0.0
 11
-42.22295796333475
 21
3097.464410435509
 31
0.0
  0
LINE
  5
D13
330
1F
100
AcDbEntity
  8
LOCKABLE DOWEL SLEEVE
  6
Continuous
 62
     1
370
    15
100
AcDbLine
 10
-42.22295796333475
 20
3097.464410435509
 30
0.0
 11
-42.22295796333475
 21
3094.958987162113
 31
0.0
  0
LINE
  5
D15
330
1F
100
AcDbEntity
  8
LOCKABLE DOWEL SLEEVE
  6
Continuous
 62
     1
370
    15
100
AcDbLine
 10
76.92222402010457
 20
3056.304358787901
 30
0.0
 11
82.77704203666525
 21
3223.964410435509
 31
0.0
  0
ARC
  5
D17
330
1F
100
AcDbEntity
  8
LOCKABLE DOWEL SLEEVE
  6
Continuous
 62
     1
370
    15
100
AcDbCircle
 10
74.42374695255688
 20
3056.391607529656
 30
0.0
 40
2.499999999999999
100
AcDbArc
 50
270.499999999998
 51
357.9999999999963
  0
LINE
  5
F1C
330
1F
100
AcDbEntity
  8
LOCKABLE DOWEL FORMER
  6
Continuous
370
    15
100
AcDbLine
 10
-0.4354818069005502
 20
3225.481862841946
 30
0.0
 11
-0.4619736927297096
 21
3223.964410435509
 31
0.0
  0
ELLIPSE
  5
F1D
330
1F
100
AcDbEntity
  8
LOCKABLE DOWEL FORMER
  6
Continuous
370
    15
100
AcDbEllipse
 10
0.564541627289036
 20
3225.464410435509
 30
0.0
 11
1.000175765803192
 21
0.0
 31
-0.0000000000000036
210
0.0000000000000036
220
0.0
230
1.0
 40
0.9998242650849963
 41
1.570796326794896
 42
3.124139361069846
  0
LINE
  5
F1E
330
1F
100
AcDbEntity
  8
LOCKABLE DOWEL FORMER
  6
Continuous
370
    15
100
AcDbLine
 10
85.00698422094485
 20
3226.464410435509
 30
0.0
 11
0.564541627289036
 21
3226.464410435509
 31
0.0
  0
ELLIPSE
  5
F1F
330
1F
100
AcDbEntity
  8
LOCKABLE DOWEL FORMER
  6
Continuous
370
    15
100
AcDbEllipse
 10
85.00698422094485
 20
3225.464410435509
 30
0.0
 11
1.000175765803192
 21
0.0
 31
-0.0000000000000036
210
0.0000000000000036
220
0.0
230
1.0
 40
0.9998242650849963
 41
0.0174532925199451
 42
1.570796326794896
  0
LINE
  5
F20
330
1F
100
AcDbEntity
  8
LOCKABLE DOWEL FORMER
  6
Continuous
370
    15
100
AcDbLine
 10
86.03349954096351
 20
3223.964410435509
 30
0.0
 11
86.00700765513449
 21
3225.481862841946
 31
0.0
  0
LINE
  5
F21
330
1F
100
AcDbEntity
  8
LOCKABLE DOWEL FORMER
  6
Continuous
370
    15
100
AcDbLine
 10
158.2230177723384
 20
3225.53528864288
 30
0.0
 11
158.1965258865092
 21
3224.017836236443
 31
0.0
  0
ELLIPSE
  5
F22
330
1F
100
AcDbEntity
  8
LOCKABLE DOWEL FORMER
  6
Continuous
370
    15
100
AcDbEllipse
 10
159.2230412065279
 20
3225.517836236443
 30
0.0
 11
1.000175765803192
 21
0.0
 31
-0.0000000000000036
210
0.0000000000000036
220
0.0
230
1.0
 40
0.9998242650849963
 41
1.570796326794896
 42
3.124139361069846
  0
ELLIPSE
  5
F23
330
1F
100
AcDbEntity
  8
LOCKABLE DOWEL FORMER
  6
Continuous
370
    15
100
AcDbEllipse
 10
251.3756088389403
 20
3225.517836236443
 30
0.0
 11
1.000175765803192
 21
0.0
 31
-0.0000000000000036
210
0.0000000000000036
220
0.0
230
1.0
 40
0.9998242650849963
 41
0.0174532925199451
 42
1.570796326794896
  0
LINE
  5
F24
330
1F
100
AcDbEntity
  8
LOCKABLE DOWEL FORMER
  6
Continuous
370
    15
100
AcDbLine
 10
252.4021241589589
 20
3224.017836236443
 30
0.0
 11
252.3756322731299
 21
3225.53528864288
 31
0.0
  0
LINE
  5
F25
330
1F
100
AcDbEntity
  8
LOCKABLE DOWEL FORMER
100
AcDbLine
 10
158.1965258865092
 20
3224.017836236443
 30
0.0
 11
252.4021241589589
 21
3224.017836236443
 31
0.0
  0
LINE
  5
F26
330
1F
100
AcDbEntity
  8
LOCKABLE DOWEL FORMER
100
AcDbLine
 10
-0.4619736927297096
 20
3223.964410435509
 30
0.0
 11
86.03349954096351
 21
3223.964410435509
 31
0.0
  0
LINE
  5
F27
330
1F
100
AcDbEntity
  8
LOCKABLE DOWEL FORMER
100
AcDbLine
 10
159.2230412065279
 20
3226.517836236443
 30
0.0
 11
251.3756088389403
 21
3226.517836236443
 31
0.0
  0
LINE
  5
F29
330
1F
100
AcDbEntity
  8
LOCKABLE DOWEL SLEEVE
  6
HIDDEN1_01
100
AcDbLine
 10
3.473591756420863
 20
3204.017836236443
 30
0.0
 11
82.08049231690973
 21
3204.017836236443
 31
0.0
  0
LWPOLYLINE
  5
FB2
330
1F
100
AcDbEntity
  8
LOCKABLE DOWEL SLEEVE
 62
     0
100
AcDbPolyline
 90
        4
 70
     1
 43
0.0
 10
-459.9840959793814
 20
3262.38497548804
 10
426.6915695749496
 20
3262.38497548804
 10
426.6915695749496
 20
2787.362114958402
 10
-459.9840959793814
 20
2787.362114958402
  0
MTEXT
  5
FB3
330
1F
100
AcDbEntity
  8
ANCON-TEXT
100
AcDbMText
 10
254.4352366393571
 20
2841.171899375501
 30
0.0
 40
8.0
 41
191.4641976488467
 46
0.0
 71
     1
 72
     5
  1
{\fArial|b0|i0|c0|p34;Leviat \PTel:  1300 304 320\PEmail: technical.au@leviat.com\PWeb: ancon.com.au / Leviat.com}
 73
     1
 44
1.0
101
Embedded Object
 70
     1
 10
1.0
 20
0.0
 30
0.0
 11
254.4352366393571
 21
2841.171899375501
 31
0.0
 40
191.4641976488467
 41
0.0
 42
161.8935879945429
 43
48.45293315143247
 71
     2
 72
     1
 44
191.4641976488467
 45
1.0
 73
     0
 74
     0
 46
0.0
  0
ENDSEC
  0
SECTION
  2
OBJECTS
  0
DICTIONARY
  5
C
330
0
100
AcDbDictionary
281
     1
  3
ACAD_CIP_PREVIOUS_PRODUCT_INFO
350
F99
  3
ACAD_COLOR
350
6B
  3
ACAD_DETAILVIEWSTYLE
350
F93
  3
ACAD_GROUP
350
D
  3
ACAD_LAYOUT
350
1A
  3
ACAD_MATERIAL
350
6A
  3
ACAD_MLEADERSTYLE
350
12D
  3
ACAD_MLINESTYLE
350
17
  3
ACAD_PLOTSETTINGS
350
19
  3
ACAD_PLOTSTYLENAME
350
E
  3
ACAD_SCALELIST
350
10C
  3
ACAD_SECTIONVIEWSTYLE
350
F91
  3
ACAD_TABLESTYLE
350
7E
  3
ACAD_VISUALSTYLE
350
EF
  3
ACDB_RECOMPOSE_DATA
350
FB9
  3
AcDbVariableDictionary
350
5E
  3
AEC_PROPERTY_SET_DEFS
350
49D
  0
DICTIONARY
  5
F56
330
8
100
AcDbDictionary
280
     1
281
     1
  0
DICTIONARY
  5
207
330
2
100
AcDbDictionary
280
     1
281
     1
  3
ACAD_LAYERSTATES
360
208
  0
DICTIONARY
  5
13C
330
10
100
AcDbDictionary
280
     1
281
     1
  0
DICTIONARY
  5
203
330
202
100
AcDbDictionary
280
     1
281
     1
  0
DICTIONARY
  5
F9B
330
F9A
100
AcDbDictionary
280
     1
281
     1
  0
DICTIONARY
  5
F9D
330
F9C
100
AcDbDictionary
280
     1
281
     1
  0
DICTIONARY
  5
1CE
330
1F
100
AcDbDictionary
280
     1
281
     1
  3
ACAD_SORTENTS
360
796
  0
DICTIONARY
  5
FA4
330
FA2
100
AcDbDictionary
280
     1
281
     1
  3
ACAD_SORTENTS
360
FA5
  0
XRECORD
  5
F99
102
{ACAD_REACTORS
330
C
102
}
330
C
100
AcDbXrecord
280
     1
300
ACDLT
300
2020
300

  0
DICTIONARY
  5
6B
102
{ACAD_REACTORS
330
C
102
}
330
C
100
AcDbDictionary
281
     1
  0
DICTIONARY
  5
F93
102
{ACAD_REACTORS
330
C
102
}
330
C
100
AcDbDictionary
281
     1
  3
Imperial24
350
FA1
  3
Metric50
350
F94
  0
DICTIONARY
  5
D
102
{ACAD_REACTORS
330
C
102
}
330
C
100
AcDbDictionary
281
     1
  0
DICTIONARY
  5
1A
102
{ACAD_REACTORS
330
C
102
}
330
C
100
AcDbDictionary
281
     1
  3
Layout1
350
F50
  3
Model
350
22
  0
DICTIONARY
  5
6A
102
{ACAD_REACTORS
330
C
102
}
330
C
100
AcDbDictionary
281
     1
  3
ByBlock
350
ED
  3
ByLayer
350
EC
  3
Global
350
EE
  0
DICTIONARY
  5
12D
102
{ACAD_REACTORS
330
C
102
}
330
C
100
AcDbDictionary
281
     1
  3
Standard
350
12E
  0
DICTIONARY
  5
17
102
{ACAD_REACTORS
330
C
102
}
330
C
100
AcDbDictionary
281
     1
  3
Standard
350
18
  0
DICTIONARY
  5
19
102
{ACAD_REACTORS
330
C
102
}
330
C
100
AcDbDictionary
281
     1
  0
ACDBDICTIONARYWDFLT
  5
E
102
{ACAD_REACTORS
330
C
102
}
330
C
100
AcDbDictionary
281
     1
  3
Normal
350
F
100
AcDbDictionaryWithDefault
340
F
  0
DICTIONARY
  5
10C
102
{ACAD_REACTORS
330
C
102
}
330
C
100
AcDbDictionary
281
     1
  3
A0
350
10D
  3
A1
350
1BE
  3
A2
350
1BF
  3
A3
350
1C0
  3
A4
350
1C1
  3
A5
350
1C2
  3
A6
350
1C3
  3
A7
350
1C4
  3
A8
350
1C5
  3
A9
350
1C6
  3
B0
350
1C7
  3
B1
350
1C8
  3
B2
350
1C9
  3
B3
350
1CA
  3
B4
350
1CB
  3
B5
350
1CC
  3
B6
350
1CD
  0
DICTIONARY
  5
F91
102
{ACAD_REACTORS
330
C
102
}
330
C
100
AcDbDictionary
281
     1
  3
Imperial24
350
FA0
  3
Metric50
350
F92
  0
DICTIONARY
  5
7E
102
{ACAD_REACTORS
330
C
102
}
330
C
100
AcDbDictionary
281
     1
  3
Standard
350
7F
  0
DICTIONARY
  5
EF
102
{ACAD_REACTORS
330
C
102
}
330
C
100
AcDbDictionary
281
     1
  3
2dWireframe
350
F5
  3
3D Hidden
350
F7
  3
3dWireframe
350
F6
  3
Basic
350
F4
  3
Brighten
350
FB
  3
ColorChange
350
FF
  3
Conceptual
350
F8
  3
Dim
350
FA
  3
EdgeColorOff
350
1E6
  3
Facepattern
350
FE
  3
Flat
350
F0
  3
FlatWithEdges
350
F1
  3
Gouraud
350
F2
  3
GouraudWithEdges
350
F3
  3
Hidden
350
F8B
  3
JitterOff
350
1E4
  3
Linepattern
350
FD
  3
OverhangOff
350
1E5
  3
Realistic
350
F9
  3
Shaded
350
F90
  3
Shaded with edges
350
F8F
  3
Shades of Gray
350
F8C
  3
Sketchy
350
F8D
  3
Thicken
350
FC
  3
Wireframe
350
F8A
  3
X-Ray
350
F8E
  0
XRECORD
  5
FB9
102
{ACAD_REACTORS
330
C
102
}
330
C
100
AcDbXrecord
280
     1
 90
        1
330
7F
  0
DICTIONARY
  5
5E
102
{ACAD_REACTORS
330
C
102
}
330
C
100
AcDbDictionary
281
     1
  3
CANNOSCALE
350
146
  3
CMLEADERSTYLE
350
145
  3
CTABLESTYLE
350
84
  3
CVIEWDETAILSTYLE
350
FB6
  3
CVIEWSECTIONSTYLE
350
FB7
  3
DIMASSOC
350
5F
  3
HIDETEXT
350
63
  3
LAYEREVAL
350
1AE
  3
LAYERNOTIFY
350
1AF
  3
LIGHTINGUNITS
350
F85
  3
MSLTSCALE
350
F84
  0
DICTIONARY
  5
49D
102
{ACAD_REACTORS
330
C
102
}
330
C
100
AcDbDictionary
281
     1
  0
DICTIONARY
  5
208
102
{ACAD_REACTORS
330
207
102
}
330
207
100
AcDbDictionary
281
     1
  0
SORTENTSTABLE
  5
796
102
{ACAD_REACTORS
330
1CE
102
}
330
1CE
100
AcDbSortentsTable
330
1F
331
701
  5
702
331
702
  5
703
331
703
  5
704
331
704
  5
705
331
705
  5
706
331
706
  5
707
331
707
  5
708
331
708
  5
70A
331
709
  5
70B
331
70A
  5
70C
331
70B
  5
70D
331
70C
  5
70E
331
70D
  5
70F
331
70E
  5
710
331
70F
  5
711
331
710
  5
712
331
711
  5
713
331
712
  5
714
331
713
  5
715
331
714
  5
716
331
715
  5
717
331
716
  5
718
331
717
  5
719
331
718
  5
71A
331
719
  5
71B
331
71A
  5
71C
331
71C
  5
71E
331
71D
  5
71F
331
71E
  5
720
331
71F
  5
721
331
720
  5
722
331
721
  5
723
331
722
  5
724
331
723
  5
725
331
724
  5
726
331
725
  5
727
331
726
  5
728
331
727
  5
729
331
728
  5
72A
331
729
  5
72B
331
72A
  5
72C
331
72B
  5
72D
331
72C
  5
72E
331
72D
  5
72F
331
72E
  5
730
331
72F
  5
731
331
730
  5
732
331
731
  5
733
331
732
  5
734
331
733
  5
735
331
734
  5
736
331
735
  5
737
331
736
  5
738
331
737
  5
739
331
738
  5
73A
331
739
  5
73B
331
73A
  5
73C
331
73B
  5
73D
331
73C
  5
73E
331
73D
  5
73F
331
73E
  5
740
331
73F
  5
741
331
740
  5
742
331
741
  5
743
331
742
  5
744
331
743
  5
745
331
744
  5
746
331
745
  5
747
331
746
  5
748
331
747
  5
749
331
748
  5
74A
331
749
  5
74B
331
74A
  5
74C
331
74B
  5
74D
331
74C
  5
74E
331
74D
  5
74F
331
74E
  5
750
331
74F
  5
751
331
750
  5
752
331
751
  5
753
331
752
  5
754
331
753
  5
755
331
754
  5
756
331
755
  5
757
331
756
  5
758
331
757
  5
759
331
758
  5
75A
331
759
  5
75B
331
75A
  5
75C
331
75B
  5
75D
331
75C
  5
75E
331
75D
  5
75F
331
75E
  5
760
331
75F
  5
761
331
760
  5
762
331
761
  5
763
331
762
  5
764
331
763
  5
765
331
764
  5
766
331
765
  5
767
331
766
  5
768
331
767
  5
769
331
768
  5
76A
331
769
  5
76B
331
76A
  5
76C
331
76B
  5
76D
331
76C
  5
76E
331
76D
  5
76F
331
76E
  5
770
331
76F
  5
771
331
770
  5
772
331
771
  5
773
331
772
  5
774
331
773
  5
775
331
774
  5
776
331
775
  5
777
331
776
  5
778
331
777
  5
779
331
778
  5
77A
331
779
  5
77B
331
77A
  5
78A
331
77B
  5
78B
331
78A
  5
78C
331
78B
  5
78D
331
78C
  5
78E
331
78D
  5
78F
331
78E
  5
790
331
78F
  5
791
331
790
  5
792
331
791
  5
793
331
792
  5
794
331
794
  5
797
331
795
  5
709
331
797
  5
701
  0
SORTENTSTABLE
  5
FA5
102
{ACAD_REACTORS
330
FA4
102
}
330
FA4
100
AcDbSortentsTable
330
FA2
  0
ACDBDETAILVIEWSTYLE
  5
FA1
102
{ACAD_REACTORS
330
F93
102
}
330
F93
100
AcDbModelDocViewStyle
 70
     0
  3
Imperial24
290
     0
300
Imperial24
 90
        0
100
AcDbDetailViewStyle
 70
     0
 71
     0
 90
        3
 71
     1
340
11
 62
   256
 40
0.24
340
0
 62
   256
 40
0.24
300

 40
0.36
280
     3
 71
     2
340
16
 90
       25
 62
   256
 71
     3
340
11
 62
   256
 40
0.24
 90
        1
 40
0.75
 90
        1
300
%<\AcVar ViewType \f "%tc1">% %<\AcVar ViewDetailId>%\PSCALE %<\AcVar ViewScale \f "%sn">%
 71
     4
340
16
 90
       25
 62
   256
340
16
 90
       25
 62
   256
280
     0
  0
ACDBDETAILVIEWSTYLE
  5
F94
102
{ACAD_REACTORS
330
F93
102
}
330
F93
100
AcDbModelDocViewStyle
 70
     0
  3
Metric50
290
     1
300
Metric50
 90
        0
100
AcDbDetailViewStyle
 70
     0
 71
     0
 90
        3
 71
     1
340
11
 62
   256
 40
5.0
340
0
 62
   256
 40
5.0
300

 40
0.0
280
     1
 71
     2
340
16
 90
       25
 62
   256
 71
     3
340
11
 62
   256
 40
5.0
 90
        0
 40
15.0
 90
        1
300
%<\AcVar ViewDetailId>% (%<\AcVar ViewScale \f "%sn">%)
 71
     4
340
16
 90
       25
 62
   256
340
16
 90
       25
 62
   256
280
     0
  0
LAYOUT
  5
F50
102
{ACAD_REACTORS
330
1A
102
}
330
1A
100
AcDbPlotSettings
  1

  2
CutePDF Writer
  4

  6

 40
0.0
 41
0.0
 42
0.0
 43
0.0
 44
0.0
 45
0.0
 46
0.0
 47
0.0
 48
0.0
 49
0.0
140
0.0
141
0.0
142
1.0
143
1.0
 70
   688
 72
     0
 73
     0
 74
     5
  7

 75
    16
147
1.0
 76
     0
 77
     2
 78
   300
148
0.0
149
0.0
100
AcDbLayout
  1
Layout1
 70
     1
 71
     1
 10
0.0
 20
0.0
 11
12.0
 21
9.0
 12
0.0
 22
0.0
 32
0.0
 14
0.0
 24
0.0
 34
0.0
 15
0.0
 25
0.0
 35
0.0
146
0.0
 13
0.0
 23
0.0
 33
0.0
 16
1.0
 26
0.0
 36
0.0
 17
0.0
 27
1.0
 37
0.0
 76
     0
330
F4F
  0
LAYOUT
  5
22
102
{ACAD_XDICTIONARY
360
839
102
}
102
{ACAD_REACTORS
330
1A
102
}
330
1A
100
AcDbPlotSettings
  1

  2
none_device
  4
ISO_A4_(210.00_x_297.00_MM)
  6

 40
7.5
 41
20.0
 42
7.5
 43
20.0
 44
210.0
 45
297.0
 46
11.54999923706054
 47
-13.65000009536743
 48
0.0
 49
0.0
140
0.0
141
0.0
142
1.0
143
8.704084754739808
 70
 11952
 72
     1
 73
     0
 74
     0
  7

 75
     0
147
0.1148885871608098
 76
     0
 77
     2
 78
   300
148
0.0
149
0.0
100
AcDbLayout
  1
Model
 70
     1
 71
     0
 10
0.0
 20
0.0
 11
12.0
 21
9.0
 12
0.0
 22
0.0
 32
0.0
 14
0.0
 24
0.0
 34
0.0
 15
0.0
 25
0.0
 35
0.0
146
0.0
 13
0.0
 23
0.0
 33
0.0
 16
1.0
 26
0.0
 36
0.0
 17
0.0
 27
1.0
 37
0.0
 76
     0
330
1F
331
EA
1001
ACAD_PSEXT
1000
None
1000
None
1000
Not applicable
1000
The layout will not be plotted unless a new plotter configuration name is selected.
1070
     0
  0
MATERIAL
  5
ED
102
{ACAD_REACTORS
330
6A
102
}
330
6A
100
AcDbMaterial
  1
ByBlock
 94
       63
  0
MATERIAL
  5
EC
102
{ACAD_REACTORS
330
6A
102
}
330
6A
100
AcDbMaterial
  1
ByLayer
 94
       63
  0
MATERIAL
  5
EE
102
{ACAD_XDICTIONARY
360
173
102
}
102
{ACAD_REACTORS
330
6A
102
}
330
6A
100
AcDbMaterial
  1
Global
 43
0.0007999999797903
 43
0.0
 43
0.0
 43
0.0
 43
0.0
 43
0.0007999999797903
 43
0.0
 43
0.0
 43
0.0
 43
0.0
 43
1.0
 43
0.0
 43
0.0
 43
0.0
 43
0.0
 43
1.0
 49
0.0007999999797903
 49
0.0
 49
0.0
 49
0.0
 49
0.0
 49
0.0007999999797903
 49
0.0
 49
0.0
 49
0.0
 49
0.0
 49
1.0
 49
0.0
 49
0.0
 49
0.0
 49
0.0
 49
1.0
142
0.0007999999797903
142
0.0
142
0.0
142
0.0
142
0.0
142
0.0007999999797903
142
0.0
142
0.0
142
0.0
142
0.0
142
1.0
142
0.0
142
0.0
142
0.0
142
0.0
142
1.0
144
0.0007999999797903
144
0.0
144
0.0
144
0.0
144
0.0
144
0.0007999999797903
144
0.0
144
0.0
144
0.0
144
0.0
144
1.0
144
0.0
144
0.0
144
0.0
144
0.0
144
1.0
 94
       63
1001
ACAD
1070
    -1
1070
     3
1070
     0
1000

1071
        0
1070
     0
  0
MLEADERSTYLE
  5
12E
102
{ACAD_REACTORS
330
12D
102
}
330
12D
100
AcDbMLeaderStyle
179
     2
170
     2
171
     1
172
     0
 90
        2
 40
0.0
 41
0.0
173
     1
 91
-1056964608
340
14
 92
       -2
290
     1
 42
2.0
291
     1
 43
8.0
  3
Standard
 44
4.0
300

342
11
174
     1
178
     1
175
     1
176
     0
 93
-1056964608
 45
4.0
292
     0
297
     0
 46
4.0
 94
-1056964608
 47
1.0
 49
1.0
140
1.0
293
     1
141
0.0
294
     1
177
     0
142
1.0
295
     0
296
     0
143
3.75
271
     0
272
     9
273
     9
298
     0
  0
MLINESTYLE
  5
18
102
{ACAD_REACTORS
330
17
102
}
330
17
100
AcDbMlineStyle
  2
STANDARD
 70
     0
  3

 62
   256
 51
90.0
 52
90.0
 71
     2
 49
0.5
 62
   256
  6
BYLAYER
 49
-0.5
 62
   256
  6
BYLAYER
  0
ACDBPLACEHOLDER
  5
F
102
{ACAD_REACTORS
330
E
102
}
330
E
  0
SCALE
  5
10D
102
{ACAD_REACTORS
330
10C
102
}
330
10C
100
AcDbScale
 70
     0
300
1:1
140
1.0
141
1.0
290
     1
  0
SCALE
  5
1BE
102
{ACAD_REACTORS
330
10C
102
}
330
10C
100
AcDbScale
 70
     0
300
1:2
140
1.0
141
2.0
290
     0
  0
SCALE
  5
1BF
102
{ACAD_REACTORS
330
10C
102
}
330
10C
100
AcDbScale
 70
     0
300
1:4
140
1.0
141
4.0
290
     0
  0
SCALE
  5
1C0
102
{ACAD_REACTORS
330
10C
102
}
330
10C
100
AcDbScale
 70
     0
300
1:5
140
1.0
141
5.0
290
     0
  0
SCALE
  5
1C1
102
{ACAD_REACTORS
330
10C
102
}
330
10C
100
AcDbScale
 70
     0
300
1:8
140
1.0
141
8.0
290
     0
  0
SCALE
  5
1C2
102
{ACAD_REACTORS
330
10C
102
}
330
10C
100
AcDbScale
 70
     0
300
1:10
140
1.0
141
10.0
290
     0
  0
SCALE
  5
1C3
102
{ACAD_REACTORS
330
10C
102
}
330
10C
100
AcDbScale
 70
     0
300
1:16
140
1.0
141
16.0
290
     0
  0
SCALE
  5
1C4
102
{ACAD_REACTORS
330
10C
102
}
330
10C
100
AcDbScale
 70
     0
300
1:20
140
1.0
141
20.0
290
     0
  0
SCALE
  5
1C5
102
{ACAD_REACTORS
330
10C
102
}
330
10C
100
AcDbScale
 70
     0
300
1:30
140
1.0
141
30.0
290
     0
  0
SCALE
  5
1C6
102
{ACAD_REACTORS
330
10C
102
}
330
10C
100
AcDbScale
 70
     0
300
1:40
140
1.0
141
40.0
290
     0
  0
SCALE
  5
1C7
102
{ACAD_REACTORS
330
10C
102
}
330
10C
100
AcDbScale
 70
     0
300
1:50
140
1.0
141
50.0
290
     0
  0
SCALE
  5
1C8
102
{ACAD_REACTORS
330
10C
102
}
330
10C
100
AcDbScale
 70
     0
300
1:100
140
1.0
141
100.0
290
     0
  0
SCALE
  5
1C9
102
{ACAD_REACTORS
330
10C
102
}
330
10C
100
AcDbScale
 70
     0
300
2:1
140
2.0
141
1.0
290
     0
  0
SCALE
  5
1CA
102
{ACAD_REACTORS
330
10C
102
}
330
10C
100
AcDbScale
 70
     0
300
4:1
140
4.0
141
1.0
290
     0
  0
SCALE
  5
1CB
102
{ACAD_REACTORS
330
10C
102
}
330
10C
100
AcDbScale
 70
     0
300
8:1
140
8.0
141
1.0
290
     0
  0
SCALE
  5
1CC
102
{ACAD_REACTORS
330
10C
102
}
330
10C
100
AcDbScale
 70
     0
300
10:1
140
10.0
141
1.0
290
     0
  0
SCALE
  5
1CD
102
{ACAD_REACTORS
330
10C
102
}
330
10C
100
AcDbScale
 70
     0
300
100:1
140
100.0
141
1.0
290
     0
  0
ACDBSECTIONVIEWSTYLE
  5
FA0
102
{ACAD_REACTORS
330
F91
102
}
330
F91
100
AcDbModelDocViewStyle
 70
     0
  3
Imperial24
290
     0
300
Imperial24
 90
        0
100
AcDbSectionViewStyle
 70
     0
 71
     0
 90
       78
 71
     1
340
11
 62
   256
 40
0.24
340
0
340
0
 62
   256
 40
0.24
300
I, O, Q, S, X, Z
 40
0.48
 90
        3
 40
0.18
 90
        1
 71
     2
340
16
 90
       25
 62
   256
340
16
 90
       50
 62
   256
 40
0.24
 40
0.0
 40
0.24
 71
     3
340
11
 62
   256
 40
0.24
 90
        1
 40
0.75
 90
        1
300
%<\AcVar ViewType \f "%tc1">% %<\AcVar ViewSectionStartId>%-%<\AcVar ViewSectionEndId>%\PSCALE %<\AcVar ViewScale \f "%sn">%
 71
     4
 62
   256
 62
   257
300
ANSI31
 40
1.0
 90
        0
290
     0
290
     0
 90
        6
 40
0.0
 40
1.570796326794896
 40
0.2617993877991494
 40
1.308996938995747
 40
-0.2617993877991494
 40
1.832595714594046
  0
ACDBSECTIONVIEWSTYLE
  5
F92
102
{ACAD_REACTORS
330
F91
102
}
330
F91
100
AcDbModelDocViewStyle
 70
     0
  3
Metric50
290
     1
300
Metric50
 90
        0
100
AcDbSectionViewStyle
 70
     0
 71
     0
 90
      102
 71
     1
340
11
 62
   256
 40
5.0
340
0
340
0
 62
   256
 40
5.0
300
I, O, Q, S, X, Z
 40
10.0
 90
        0
 40
2.5
 90
        0
 71
     2
340
16
 90
       25
 62
   256
340
16
 90
       50
 62
   256
 40
5.0
 40
2.5
 40
5.0
 71
     3
340
11
 62
   256
 40
5.0
 90
        0
 40
15.0
 90
        1
300
%<\AcVar ViewSectionStartId>%-%<\AcVar ViewSectionEndId>% (%<\AcVar ViewScale \f "%sn">%)
 71
     4
 62
   256
 62
   257
300
ANSI31
 40
1.0
 90
        0
290
     0
290
     0
 90
        6
 40
0.0
 40
1.570796326794896
 40
0.2617993877991494
 40
1.308996938995747
 40
-0.2617993877991494
 40
1.832595714594046
  0
TABLESTYLE
  5
7F
102
{ACAD_XDICTIONARY
360
162
102
}
102
{ACAD_REACTORS
330
7E
102
}
330
7E
100
AcDbTableStyle
280
     0
  3
Standard
 70
     0
 71
     0
 40
1.5
 41
1.5
280
     0
281
     0
  7
Standard
140
4.5
170
     2
 62
     0
 63
     7
283
     0
 90
      512
 91
        0
  1

274
    -2
284
     1
 64
     0
275
    -2
285
     1
 65
     0
276
    -2
286
     1
 66
     0
277
    -2
287
     1
 67
     0
278
    -2
288
     1
 68
     0
279
    -2
289
     1
 69
     0
  7
Standard
140
6.0
170
     5
 62
     0
 63
     7
283
     0
 90
      512
 91
        0
  1

274
    -2
284
     1
 64
     0
275
    -2
285
     1
 65
     0
276
    -2
286
     1
 66
     0
277
    -2
287
     1
 67
     0
278
    -2
288
     1
 68
     0
279
    -2
289
     1
 69
     0
  7
Standard
140
4.5
170
     5
 62
     0
 63
     7
283
     0
 90
      512
 91
        0
  1

274
    -2
284
     1
 64
     0
275
    -2
285
     1
 65
     0
276
    -2
286
     1
 66
     0
277
    -2
287
     1
 67
     0
278
    -2
288
     1
 68
     0
279
    -2
289
     1
 69
     0
  0
VISUALSTYLE
  5
F5
102
{ACAD_REACTORS
330
EF
102
}
330
EF
100
AcDbVisualStyle
  2
2dWireframe
 70
     4
177
     3
291
     0
 70
    58
 90
        0
176
     1
 90
        2
176
     1
 90
        1
176
     1
 90
        0
176
     1
 40
0.6
176
     1
 40
30.0
176
     1
 62
     7
420
 16777215
176
     1
 90
        1
176
     1
 90
        4
176
     1
 62
     7
176
     1
 62
   257
176
     1
 90
        1
176
     1
 90
        1
176
     1
 40
1.0
176
     1
 90
        0
176
     1
 62
   257
176
     1
 40
1.0
176
     1
 90
        1
176
     1
 90
        6
176
     1
 90
        2
176
     1
 62
     7
176
     1
 90
        5
176
     1
 90
        0
176
     1
 90
        0
176
     1
290
     0
176
     1
 90
        1
176
     1
 40
0.0
176
     1
 90
        0
176
     1
290
     1
176
     1
290
     1
176
     1
290
     0
176
     1
290
     0
176
     1
290
     0
176
     1
290
     0
176
     1
290
     0
176
     1
290
     0
176
     1
290
     0
176
     1
 90
       50
176
     1
 40
0.0
176
     1
 40
1.0
176
     1
 90
        0
176
     1
 62
    18
420
        0
176
     1
 90
       50
176
     1
 90
        3
176
     1
 62
     5
420
      255
176
     1
290
     0
176
     1
 90
       50
176
     1
 90
       50
176
     1
 90
       50
176
     1
290
     0
176
     1
 90
       50
176
     1
 62
   256
176
     0
 40
1.0
176
     0
 90
        2
176
     1
  1
strokes_ogs.tif
176
     1
290
     0
176
     1
 40
1.0
176
     1
 40
1.0
176
     1
  0
VISUALSTYLE
  5
F7
102
{ACAD_REACTORS
330
EF
102
}
330
EF
100
AcDbVisualStyle
  2
3D Hidden
 70
     6
177
     3
291
     0
 70
    58
 90
        1
176
     1
 90
        2
176
     1
 90
        2
176
     1
 90
        0
176
     1
 40
0.6
176
     1
 40
30.0
176
     1
 62
     7
420
 16777215
176
     1
 90
        2
176
     1
 90
        2
176
     1
 62
     7
176
     1
 62
   257
176
     1
 90
        2
176
     1
 90
        1
176
     1
 40
40.0
176
     1
 90
        0
176
     1
 62
   257
176
     1
 40
1.0
176
     1
 90
        1
176
     1
 90
        6
176
     1
 90
        2
176
     1
 62
     7
176
     1
 90
        3
176
     1
 90
        0
176
     1
 90
        0
176
     1
290
     0
176
     1
 90
        1
176
     1
 40
0.0
176
     1
 90
        0
176
     1
290
     0
176
     1
290
     1
176
     1
290
     1
176
     1
290
     0
176
     1
290
     0
176
     1
290
     0
176
     1
290
     0
176
     1
290
     0
176
     1
290
     0
176
     1
 90
       50
176
     1
 40
0.0
176
     1
 40
1.0
176
     1
 90
        0
176
     1
 62
    18
420
        0
176
     1
 90
       50
176
     1
 90
        3
176
     1
 62
     5
420
      255
176
     1
290
     0
176
     1
 90
       50
176
     1
 90
       50
176
     1
 90
       50
176
     1
290
     0
176
     1
 90
       50
176
     1
 62
   256
176
     0
 40
1.0
176
     0
 90
        2
176
     1
  1
strokes_ogs.tif
176
     1
290
     0
176
     1
 40
1.0
176
     1
 40
1.0
176
     1
  0
VISUALSTYLE
  5
F6
102
{ACAD_REACTORS
330
EF
102
}
330
EF
100
AcDbVisualStyle
  2
3dWireframe
 70
     5
177
     3
291
     0
 70
    58
 90
        0
176
     1
 90
        2
176
     1
 90
        1
176
     1
 90
        0
176
     1
 40
0.6
176
     1
 40
30.0
176
     1
 62
     7
420
 16777215
176
     1
 90
        1
176
     1
 90
        4
176
     1
 62
     7
176
     1
 62
   257
176
     1
 90
        1
176
     1
 90
        1
176
     1
 40
1.0
176
     1
 90
        0
176
     1
 62
   257
176
     1
 40
1.0
176
     1
 90
        1
176
     1
 90
        6
176
     1
 90
        2
176
     1
 62
     7
176
     1
 90
        5
176
     1
 90
        0
176
     1
 90
        0
176
     1
290
     0
176
     1
 90
        1
176
     1
 40
0.0
176
     1
 90
        0
176
     1
290
     0
176
     1
290
     1
176
     1
290
     1
176
     1
290
     0
176
     1
290
     0
176
     1
290
     0
176
     1
290
     0
176
     1
290
     0
176
     1
290
     0
176
     1
 90
       50
176
     1
 40
0.0
176
     1
 40
1.0
176
     1
 90
        0
176
     1
 62
    18
420
        0
176
     1
 90
       50
176
     1
 90
        3
176
     1
 62
     5
420
      255
176
     1
290
     0
176
     1
 90
       50
176
     1
 90
       50
176
     1
 90
       50
176
     1
290
     0
176
     1
 90
       50
176
     1
 62
   256
176
     0
 40
1.0
176
     0
 90
        2
176
     1
  1
strokes_ogs.tif
176
     1
290
     0
176
     1
 40
1.0
176
     1
 40
1.0
176
     1
  0
VISUALSTYLE
  5
F4
102
{ACAD_REACTORS
330
EF
102
}
330
EF
100
AcDbVisualStyle
  2
Basic
 70
     7
177
     3
291
     1
 70
    58
 90
        1
176
     1
 90
        0
176
     1
 90
        1
176
     1
 90
        0
176
     1
 40
0.6
176
     1
 40
30.0
176
     1
 62
     7
420
 16777215
176
     1
 90
        0
176
     1
 90
        4
176
     1
 62
     7
176
     1
 62
   257
176
     1
 90
        1
176
     1
 90
        1
176
     1
 40
1.0
176
     1
 90
        8
176
     1
 62
     7
176
     1
 40
1.0
176
     1
 90
        1
176
     1
 90
        6
176
     1
 90
        2
176
     1
 62
     7
176
     1
 90
        5
176
     1
 90
        0
176
     1
 90
        0
176
     1
290
     0
176
     1
 90
        1
176
     1
 40
0.0
176
     1
 90
        0
176
     1
290
     0
176
     1
290
     1
176
     1
290
     1
176
     1
290
     0
176
     1
290
     0
176
     1
290
     0
176
     1
290
     0
176
     1
290
     0
176
     1
290
     0
176
     1
 90
       50
176
     1
 40
0.0
176
     1
 40
1.0
176
     1
 90
        0
176
     1
 62
    18
420
        0
176
     1
 90
       50
176
     1
 90
        3
176
     1
 62
     5
420
      255
176
     1
290
     0
176
     1
 90
       50
176
     1
 90
       50
176
     1
 90
       50
176
     1
290
     0
176
     1
 90
       50
176
     1
 62
   256
176
     0
 40
1.0
176
     0
 90
        2
176
     1
  1
strokes_ogs.tif
176
     1
290
     0
176
     1
 40
1.0
176
     1
 40
1.0
176
     1
  0
VISUALSTYLE
  5
FB
102
{ACAD_REACTORS
330
EF
102
}
330
EF
100
AcDbVisualStyle
  2
Brighten
 70
    12
177
     3
291
     1
 70
    58
 90
        2
176
     1
 90
        2
176
     1
 90
        1
176
     1
 90
        0
176
     1
 40
0.6
176
     1
 40
30.0
176
     1
 62
     7
420
 16777215
176
     1
 90
        1
176
     1
 90
        4
176
     1
 62
     7
176
     1
 62
   257
176
     1
 90
        1
176
     1
 90
        1
176
     1
 40
1.0
176
     1
 90
        8
176
     1
 62
     7
176
     1
 40
1.0
176
     1
 90
        1
176
     1
 90
        6
176
     1
 90
        2
176
     1
 62
     7
176
     1
 90
        5
176
     1
 90
        0
176
     1
 90
        0
176
     1
290
     0
176
     1
 90
        1
176
     1
 40
50.0
176
     1
 90
        0
176
     1
290
     0
176
     1
290
     1
176
     1
290
     1
176
     1
290
     0
176
     1
290
     0
176
     1
290
     0
176
     1
290
     0
176
     1
290
     0
176
     1
290
     0
176
     1
 90
       50
176
     1
 40
0.0
176
     1
 40
1.0
176
     1
 90
        0
176
     1
 62
    18
420
        0
176
     1
 90
       50
176
     1
 90
        3
176
     1
 62
     5
420
      255
176
     1
290
     0
176
     1
 90
       50
176
     1
 90
       50
176
     1
 90
       50
176
     1
290
     0
176
     1
 90
       50
176
     1
 62
   256
176
     0
 40
1.0
176
     0
 90
        2
176
     1
  1
strokes_ogs.tif
176
     1
290
     0
176
     1
 40
1.0
176
     1
 40
1.0
176
     1
  0
VISUALSTYLE
  5
FF
102
{ACAD_REACTORS
330
EF
102
}
330
EF
100
AcDbVisualStyle
  2
ColorChange
 70
    16
177
     3
291
     1
 70
    58
 90
        2
176
     1
 90
        2
176
     1
 90
        3
176
     1
 90
        0
176
     1
 40
0.6
176
     1
 40
30.0
176
     1
 62
     8
420
  8421504
176
     1
 90
        1
176
     1
 90
        4
176
     1
 62
     7
176
     1
 62
   257
176
     1
 90
        1
176
     1
 90
        1
176
     1
 40
1.0
176
     1
 90
        8
176
     1
 62
     8
420
  8421504
176
     1
 40
1.0
176
     1
 90
        1
176
     1
 90
        6
176
     1
 90
        2
176
     1
 62
     7
176
     1
 90
        5
176
     1
 90
        0
176
     1
 90
        0
176
     1
290
     0
176
     1
 90
        1
176
     1
 40
0.0
176
     1
 90
        0
176
     1
290
     0
176
     1
290
     1
176
     1
290
     1
176
     1
290
     0
176
     1
290
     0
176
     1
290
     0
176
     1
290
     0
176
     1
290
     0
176
     1
290
     0
176
     1
 90
       50
176
     1
 40
0.0
176
     1
 40
1.0
176
     1
 90
        0
176
     1
 62
    18
420
        0
176
     1
 90
       50
176
     1
 90
        3
176
     1
 62
     5
420
      255
176
     1
290
     0
176
     1
 90
       50
176
     1
 90
       50
176
     1
 90
       50
176
     1
290
     0
176
     1
 90
       50
176
     1
 62
   256
176
     0
 40
1.0
176
     0
 90
        2
176
     1
  1
strokes_ogs.tif
176
     1
290
     0
176
     1
 40
1.0
176
     1
 40
1.0
176
     1
  0
VISUALSTYLE
  5
F8
102
{ACAD_REACTORS
330
EF
102
}
330
EF
100
AcDbVisualStyle
  2
Conceptual
 70
     9
177
     3
291
     0
 70
    58
 90
        3
176
     1
 90
        2
176
     1
 90
        1
176
     1
 90
        0
176
     1
 40
0.6
176
     1
 40
30.0
176
     1
 62
     7
420
 16777215
176
     1
 90
        2
176
     1
 90
        2
176
     1
 62
     7
176
     1
 62
   257
176
     1
 90
        1
176
     1
 90
        1
176
     1
 40
40.0
176
     1
 90
        8
176
     1
 62
     7
176
     1
 40
1.0
176
     1
 90
        1
176
     1
 90
        6
176
     1
 90
        2
176
     1
 62
     7
176
     1
 90
        3
176
     1
 90
        0
176
     1
 90
        0
176
     1
290
     0
176
     1
 90
        1
176
     1
 40
0.0
176
     1
 90
        0
176
     1
290
     0
176
     1
290
     1
176
     1
290
     1
176
     1
290
     0
176
     1
290
     0
176
     1
290
     0
176
     1
290
     0
176
     1
290
     0
176
     1
290
     0
176
     1
 90
       50
176
     1
 40
0.0
176
     1
 40
1.0
176
     1
 90
        0
176
     1
 62
    18
420
        0
176
     1
 90
       50
176
     1
 90
        3
176
     1
 62
     5
420
      255
176
     1
290
     0
176
     1
 90
       50
176
     1
 90
       50
176
     1
 90
       50
176
     1
290
     0
176
     1
 90
       50
176
     1
 62
   256
176
     0
 40
1.0
176
     0
 90
        2
176
     1
  1
strokes_ogs.tif
176
     1
290
     0
176
     1
 40
1.0
176
     1
 40
1.0
176
     1
  0
VISUALSTYLE
  5
FA
102
{ACAD_REACTORS
330
EF
102
}
330
EF
100
AcDbVisualStyle
  2
Dim
 70
    11
177
     3
291
     1
 70
    58
 90
        2
176
     1
 90
        2
176
     1
 90
        1
176
     1
 90
        0
176
     1
 40
0.6
176
     1
 40
30.0
176
     1
 62
     7
420
 16777215
176
     1
 90
        1
176
     1
 90
        4
176
     1
 62
     7
176
     1
 62
   257
176
     1
 90
        1
176
     1
 90
        1
176
     1
 40
1.0
176
     1
 90
        8
176
     1
 62
     7
176
     1
 40
1.0
176
     1
 90
        1
176
     1
 90
        6
176
     1
 90
        2
176
     1
 62
     7
176
     1
 90
        5
176
     1
 90
        0
176
     1
 90
        0
176
     1
290
     0
176
     1
 90
        1
176
     1
 40
-50.0
176
     1
 90
        0
176
     1
290
     0
176
     1
290
     1
176
     1
290
     1
176
     1
290
     0
176
     1
290
     0
176
     1
290
     0
176
     1
290
     0
176
     1
290
     0
176
     1
290
     0
176
     1
 90
       50
176
     1
 40
0.0
176
     1
 40
1.0
176
     1
 90
        0
176
     1
 62
    18
420
        0
176
     1
 90
       50
176
     1
 90
        3
176
     1
 62
     5
420
      255
176
     1
290
     0
176
     1
 90
       50
176
     1
 90
       50
176
     1
 90
       50
176
     1
290
     0
176
     1
 90
       50
176
     1
 62
   256
176
     0
 40
1.0
176
     0
 90
        2
176
     1
  1
strokes_ogs.tif
176
     1
290
     0
176
     1
 40
1.0
176
     1
 40
1.0
176
     1
  0
VISUALSTYLE
  5
1E6
102
{ACAD_REACTORS
330
EF
102
}
330
EF
100
AcDbVisualStyle
  2
EdgeColorOff
 70
    22
177
     3
291
     1
 70
    58
 90
        2
176
     0
 90
        2
176
     0
 90
        0
176
     0
 90
        0
176
     0
 40
0.6
176
     0
 40
30.0
176
     0
 62
     7
420
 16777215
176
     0
 90
        1
176
     0
 90
        4
176
     0
 62
     7
176
     0
 62
   257
176
     0
 90
        1
176
     0
 90
        1
176
     0
 40
1.0
176
     0
 90
        8
176
     2
 62
     7
176
     0
 40
1.0
176
     0
 90
        1
176
     0
 90
        6
176
     0
 90
        2
176
     0
 62
     7
176
     0
 90
        5
176
     0
 90
        0
176
     0
 90
        0
176
     0
290
     0
176
     0
 90
        1
176
     0
 40
0.0
176
     0
 90
        0
176
     0
290
     0
176
     1
290
     1
176
     1
290
     1
176
     1
290
     0
176
     1
290
     0
176
     1
290
     0
176
     1
290
     0
176
     1
290
     0
176
     1
290
     0
176
     1
 90
       50
176
     1
 40
0.0
176
     1
 40
1.0
176
     1
 90
        0
176
     1
 62
    18
420
        0
176
     1
 90
       50
176
     1
 90
        3
176
     1
 62
     5
420
      255
176
     1
290
     0
176
     1
 90
       50
176
     1
 90
       50
176
     1
 90
       50
176
     1
290
     0
176
     1
 90
       50
176
     1
 62
   256
176
     0
 40
1.0
176
     0
 90
        2
176
     1
  1
strokes_ogs.tif
176
     1
290
     0
176
     1
 40
1.0
176
     1
 40
1.0
176
     1
  0
VISUALSTYLE
  5
FE
102
{ACAD_REACTORS
330
EF
102
}
330
EF
100
AcDbVisualStyle
  2
Facepattern
 70
    15
177
     3
291
     1
 70
    58
 90
        2
176
     1
 90
        2
176
     1
 90
        1
176
     1
 90
        0
176
     1
 40
0.6
176
     1
 40
30.0
176
     1
 62
     7
420
 16777215
176
     1
 90
        1
176
     1
 90
        4
176
     1
 62
     7
176
     1
 62
   257
176
     1
 90
        1
176
     1
 90
        1
176
     1
 40
1.0
176
     1
 90
        8
176
     1
 62
     7
176
     1
 40
1.0
176
     1
 90
        1
176
     1
 90
        6
176
     1
 90
        2
176
     1
 62
     7
176
     1
 90
        5
176
     1
 90
        0
176
     1
 90
        0
176
     1
290
     0
176
     1
 90
        1
176
     1
 40
0.0
176
     1
 90
        0
176
     1
290
     0
176
     1
290
     1
176
     1
290
     1
176
     1
290
     0
176
     1
290
     0
176
     1
290
     0
176
     1
290
     0
176
     1
290
     0
176
     1
290
     0
176
     1
 90
       50
176
     1
 40
0.0
176
     1
 40
1.0
176
     1
 90
        0
176
     1
 62
    18
420
        0
176
     1
 90
       50
176
     1
 90
        3
176
     1
 62
     5
420
      255
176
     1
290
     0
176
     1
 90
       50
176
     1
 90
       50
176
     1
 90
       50
176
     1
290
     0
176
     1
 90
       50
176
     1
 62
   256
176
     0
 40
1.0
176
     0
 90
        2
176
     1
  1
strokes_ogs.tif
176
     1
290
     0
176
     1
 40
1.0
176
     1
 40
1.0
176
     1
  0
VISUALSTYLE
  5
F0
102
{ACAD_REACTORS
330
EF
102
}
330
EF
100
AcDbVisualStyle
  2
Flat
 70
     0
177
     3
291
     1
 70
    58
 90
        2
176
     1
 90
        1
176
     1
 90
        1
176
     1
 90
        2
176
     1
 40
0.6
176
     1
 40
30.0
176
     1
 62
     7
420
 16777215
176
     1
 90
        0
176
     1
 90
        4
176
     1
 62
     7
176
     1
 62
   257
176
     1
 90
        1
176
     1
 90
        1
176
     1
 40
1.0
176
     1
 90
        8
176
     1
 62
     7
176
     1
 40
1.0
176
     1
 90
        1
176
     1
 90
        6
176
     1
 90
        2
176
     1
 62
     7
176
     1
 90
        5
176
     1
 90
        0
176
     1
 90
        0
176
     1
290
     0
176
     1
 90
        1
176
     1
 40
0.0
176
     1
 90
        0
176
     1
290
     0
176
     1
290
     1
176
     1
290
     1
176
     1
290
     0
176
     1
290
     0
176
     1
290
     0
176
     1
290
     0
176
     1
290
     0
176
     1
290
     0
176
     1
 90
       50
176
     1
 40
0.0
176
     1
 40
1.0
176
     1
 90
        0
176
     1
 62
    18
420
        0
176
     1
 90
       50
176
     1
 90
        3
176
     1
 62
     5
420
      255
176
     1
290
     0
176
     1
 90
       50
176
     1
 90
       50
176
     1
 90
       50
176
     1
290
     0
176
     1
 90
       50
176
     1
 62
   256
176
     0
 40
1.0
176
     0
 90
        2
176
     1
  1
strokes_ogs.tif
176
     1
290
     0
176
     1
 40
1.0
176
     1
 40
1.0
176
     1
  0
VISUALSTYLE
  5
F1
102
{ACAD_REACTORS
330
EF
102
}
330
EF
100
AcDbVisualStyle
  2
FlatWithEdges
 70
     1
177
     3
291
     1
 70
    58
 90
        2
176
     1
 90
        1
176
     1
 90
        1
176
     1
 90
        2
176
     1
 40
0.6
176
     1
 40
30.0
176
     1
 62
     7
420
 16777215
176
     1
 90
        1
176
     1
 90
        4
176
     1
 62
     7
176
     1
 62
   257
176
     1
 90
        1
176
     1
 90
        1
176
     1
 40
1.0
176
     1
 90
        0
176
     1
 62
   257
176
     1
 40
1.0
176
     1
 90
        1
176
     1
 90
        6
176
     1
 90
        2
176
     1
 62
     7
176
     1
 90
        5
176
     1
 90
        0
176
     1
 90
        0
176
     1
290
     0
176
     1
 90
        1
176
     1
 40
0.0
176
     1
 90
        0
176
     1
290
     0
176
     1
290
     1
176
     1
290
     1
176
     1
290
     0
176
     1
290
     0
176
     1
290
     0
176
     1
290
     0
176
     1
290
     0
176
     1
290
     0
176
     1
 90
       50
176
     1
 40
0.0
176
     1
 40
1.0
176
     1
 90
        0
176
     1
 62
    18
420
        0
176
     1
 90
       50
176
     1
 90
        3
176
     1
 62
     5
420
      255
176
     1
290
     0
176
     1
 90
       50
176
     1
 90
       50
176
     1
 90
       50
176
     1
290
     0
176
     1
 90
       50
176
     1
 62
   256
176
     0
 40
1.0
176
     0
 90
        2
176
     1
  1
strokes_ogs.tif
176
     1
290
     0
176
     1
 40
1.0
176
     1
 40
1.0
176
     1
  0
VISUALSTYLE
  5
F2
102
{ACAD_REACTORS
330
EF
102
}
330
EF
100
AcDbVisualStyle
  2
Gouraud
 70
     2
177
     3
291
     1
 70
    58
 90
        2
176
     1
 90
        2
176
     1
 90
        1
176
     1
 90
        2
176
     1
 40
0.6
176
     1
 40
30.0
176
     1
 62
     7
420
 16777215
176
     1
 90
        0
176
     1
 90
        4
176
     1
 62
     7
176
     1
 62
   257
176
     1
 90
        1
176
     1
 90
        1
176
     1
 40
1.0
176
     1
 90
        0
176
     1
 62
     7
176
     1
 40
1.0
176
     1
 90
        1
176
     1
 90
        6
176
     1
 90
        2
176
     1
 62
     7
176
     1
 90
        5
176
     1
 90
        0
176
     1
 90
        0
176
     1
290
     0
176
     1
 90
        1
176
     1
 40
0.0
176
     1
 90
        0
176
     1
290
     0
176
     1
290
     1
176
     1
290
     1
176
     1
290
     0
176
     1
290
     0
176
     1
290
     0
176
     1
290
     0
176
     1
290
     0
176
     1
290
     0
176
     1
 90
       50
176
     1
 40
0.0
176
     1
 40
1.0
176
     1
 90
        0
176
     1
 62
    18
420
        0
176
     1
 90
       50
176
     1
 90
        3
176
     1
 62
     5
420
      255
176
     1
290
     0
176
     1
 90
       50
176
     1
 90
       50
176
     1
 90
       50
176
     1
290
     0
176
     1
 90
       50
176
     1
 62
   256
176
     0
 40
1.0
176
     0
 90
        2
176
     1
  1
strokes_ogs.tif
176
     1
290
     0
176
     1
 40
1.0
176
     1
 40
1.0
176
     1
  0
VISUALSTYLE
  5
F3
102
{ACAD_REACTORS
330
EF
102
}
330
EF
100
AcDbVisualStyle
  2
GouraudWithEdges
 70
     3
177
     3
291
     1
 70
    58
 90
        2
176
     1
 90
        2
176
     1
 90
        1
176
     1
 90
        2
176
     1
 40
0.6
176
     1
 40
30.0
176
     1
 62
     7
420
 16777215
176
     1
 90
        1
176
     1
 90
        4
176
     1
 62
     7
176
     1
 62
   257
176
     1
 90
        1
176
     1
 90
        1
176
     1
 40
1.0
176
     1
 90
        0
176
     1
 62
   257
176
     1
 40
1.0
176
     1
 90
        1
176
     1
 90
        6
176
     1
 90
        2
176
     1
 62
     7
176
     1
 90
        5
176
     1
 90
        0
176
     1
 90
        0
176
     1
290
     0
176
     1
 90
        1
176
     1
 40
0.0
176
     1
 90
        0
176
     1
290
     0
176
     1
290
     1
176
     1
290
     1
176
     1
290
     0
176
     1
290
     0
176
     1
290
     0
176
     1
290
     0
176
     1
290
     0
176
     1
290
     0
176
     1
 90
       50
176
     1
 40
0.0
176
     1
 40
1.0
176
     1
 90
        0
176
     1
 62
    18
420
        0
176
     1
 90
       50
176
     1
 90
        3
176
     1
 62
     5
420
      255
176
     1
290
     0
176
     1
 90
       50
176
     1
 90
       50
176
     1
 90
       50
176
     1
290
     0
176
     1
 90
       50
176
     1
 62
   256
176
     0
 40
1.0
176
     0
 90
        2
176
     1
  1
strokes_ogs.tif
176
     1
290
     0
176
     1
 40
1.0
176
     1
 40
1.0
176
     1
  0
VISUALSTYLE
  5
F8B
102
{ACAD_REACTORS
330
EF
102
}
330
EF
100
AcDbVisualStyle
  2
Hidden
 70
     6
177
     3
291
     0
 70
    58
 90
        1
176
     1
 90
        2
176
     1
 90
        2
176
     1
 90
        0
176
     1
 40
0.6
176
     1
 40
30.0
176
     1
 62
     7
420
 16777215
176
     1
 90
        2
176
     1
 90
        2
176
     1
 62
     7
176
     1
 62
   257
176
     1
 90
        2
176
     1
 90
        1
176
     1
 40
40.0
176
     1
 90
        0
176
     1
 62
   257
176
     1
 40
1.0
176
     1
 90
        1
176
     1
 90
        6
176
     1
 90
        2
176
     1
 62
     7
176
     1
 90
        3
176
     1
 90
        0
176
     1
 90
        0
176
     1
290
     0
176
     1
 90
        1
176
     1
 40
0.0
176
     1
 90
        0
176
     1
290
     0
176
     1
290
     1
176
     1
290
     1
176
     1
290
     0
176
     1
290
     0
176
     1
290
     0
176
     1
290
     0
176
     1
290
     0
176
     1
290
     0
176
     1
 90
       50
176
     1
 40
0.0
176
     1
 40
1.0
176
     1
 90
        0
176
     1
 62
    18
420
        0
176
     1
 90
       50
176
     1
 90
        3
176
     1
 62
     5
420
      255
176
     1
290
     0
176
     1
 90
       50
176
     1
 90
       50
176
     1
 90
       50
176
     1
290
     0
176
     1
 90
       50
176
     1
 62
   256
176
     0
 40
1.0
176
     0
 90
        2
176
     1
  1
strokes_ogs.tif
176
     1
290
     0
176
     1
 40
1.0
176
     1
 40
1.0
176
     1
  0
VISUALSTYLE
  5
1E4
102
{ACAD_REACTORS
330
EF
102
}
330
EF
100
AcDbVisualStyle
  2
JitterOff
 70
    20
177
     3
291
     1
 70
    58
 90
        2
176
     0
 90
        2
176
     0
 90
        0
176
     0
 90
        0
176
     0
 40
0.6
176
     0
 40
30.0
176
     0
 62
     7
420
 16777215
176
     0
 90
        1
176
     0
 90
        4
176
     0
 62
     7
176
     0
 62
   257
176
     0
 90
        1
176
     0
 90
        1
176
     0
 40
1.0
176
     0
 90
       10
176
     2
 62
     7
176
     0
 40
1.0
176
     0
 90
        1
176
     0
 90
        6
176
     0
 90
        2
176
     0
 62
     7
176
     0
 90
        5
176
     0
 90
        0
176
     0
 90
        0
176
     0
290
     0
176
     0
 90
        1
176
     0
 40
0.0
176
     0
 90
        0
176
     0
290
     0
176
     1
290
     1
176
     1
290
     1
176
     1
290
     0
176
     1
290
     0
176
     1
290
     0
176
     1
290
     0
176
     1
290
     0
176
     1
290
     0
176
     1
 90
       50
176
     1
 40
0.0
176
     1
 40
1.0
176
     1
 90
        0
176
     1
 62
    18
420
        0
176
     1
 90
       50
176
     1
 90
        3
176
     1
 62
     5
420
      255
176
     1
290
     0
176
     1
 90
       50
176
     1
 90
       50
176
     1
 90
       50
176
     1
290
     0
176
     1
 90
       50
176
     1
 62
   256
176
     0
 40
1.0
176
     0
 90
        2
176
     1
  1
strokes_ogs.tif
176
     1
290
     0
176
     1
 40
1.0
176
     1
 40
1.0
176
     1
  0
VISUALSTYLE
  5
FD
102
{ACAD_REACTORS
330
EF
102
}
330
EF
100
AcDbVisualStyle
  2
Linepattern
 70
    14
177
     3
291
     1
 70
    58
 90
        2
176
     1
 90
        2
176
     1
 90
        1
176
     1
 90
        0
176
     1
 40
0.6
176
     1
 40
30.0
176
     1
 62
     7
420
 16777215
176
     1
 90
        1
176
     1
 90
        4
176
     1
 62
     7
176
     1
 62
   257
176
     1
 90
        7
176
     1
 90
        7
176
     1
 40
1.0
176
     1
 90
        8
176
     1
 62
     7
176
     1
 40
1.0
176
     1
 90
        1
176
     1
 90
        6
176
     1
 90
        2
176
     1
 62
     7
176
     1
 90
        5
176
     1
 90
        0
176
     1
 90
        0
176
     1
290
     0
176
     1
 90
        1
176
     1
 40
0.0
176
     1
 90
        0
176
     1
290
     0
176
     1
290
     1
176
     1
290
     1
176
     1
290
     0
176
     1
290
     0
176
     1
290
     0
176
     1
290
     0
176
     1
290
     0
176
     1
290
     0
176
     1
 90
       50
176
     1
 40
0.0
176
     1
 40
1.0
176
     1
 90
        0
176
     1
 62
    18
420
        0
176
     1
 90
       50
176
     1
 90
        3
176
     1
 62
     5
420
      255
176
     1
290
     0
176
     1
 90
       50
176
     1
 90
       50
176
     1
 90
       50
176
     1
290
     0
176
     1
 90
       50
176
     1
 62
   256
176
     0
 40
1.0
176
     0
 90
        2
176
     1
  1
strokes_ogs.tif
176
     1
290
     0
176
     1
 40
1.0
176
     1
 40
1.0
176
     1
  0
VISUALSTYLE
  5
1E5
102
{ACAD_REACTORS
330
EF
102
}
330
EF
100
AcDbVisualStyle
  2
OverhangOff
 70
    21
177
     3
291
     1
 70
    58
 90
        2
176
     0
 90
        2
176
     0
 90
        0
176
     0
 90
        0
176
     0
 40
0.6
176
     0
 40
30.0
176
     0
 62
     7
420
 16777215
176
     0
 90
        1
176
     0
 90
        4
176
     0
 62
     7
176
     0
 62
   257
176
     0
 90
        1
176
     0
 90
        1
176
     0
 40
1.0
176
     0
 90
        9
176
     2
 62
     7
176
     0
 40
1.0
176
     0
 90
        1
176
     0
 90
        6
176
     0
 90
        2
176
     0
 62
     7
176
     0
 90
        5
176
     0
 90
        0
176
     0
 90
        0
176
     0
290
     0
176
     0
 90
        1
176
     0
 40
0.0
176
     0
 90
        0
176
     0
290
     0
176
     1
290
     1
176
     1
290
     1
176
     1
290
     0
176
     1
290
     0
176
     1
290
     0
176
     1
290
     0
176
     1
290
     0
176
     1
290
     0
176
     1
 90
       50
176
     1
 40
0.0
176
     1
 40
1.0
176
     1
 90
        0
176
     1
 62
    18
420
        0
176
     1
 90
       50
176
     1
 90
        3
176
     1
 62
     5
420
      255
176
     1
290
     0
176
     1
 90
       50
176
     1
 90
       50
176
     1
 90
       50
176
     1
290
     0
176
     1
 90
       50
176
     1
 62
   256
176
     0
 40
1.0
176
     0
 90
        2
176
     1
  1
strokes_ogs.tif
176
     1
290
     0
176
     1
 40
1.0
176
     1
 40
1.0
176
     1
  0
VISUALSTYLE
  5
F9
102
{ACAD_REACTORS
330
EF
102
}
330
EF
100
AcDbVisualStyle
  2
Realistic
 70
     8
177
     3
291
     0
 70
    58
 90
        2
176
     1
 90
        2
176
     1
 90
        1
176
     1
 90
        0
176
     1
 40
0.6
176
     1
 40
30.0
176
     1
 62
     7
420
 16777215
176
     1
 90
        1
176
     1
 90
        0
176
     1
 62
     7
176
     1
 62
   257
176
     1
 90
        1
176
     1
 90
        1
176
     1
 40
1.0
176
     1
 90
        8
176
     1
 62
     8
420
  7895160
176
     1
 40
1.0
176
     1
 90
        1
176
     1
 90
        6
176
     1
 90
        2
176
     1
 62
     7
176
     1
 90
        5
176
     1
 90
        0
176
     1
 90
        0
176
     1
290
     0
176
     1
 90
       13
176
     1
 40
0.0
176
     1
 90
        0
176
     1
290
     0
176
     1
290
     1
176
     1
290
     1
176
     1
290
     0
176
     1
290
     0
176
     1
290
     0
176
     1
290
     0
176
     1
290
     0
176
     1
290
     0
176
     1
 90
       50
176
     1
 40
0.0
176
     1
 40
1.0
176
     1
 90
        0
176
     1
 62
    18
420
        0
176
     1
 90
       50
176
     1
 90
        3
176
     1
 62
     5
420
      255
176
     1
290
     0
176
     1
 90
       50
176
     1
 90
       50
176
     1
 90
       50
176
     1
290
     0
176
     1
 90
       50
176
     1
 62
   256
176
     0
 40
1.0
176
     0
 90
        2
176
     1
  1
strokes_ogs.tif
176
     1
290
     0
176
     1
 40
1.0
176
     1
 40
1.0
176
     1
  0
VISUALSTYLE
  5
F90
102
{ACAD_REACTORS
330
EF
102
}
330
EF
100
AcDbVisualStyle
  2
Shaded
 70
    27
177
     3
291
     0
 70
    58
 90
        2
176
     1
 90
        2
176
     1
 90
        1
176
     1
 90
        2
176
     1
 40
0.6
176
     1
 40
30.0
176
     1
 62
     7
420
 16777215
176
     1
 90
        0
176
     1
 90
        4
176
     1
 62
     7
176
     1
 62
   257
176
     1
 90
        1
176
     1
 90
        1
176
     1
 40
1.0
176
     1
 90
        8
176
     1
 62
   257
176
     1
 40
1.0
176
     1
 90
        1
176
     1
 90
        6
176
     1
 90
        2
176
     1
 62
     8
420
  7895160
176
     1
 90
        3
176
     1
 90
        0
176
     1
 90
        0
176
     1
290
     0
176
     1
 90
        5
176
     1
 40
0.0
176
     1
 90
        0
176
     1
290
     0
176
     1
290
     1
176
     1
290
     1
176
     1
290
     0
176
     1
290
     0
176
     1
290
     0
176
     1
290
     0
176
     1
290
     0
176
     1
290
     0
176
     1
 90
       50
176
     1
 40
0.0
176
     1
 40
1.0
176
     1
 90
        0
176
     1
 62
    18
420
        0
176
     1
 90
       50
176
     1
 90
        3
176
     1
 62
     5
420
      255
176
     1
290
     0
176
     1
 90
       50
176
     1
 90
       50
176
     1
 90
       50
176
     1
290
     0
176
     1
 90
       50
176
     1
 62
   256
176
     0
 40
1.0
176
     0
 90
        2
176
     1
  1
strokes_ogs.tif
176
     1
290
     0
176
     1
 40
1.0
176
     1
 40
1.0
176
     1
  0
VISUALSTYLE
  5
F8F
102
{ACAD_REACTORS
330
EF
102
}
330
EF
100
AcDbVisualStyle
  2
Shaded with edges
 70
    26
177
     3
291
     0
 70
    58
 90
        2
176
     1
 90
        2
176
     1
 90
        1
176
     1
 90
        2
176
     1
 40
0.6
176
     1
 40
30.0
176
     1
 62
     7
420
 16777215
176
     1
 90
        1
176
     1
 90
        2
176
     1
 62
     7
176
     1
 62
   257
176
     1
 90
        2
176
     1
 90
        1
176
     1
 40
1.0
176
     1
 90
        8
176
     1
 62
   257
176
     1
 40
1.0
176
     1
 90
        1
176
     1
 90
        6
176
     1
 90
        2
176
     1
 62
     7
176
     1
 90
        3
176
     1
 90
        0
176
     1
 90
        0
176
     1
290
     0
176
     1
 90
        5
176
     1
 40
0.0
176
     1
 90
        0
176
     1
290
     0
176
     1
290
     1
176
     1
290
     1
176
     1
290
     0
176
     1
290
     0
176
     1
290
     0
176
     1
290
     0
176
     1
290
     0
176
     1
290
     0
176
     1
 90
       50
176
     1
 40
0.0
176
     1
 40
1.0
176
     1
 90
        0
176
     1
 62
    18
420
        0
176
     1
 90
       50
176
     1
 90
        3
176
     1
 62
     5
420
      255
176
     1
290
     0
176
     1
 90
       50
176
     1
 90
       50
176
     1
 90
       50
176
     1
290
     0
176
     1
 90
       50
176
     1
 62
   256
176
     0
 40
1.0
176
     0
 90
        2
176
     1
  1
strokes_ogs.tif
176
     1
290
     0
176
     1
 40
1.0
176
     1
 40
1.0
176
     1
  0
VISUALSTYLE
  5
F8C
102
{ACAD_REACTORS
330
EF
102
}
330
EF
100
AcDbVisualStyle
  2
Shades of Gray
 70
    23
177
     3
291
     0
 70
    58
 90
        2
176
     1
 90
        2
176
     1
 90
        3
176
     1
 90
        0
176
     1
 40
0.6
176
     1
 40
30.0
176
     1
 62
     7
420
 16777215
176
     1
 90
        2
176
     1
 90
        2
176
     1
 62
     7
176
     1
 62
     7
176
     1
 90
        1
176
     1
 90
        1
176
     1
 40
40.0
176
     1
 90
        8
176
     1
 62
     7
176
     1
 40
1.0
176
     1
 90
        1
176
     1
 90
        6
176
     1
 90
        2
176
     1
 62
     7
176
     1
 90
        3
176
     1
 90
        0
176
     1
 90
        0
176
     1
290
     0
176
     1
 90
        1
176
     1
 40
0.0
176
     1
 90
        0
176
     1
290
     0
176
     1
290
     1
176
     1
290
     1
176
     1
290
     0
176
     1
290
     0
176
     1
290
     0
176
     1
290
     0
176
     1
290
     0
176
     1
290
     0
176
     1
 90
       50
176
     1
 40
0.0
176
     1
 40
1.0
176
     1
 90
        0
176
     1
 62
    18
420
        0
176
     1
 90
       50
176
     1
 90
        3
176
     1
 62
     5
420
      255
176
     1
290
     0
176
     1
 90
       50
176
     1
 90
       50
176
     1
 90
       50
176
     1
290
     0
176
     1
 90
       50
176
     1
 62
   256
176
     0
 40
1.0
176
     0
 90
        2
176
     1
  1
strokes_ogs.tif
176
     1
290
     0
176
     1
 40
1.0
176
     1
 40
1.0
176
     1
  0
VISUALSTYLE
  5
F8D
102
{ACAD_REACTORS
330
EF
102
}
330
EF
100
AcDbVisualStyle
  2
Sketchy
 70
    24
177
     3
291
     0
 70
    58
 90
        1
176
     1
 90
        2
176
     1
 90
        2
176
     1
 90
        0
176
     1
 40
0.6
176
     1
 40
30.0
176
     1
 62
     7
420
 16777215
176
     1
 90
        2
176
     1
 90
        2
176
     1
 62
     7
176
     1
 62
     7
176
     1
 90
        1
176
     1
 90
        1
176
     1
 40
40.0
176
     1
 90
       11
176
     1
 62
     7
176
     1
 40
1.0
176
     1
 90
        1
176
     1
 90
        6
176
     1
 90
        2
176
     1
 62
     7
176
     1
 90
        6
176
     1
 90
        0
176
     1
 90
        0
176
     1
290
     0
176
     1
 90
        1
176
     1
 40
0.0
176
     1
 90
        0
176
     1
290
     0
176
     1
290
     1
176
     1
290
     1
176
     1
290
     0
176
     1
290
     0
176
     1
290
     0
176
     1
290
     0
176
     1
290
     0
176
     1
290
     0
176
     1
 90
       50
176
     1
 40
0.0
176
     1
 40
1.0
176
     1
 90
        0
176
     1
 62
    18
420
        0
176
     1
 90
       50
176
     1
 90
        3
176
     1
 62
     5
420
      255
176
     1
290
     0
176
     1
 90
       50
176
     1
 90
       50
176
     1
 90
       50
176
     1
290
     0
176
     1
 90
       50
176
     1
 62
   256
176
     0
 40
1.0
176
     0
 90
        2
176
     1
  1
strokes_ogs.tif
176
     1
290
     0
176
     1
 40
1.0
176
     1
 40
1.0
176
     1
  0
VISUALSTYLE
  5
FC
102
{ACAD_REACTORS
330
EF
102
}
330
EF
100
AcDbVisualStyle
  2
Thicken
 70
    13
177
     3
291
     1
 70
    58
 90
        2
176
     1
 90
        2
176
     1
 90
        1
176
     1
 90
        0
176
     1
 40
0.6
176
     1
 40
30.0
176
     1
 62
     7
420
 16777215
176
     1
 90
        1
176
     1
 90
        4
176
     1
 62
     7
176
     1
 62
   257
176
     1
 90
        1
176
     1
 90
        1
176
     1
 40
1.0
176
     1
 90
       12
176
     1
 62
     7
176
     1
 40
1.0
176
     1
 90
        1
176
     1
 90
        6
176
     1
 90
        2
176
     1
 62
     7
176
     1
 90
        5
176
     1
 90
        0
176
     1
 90
        0
176
     1
290
     0
176
     1
 90
        1
176
     1
 40
0.0
176
     1
 90
        0
176
     1
290
     0
176
     1
290
     1
176
     1
290
     1
176
     1
290
     0
176
     1
290
     0
176
     1
290
     0
176
     1
290
     0
176
     1
290
     0
176
     1
290
     0
176
     1
 90
       50
176
     1
 40
0.0
176
     1
 40
1.0
176
     1
 90
        0
176
     1
 62
    18
420
        0
176
     1
 90
       50
176
     1
 90
        3
176
     1
 62
     5
420
      255
176
     1
290
     0
176
     1
 90
       50
176
     1
 90
       50
176
     1
 90
       50
176
     1
290
     0
176
     1
 90
       50
176
     1
 62
   256
176
     0
 40
1.0
176
     0
 90
        2
176
     1
  1
strokes_ogs.tif
176
     1
290
     0
176
     1
 40
1.0
176
     1
 40
1.0
176
     1
  0
VISUALSTYLE
  5
F8A
102
{ACAD_REACTORS
330
EF
102
}
330
EF
100
AcDbVisualStyle
  2
Wireframe
 70
     5
177
     3
291
     0
 70
    58
 90
        0
176
     1
 90
        2
176
     1
 90
        0
176
     1
 90
        0
176
     1
 40
0.6
176
     1
 40
30.0
176
     1
 62
     7
420
 16777215
176
     1
 90
        1
176
     1
 90
        4
176
     1
 62
     7
176
     1
 62
   257
176
     1
 90
        1
176
     1
 90
        1
176
     1
 40
1.0
176
     1
 90
        0
176
     1
 62
   257
176
     1
 40
1.0
176
     1
 90
        1
176
     1
 90
        6
176
     1
 90
        2
176
     1
 62
     7
176
     1
 90
        3
176
     1
 90
        0
176
     1
 90
        0
176
     1
290
     0
176
     1
 90
        1
176
     1
 40
0.0
176
     1
 90
        0
176
     1
290
     0
176
     1
290
     1
176
     1
290
     1
176
     1
290
     0
176
     1
290
     0
176
     1
290
     0
176
     1
290
     0
176
     1
290
     0
176
     1
290
     0
176
     1
 90
       50
176
     1
 40
0.0
176
     1
 40
1.0
176
     1
 90
        0
176
     1
 62
    18
420
        0
176
     1
 90
       50
176
     1
 90
        3
176
     1
 62
     5
420
      255
176
     1
290
     0
176
     1
 90
       50
176
     1
 90
       50
176
     1
 90
       50
176
     1
290
     0
176
     1
 90
       50
176
     1
 62
   256
176
     0
 40
1.0
176
     0
 90
        2
176
     1
  1
strokes_ogs.tif
176
     1
290
     0
176
     1
 40
1.0
176
     1
 40
1.0
176
     1
  0
VISUALSTYLE
  5
F8E
102
{ACAD_REACTORS
330
EF
102
}
330
EF
100
AcDbVisualStyle
  2
X-Ray
 70
    25
177
     3
291
     0
 70
    58
 90
        2
176
     1
 90
        2
176
     1
 90
        1
176
     1
 90
        1
176
     1
 40
0.5
176
     1
 40
30.0
176
     1
 62
     7
420
 16777215
176
     1
 90
        1
176
     1
 90
        0
176
     1
 62
     7
176
     1
 62
   257
176
     1
 90
        1
176
     1
 90
        1
176
     1
 40
1.0
176
     1
 90
        8
176
     1
 62
     7
176
     1
 40
1.0
176
     1
 90
        1
176
     1
 90
        6
176
     1
 90
        2
176
     1
 62
     7
176
     1
 90
        3
176
     1
 90
        0
176
     1
 90
        0
176
     1
290
     0
176
     1
 90
       13
176
     1
 40
0.0
176
     1
 90
        0
176
     1
290
     0
176
     1
290
     1
176
     1
290
     1
176
     1
290
     0
176
     1
290
     0
176
     1
290
     0
176
     1
290
     0
176
     1
290
     0
176
     1
290
     0
176
     1
 90
       50
176
     1
 40
0.0
176
     1
 40
1.0
176
     1
 90
        0
176
     1
 62
    18
420
        0
176
     1
 90
       50
176
     1
 90
        3
176
     1
 62
     5
420
      255
176
     1
290
     0
176
     1
 90
       50
176
     1
 90
       50
176
     1
 90
       50
176
     1
290
     0
176
     1
 90
       50
176
     1
 62
   256
176
     0
 40
1.0
176
     0
 90
        2
176
     1
  1
strokes_ogs.tif
176
     1
290
     0
176
     1
 40
1.0
176
     1
 40
1.0
176
     1
  0
DICTIONARYVAR
  5
146
102
{ACAD_REACTORS
330
5E
102
}
330
5E
100
DictionaryVariables
280
     0
  1
1:1
  0
DICTIONARYVAR
  5
145
102
{ACAD_REACTORS
330
5E
102
}
330
5E
100
DictionaryVariables
280
     0
  1
STANDARD
  0
DICTIONARYVAR
  5
84
102
{ACAD_REACTORS
330
5E
102
}
330
5E
100
DictionaryVariables
280
     0
  1
STANDARD
  0
DICTIONARYVAR
  5
FB6
102
{ACAD_REACTORS
330
5E
102
}
330
5E
100
DictionaryVariables
280
     0
  1
Metric50
  0
DICTIONARYVAR
  5
FB7
102
{ACAD_REACTORS
330
5E
102
}
330
5E
100
DictionaryVariables
280
     0
  1
Metric50
  0
DICTIONARYVAR
  5
5F
102
{ACAD_REACTORS
330
5E
102
}
330
5E
100
DictionaryVariables
280
     0
  1
2
  0
DICTIONARYVAR
  5
63
102
{ACAD_REACTORS
330
5E
102
}
330
5E
100
DictionaryVariables
280
     0
  1
1
  0
DICTIONARYVAR
  5
1AE
102
{ACAD_REACTORS
330
5E
102
}
330
5E
100
DictionaryVariables
280
     0
  1
0
  0
DICTIONARYVAR
  5
1AF
102
{ACAD_REACTORS
330
5E
102
}
330
5E
100
DictionaryVariables
280
     0
  1
0
  0
DICTIONARYVAR
  5
F85
102
{ACAD_REACTORS
330
5E
102
}
330
5E
100
DictionaryVariables
280
     0
  1
2
  0
DICTIONARYVAR
  5
F84
102
{ACAD_REACTORS
330
5E
102
}
330
5E
100
DictionaryVariables
280
     0
  1
1
  0
DICTIONARY
  5
839
330
22
100
AcDbDictionary
280
     1
281
     1
  0
DICTIONARY
  5
173
330
EE
100
AcDbDictionary
280
     1
281
     1
  3
BUMPTILE
360
175
  3
DIFFUSETILE
360
174
  3
OPACITYTILE
360
176
  3
REFLECTIONTILE
360
177
  0
DICTIONARY
  5
162
330
7F
100
AcDbDictionary
280
     1
281
     1
  3
ACAD_ROUNDTRIP_2008_TABLESTYLE_CELLSTYLEMAP
360
FB8
  0
XRECORD
  5
175
102
{ACAD_REACTORS
330
173
102
}
330
173
100
AcDbXrecord
280
     1
270
     1
271
     1
  0
XRECORD
  5
174
102
{ACAD_REACTORS
330
173
102
}
330
173
100
AcDbXrecord
280
     1
270
     1
271
     1
  0
XRECORD
  5
176
102
{ACAD_REACTORS
330
173
102
}
330
173
100
AcDbXrecord
280
     1
270
     1
271
     1
  0
XRECORD
  5
177
102
{ACAD_REACTORS
330
173
102
}
330
173
100
AcDbXrecord
280
     1
270
     1
271
     1
  0
CELLSTYLEMAP
  5
FB8
102
{ACAD_REACTORS
330
162
102
}
330
162
100
AcDbCellStyleMap
 90
        3
300
CELLSTYLE
  1
TABLEFORMAT_BEGIN
 90
        5
170
     1
 91
        0
 92
    32768
 62
   257
 93
        1
300
CONTENTFORMAT
  1
CONTENTFORMAT_BEGIN
 90
        0
 91
        0
 92
      512
 93
        0
300

 40
0.0
140
1.0
 94
        5
 62
     0
340
11
144
6.0
309
CONTENTFORMAT_END
171
     1
301
MARGIN
  1
CELLMARGIN_BEGIN
 40
1.5
 40
1.5
 40
1.5
 40
1.5
 40
4.5
 40
4.5
309
CELLMARGIN_END
 94
        6
 95
        1
302
GRIDFORMAT
  1
GRIDFORMAT_BEGIN
 90
        0
 91
        1
 62
     0
 92
       -2
340
14
 93
        0
 40
1.125
309
GRIDFORMAT_END
 95
        2
302
GRIDFORMAT
  1
GRIDFORMAT_BEGIN
 90
        0
 91
        1
 62
     0
 92
       -2
340
14
 93
        0
 40
1.125
309
GRIDFORMAT_END
 95
        4
302
GRIDFORMAT
  1
GRIDFORMAT_BEGIN
 90
        0
 91
        1
 62
     0
 92
       -2
340
14
 93
        0
 40
1.125
309
GRIDFORMAT_END
 95
        8
302
GRIDFORMAT
  1
GRIDFORMAT_BEGIN
 90
        0
 91
        1
 62
     0
 92
       -2
340
14
 93
        0
 40
1.125
309
GRIDFORMAT_END
 95
       16
302
GRIDFORMAT
  1
GRIDFORMAT_BEGIN
 90
        0
 91
        1
 62
     0
 92
       -2
340
14
 93
        0
 40
1.125
309
GRIDFORMAT_END
 95
       32
302
GRIDFORMAT
  1
GRIDFORMAT_BEGIN
 90
        0
 91
        1
 62
     0
 92
       -2
340
14
 93
        0
 40
1.125
309
GRIDFORMAT_END
309
TABLEFORMAT_END
  1
CELLSTYLE_BEGIN
 90
        1
 91
        1
300
_TITLE
309
CELLSTYLE_END
300
CELLSTYLE
  1
TABLEFORMAT_BEGIN
 90
        5
170
     1
 91
        0
 92
        0
 62
   257
 93
        1
300
CONTENTFORMAT
  1
CONTENTFORMAT_BEGIN
 90
        0
 91
        0
 92
      512
 93
        0
300

 40
0.0
140
1.0
 94
        5
 62
     0
340
11
144
4.5
309
CONTENTFORMAT_END
171
     1
301
MARGIN
  1
CELLMARGIN_BEGIN
 40
1.5
 40
1.5
 40
1.5
 40
1.5
 40
4.5
 40
4.5
309
CELLMARGIN_END
 94
        6
 95
        1
302
GRIDFORMAT
  1
GRIDFORMAT_BEGIN
 90
        0
 91
        1
 62
     0
 92
       -2
340
14
 93
        0
 40
1.125
309
GRIDFORMAT_END
 95
        2
302
GRIDFORMAT
  1
GRIDFORMAT_BEGIN
 90
        0
 91
        1
 62
     0
 92
       -2
340
14
 93
        0
 40
1.125
309
GRIDFORMAT_END
 95
        4
302
GRIDFORMAT
  1
GRIDFORMAT_BEGIN
 90
        0
 91
        1
 62
     0
 92
       -2
340
14
 93
        0
 40
1.125
309
GRIDFORMAT_END
 95
        8
302
GRIDFORMAT
  1
GRIDFORMAT_BEGIN
 90
        0
 91
        1
 62
     0
 92
       -2
340
14
 93
        0
 40
1.125
309
GRIDFORMAT_END
 95
       16
302
GRIDFORMAT
  1
GRIDFORMAT_BEGIN
 90
        0
 91
        1
 62
     0
 92
       -2
340
14
 93
        0
 40
1.125
309
GRIDFORMAT_END
 95
       32
302
GRIDFORMAT
  1
GRIDFORMAT_BEGIN
 90
        0
 91
        1
 62
     0
 92
       -2
340
14
 93
        0
 40
1.125
309
GRIDFORMAT_END
309
TABLEFORMAT_END
  1
CELLSTYLE_BEGIN
 90
        2
 91
        1
300
_HEADER
309
CELLSTYLE_END
300
CELLSTYLE
  1
TABLEFORMAT_BEGIN
 90
        5
170
     1
 91
        0
 92
        0
 62
   257
 93
        1
300
CONTENTFORMAT
  1
CONTENTFORMAT_BEGIN
 90
        0
 91
        0
 92
      512
 93
        0
300

 40
0.0
140
1.0
 94
        2
 62
     0
340
11
144
4.5
309
CONTENTFORMAT_END
171
     1
301
MARGIN
  1
CELLMARGIN_BEGIN
 40
1.5
 40
1.5
 40
1.5
 40
1.5
 40
4.5
 40
4.5
309
CELLMARGIN_END
 94
        6
 95
        1
302
GRIDFORMAT
  1
GRIDFORMAT_BEGIN
 90
        0
 91
        1
 62
     0
 92
       -2
340
14
 93
        0
 40
1.125
309
GRIDFORMAT_END
 95
        2
302
GRIDFORMAT
  1
GRIDFORMAT_BEGIN
 90
        0
 91
        1
 62
     0
 92
       -2
340
14
 93
        0
 40
1.125
309
GRIDFORMAT_END
 95
        4
302
GRIDFORMAT
  1
GRIDFORMAT_BEGIN
 90
        0
 91
        1
 62
     0
 92
       -2
340
14
 93
        0
 40
1.125
309
GRIDFORMAT_END
 95
        8
302
GRIDFORMAT
  1
GRIDFORMAT_BEGIN
 90
        0
 91
        1
 62
     0
 92
       -2
340
14
 93
        0
 40
1.125
309
GRIDFORMAT_END
 95
       16
302
GRIDFORMAT
  1
GRIDFORMAT_BEGIN
 90
        0
 91
        1
 62
     0
 92
       -2
340
14
 93
        0
 40
1.125
309
GRIDFORMAT_END
 95
       32
302
GRIDFORMAT
  1
GRIDFORMAT_BEGIN
 90
        0
 91
        1
 62
     0
 92
       -2
340
14
 93
        0
 40
1.125
309
GRIDFORMAT_END
309
TABLEFORMAT_END
  1
CELLSTYLE_BEGIN
 90
        3
 91
        2
300
_DATA
309
CELLSTYLE_END
  0
ENDSEC
  0
SECTION
  2
ACDSDATA
 70
     2
 71
     8
  0
ACDSSCHEMA
 90
        0
  1
AcDb_Thumbnail_Schema
  2
AcDbDs::ID
280
    10
 91
        8
  2
Thumbnail_Data
280
    15
 91
        0
101
ACDSRECORD
 95
        0
 90
        1
  2
AcDbDs::TreatedAsObjectData
280
     1
291
     1
101
ACDSRECORD
 95
        0
 90
        2
  2
AcDbDs::Legacy
280
     1
291
     1
101
ACDSRECORD
  1
AcDbDs::ID
 90
        3
  2
AcDs:Indexable
280
     1
291
     1
101
ACDSRECORD
  1
AcDbDs::ID
 90
        4
  2
AcDbDs::HandleAttribute
280
     7
282
     1
  0
ACDSSCHEMA
 90
        1
  1
AcDbDs::TreatedAsObjectDataSchema
  2
AcDbDs::TreatedAsObjectData
280
     1
 91
        0
  0
ACDSSCHEMA
 90
        2
  1
AcDbDs::LegacySchema
  2
AcDbDs::Legacy
280
     1
 91
        0
  0
ACDSSCHEMA
 90
        3
  1
AcDbDs::IndexedPropertySchema
  2
AcDs:Indexable
280
     1
 91
        0
  0
ACDSSCHEMA
 90
        4
  1
AcDbDs::HandleAttributeSchema
  2
AcDbDs::HandleAttribute
280
     7
 91
        1
284
     1
  0
ACDSRECORD
 90
        0
  2
AcDbDs::ID
280
    10
320
22
  2
Thumbnail_Data
280
    15
 94
     1597
310
89504E470D0A1A0A0000000D49484452000001000000008808030000003F38C55500000300504C5445000000000000FFFFFF0000000000000000000000000000000000000000000000000000330000660000990000CC0000FF0033000033330033660033990033CC0033FF0066000066330066660066990066CC0066FF0099
310
000099330099660099990099CC0099FF00CC0000CC3300CC6600CC9900CCCC00CCFF00FF0000FF3300FF6600FF9900FFCC00FFFF3300003300333300663300993300CC3300FF3333003333333333663333993333CC3333FF3366003366333366663366993366CC3366FF3399003399333399663399993399CC3399FF33CC00
310
33CC3333CC6633CC9933CCCC33CCFF33FF0033FF3333FF6633FF9933FFCC33FFFF6600006600336600666600996600CC6600FF6633006633336633666633996633CC6633FF6666006666336666666666996666CC6666FF6699006699336699666699996699CC6699FF66CC0066CC3366CC6666CC9966CCCC66CCFF66FF0066
310
FF3366FF6666FF9966FFCC66FFFF9900009900339900669900999900CC9900FF9933009933339933669933999933CC9933FF9966009966339966669966999966CC9966FF9999009999339999669999999999CC9999FF99CC0099CC3399CC6699CC9999CCCC99CCFF99FF0099FF3399FF6699FF9999FFCC99FFFFCC0000CC00
310
33CC0066CC0099CC00CCCC00FFCC3300CC3333CC3366CC3399CC33CCCC33FFCC6600CC6633CC6666CC6699CC66CCCC66FFCC9900CC9933CC9966CC9999CC99CCCC99FFCCCC00CCCC33CCCC66CCCC99CCCCCCCCCCFFCCFF00CCFF33CCFF66CCFF99CCFFCCCCFFFFFF0000FF0033FF0066FF0099FF00CCFF00FFFF3300FF3333
310
FF3366FF3399FF33CCFF33FFFF6600FF6633FF6666FF6699FF66CCFF66FFFF9900FF9933FF9966FF9999FF99CCFF99FFFFCC00FFCC33FFCC66FFCC99FFCCCCFFCCFFFFFF00FFFF33FFFF66FFFF99FFFFCCFFFFFF0000000D0D0D1A1A1A2828283535354343435050505D5D5D6B6B6B787878868686939393A1A1A1AEAEAEBB
310
BBBBC9C9C9D6D6D6E4E4E4F1F1F1FFFFFF000000000000000000000000000000000000000000000000000000000000C11FEF66000002F84944415478DAEDDC5972C3200C06E0DCFF507AC94D74924EE2A5C4369845C802FD4CDA691D3B095F84CD665E3C51A274BA3CE635625EEAF27F7DDCCBECB729FA4CFC490000000000
310
00C060D7C1CA7A002200000000000000303E00310000000000000000B3034473030000000000BE000E9D597900E78E304700BFF9DEFEF10370DA617901C7002C0090EC8D760170FA1C0E01980601A04C170D808692530A4039A90DA042A0216C8A01F667287275BC3CB62FC0CD585E8708880288444095806204503A02881F
310
0030500488C58A40B9C023004C4E01380DC01200A5F979148024016EDA54F30384E7D23280DCFDA39596DF57C8E92DEE0C9099CAF64ED4D94A006E5EB07F049058E2E587F7FFF20082B6DB9A6D4AF70948025C4540FE39800E05877807E07280ED28D205086A7E4D007B0C047F15016C47F37F59EC0FB0911703907C04AC62
310
E1C9C819C0DE7C1300489CA594530EC0F12CAA7715A0DA0820EB11306C1108DFDF3480FC6590B71AC0FE79142F8312F580D6CBE04300A2A7C5A69AE0E98B60ADAAF0B98BBABD2DC079BDE27A6D01EDC6D0E1651E07E8DE1F50728F48323472B618EE10A9EE40E903A0DF25D60EC01D00143B450120FD5612DDE29A23431500
310
74D7E6186A6C50F8BD9E1A1D9E2A02A843C11CEA1CA03B4142A0FE243C41427B96944E2AAE0A3B056022E700D32600000000C7F40ED2B2E1B36DD9CC6F1700DFC7E7D792DF1580DD00040A5B1C7C1F33E6FFAE08BCC30DEC04005701000000000000000000000000000000000000000000007E64010563009583A3F6DDE699
310
1F601460AA08B03D47C824404904B4CFA3EE0F50B57E80F474711E0D207FD7DF783009D073A628008600E8385B3C0A4004004300E50B28CC075074CF90B70810BC672E72DB9C6500D105142872E7A86D008505140C03C8DE3B3C60044C0B606B0105BB1140280200700EA0B38082E99AA0E8EA0903D6042FBE503486260440
310
8708003CF709A257D83980F791A1AEABCB1F321E5F48682C00AA1C51EE391E5A0D50BB26125B4E9820910F8039425326F70B28FC014F2B76343E060E710000000049454E44AE426082
  0
ENDSEC
  0
EOF
