  0
SECTION
  2
HEADER
  9
$ACADVER
  1
AC1032
  9
$ACADMAINTVER
 90
      155
  9
$DWGCODEPAGE
  3
ANSI_1252
  9
$LASTSAVEDBY
  1
falinoori
  9
$REQUIREDVERSIONS
160
                 0
  9
$INSBASE
 10
-194.2978201057755
 20
73.88832960255456
 30
0.0
  9
$EXTMIN
 10
-332.9027174255764
 20
10.40886407481662
 30
0.0
  9
$EXTMAX
 10
181.3512395852372
 20
258.5435831028067
 30
0.0
  9
$LIMMIN
 10
0.0
 20
0.0
  9
$LIMMAX
 10
420.0
 20
297.0
  9
$ORTHOMODE
 70
     1
  9
$REGENMODE
 70
     1
  9
$FILLMODE
 70
     1
  9
$QTEXTMODE
 70
     0
  9
$MIRRTEXT
 70
     1
  9
$LTSCALE
 40
1.0
  9
$ATTMODE
 70
     1
  9
$TEXTSIZE
 40
3.0
  9
$TRACEWID
 40
10.0
  9
$TEXTSTYLE
  7
STANDARD
  9
$CLAYER
  8
0
  9
$CELTYPE
  6
BYLAYER
  9
$CECOLOR
 62
   256
  9
$CELTSCALE
 40
1.0
  9
$DISPSILH
 70
     0
  9
$DIMSCALE
 40
1.0
  9
$DIMASZ
 40
3.0
  9
$DIMEXO
 40
2.5
  9
$DIMDLI
 40
10.0
  9
$DIMRND
 40
0.0
  9
$DIMDLE
 40
1.25
  9
$DIMEXE
 40
2.5
  9
$DIMTP
 40
0.0
  9
$DIMTM
 40
0.0
  9
$DIMTXT
 40
3.0
  9
$DIMCEN
 40
-3.0
  9
$DIMTSZ
 40
0.0
  9
$DIMTOL
 70
     0
  9
$DIMLIM
 70
     0
  9
$DIMTIH
 70
     0
  9
$DIMTOH
 70
     0
  9
$DIMSE1
 70
     0
  9
$DIMSE2
 70
     0
  9
$DIMTAD
 70
     0
  9
$DIMZIN
 70
     0
  9
$DIMBLK
  1

  9
$DIMASO
 70
     1
  9
$DIMSHO
 70
     0
  9
$DIMPOST
  1

  9
$DIMAPOST
  1

  9
$DIMALT
 70
     0
  9
$DIMALTD
 70
     2
  9
$DIMALTF
 40
0.039
  9
$DIMLFAC
 40
1.0
  9
$DIMTOFL
 70
     0
  9
$DIMTVP
 40
1.5
  9
$DIMTIX
 70
     0
  9
$DIMSOXD
 70
     0
  9
$DIMSAH
 70
     0
  9
$DIMBLK1
  1

  9
$DIMBLK2
  1

  9
$DIMSTYLE
  2
STANDARD
  9
$DIMCLRD
 70
     0
  9
$DIMCLRE
 70
     0
  9
$DIMCLRT
 70
     0
  9
$DIMTFAC
 40
0.75
  9
$DIMGAP
 40
1.5
  9
$DIMJUST
 70
     0
  9
$DIMSD1
 70
     0
  9
$DIMSD2
 70
     0
  9
$DIMTOLJ
 70
     1
  9
$DIMTZIN
 70
     0
  9
$DIMALTZ
 70
     0
  9
$DIMALTTZ
 70
     0
  9
$DIMUPT
 70
     0
  9
$DIMDEC
 70
     2
  9
$DIMTDEC
 70
     2
  9
$DIMALTU
 70
     2
  9
$DIMALTTD
 70
     2
  9
$DIMTXSTY
  7
STANDARD
  9
$DIMAUNIT
 70
     0
  9
$DIMADEC
 70
     0
  9
$DIMALTRND
 40
0.0
  9
$DIMAZIN
 70
     0
  9
$DIMDSEP
 70
    46
  9
$DIMATFIT
 70
     3
  9
$DIMFRAC
 70
     0
  9
$DIMLDRBLK
  1

  9
$DIMLUNIT
 70
     2
  9
$DIMLWD
 70
    -2
  9
$DIMLWE
 70
    -2
  9
$DIMTMOVE
 70
     2
  9
$DIMFXL
 40
1.0
  9
$DIMFXLON
 70
     0
  9
$DIMJOGANG
 40
0.7853981633974483
  9
$DIMTFILL
 70
     0
  9
$DIMTFILLCLR
 70
     0
  9
$DIMARCSYM
 70
     0
  9
$DIMLTYPE
  6

  9
$DIMLTEX1
  6

  9
$DIMLTEX2
  6

  9
$DIMTXTDIRECTION
 70
     0
  9
$LUNITS
 70
     2
  9
$LUPREC
 70
     2
  9
$SKETCHINC
 40
1.0
  9
$FILLETRAD
 40
0.0
  9
$AUNITS
 70
     0
  9
$AUPREC
 70
     4
  9
$MENU
  1
C:\ACADWIN\SUPPORT\ACAD
  9
$ELEVATION
 40
0.0
  9
$PELEVATION
 40
0.0
  9
$THICKNESS
 40
0.0
  9
$LIMCHECK
 70
     0
  9
$CHAMFERA
 40
0.0
  9
$CHAMFERB
 40
0.0
  9
$CHAMFERC
 40
0.0
  9
$CHAMFERD
 40
0.0
  9
$SKPOLY
 70
     0
  9
$TDCREATE
 40
2450404.080613426
  9
$TDUCREATE
 40
2450403.622283912
  9
$TDUPDATE
 40
2459591.420555556
  9
$TDUUPDATE
 40
2459590.962222222
  9
$TDINDWG
 40
0.0401064699
  9
$TDUSRTIMER
 40
0.0401064699
  9
$USRTIMER
 70
     1
  9
$ANGBASE
 50
0.0
  9
$ANGDIR
 70
     0
  9
$PDMODE
 70
     0
  9
$PDSIZE
 40
0.0
  9
$PLINEWID
 40
0.0
  9
$SPLFRAME
 70
     0
  9
$SPLINETYPE
 70
     6
  9
$SPLINESEGS
 70
     8
  9
$HANDSEED
  5
185
  9
$SURFTAB1
 70
    18
  9
$SURFTAB2
 70
    18
  9
$SURFTYPE
 70
     6
  9
$SURFU
 70
    18
  9
$SURFV
 70
    18
  9
$UCSBASE
  2

  9
$UCSNAME
  2

  9
$UCSORG
 10
0.0
 20
0.0
 30
0.0
  9
$UCSXDIR
 10
1.0
 20
0.0
 30
0.0
  9
$UCSYDIR
 10
0.0
 20
1.0
 30
0.0
  9
$UCSORTHOREF
  2

  9
$UCSORTHOVIEW
 70
     0
  9
$UCSORGTOP
 10
0.0
 20
0.0
 30
0.0
  9
$UCSORGBOTTOM
 10
0.0
 20
0.0
 30
0.0
  9
$UCSORGLEFT
 10
0.0
 20
0.0
 30
0.0
  9
$UCSORGRIGHT
 10
0.0
 20
0.0
 30
0.0
  9
$UCSORGFRONT
 10
0.0
 20
0.0
 30
0.0
  9
$UCSORGBACK
 10
0.0
 20
0.0
 30
0.0
  9
$PUCSBASE
  2

  9
$PUCSNAME
  2

  9
$PUCSORG
 10
0.0
 20
0.0
 30
0.0
  9
$PUCSXDIR
 10
1.0
 20
0.0
 30
0.0
  9
$PUCSYDIR
 10
0.0
 20
1.0
 30
0.0
  9
$PUCSORTHOREF
  2

  9
$PUCSORTHOVIEW
 70
     0
  9
$PUCSORGTOP
 10
0.0
 20
0.0
 30
0.0
  9
$PUCSORGBOTTOM
 10
0.0
 20
0.0
 30
0.0
  9
$PUCSORGLEFT
 10
0.0
 20
0.0
 30
0.0
  9
$PUCSORGRIGHT
 10
0.0
 20
0.0
 30
0.0
  9
$PUCSORGFRONT
 10
0.0
 20
0.0
 30
0.0
  9
$PUCSORGBACK
 10
0.0
 20
0.0
 30
0.0
  9
$USERI1
 70
     0
  9
$USERI2
 70
     0
  9
$USERI3
 70
     0
  9
$USERI4
 70
     0
  9
$USERI5
 70
     0
  9
$USERR1
 40
0.0
  9
$USERR2
 40
0.0
  9
$USERR3
 40
0.0
  9
$USERR4
 40
0.0
  9
$USERR5
 40
0.0
  9
$WORLDVIEW
 70
     1
  9
$SHADEDGE
 70
     3
  9
$SHADEDIF
 70
    70
  9
$TILEMODE
 70
     1
  9
$MAXACTVP
 70
    16
  9
$PINSBASE
 10
0.0
 20
0.0
 30
0.0
  9
$PLIMCHECK
 70
     0
  9
$PEXTMIN
 10
1.000000000000000E+20
 20
1.000000000000000E+20
 30
1.000000000000000E+20
  9
$PEXTMAX
 10
-1.000000000000000E+20
 20
-1.000000000000000E+20
 30
-1.000000000000000E+20
  9
$PLIMMIN
 10
0.0
 20
0.0
  9
$PLIMMAX
 10
420.0
 20
297.0
  9
$UNITMODE
 70
     0
  9
$VISRETAIN
 70
     0
  9
$PLINEGEN
 70
     0
  9
$PSLTSCALE
 70
     1
  9
$TREEDEPTH
 70
  3020
  9
$CMLSTYLE
  2
STANDARD
  9
$CMLJUST
 70
     0
  9
$CMLSCALE
 40
1.0
  9
$PROXYGRAPHICS
 70
     1
  9
$MEASUREMENT
 70
     0
  9
$CELWEIGHT
370
    -1
  9
$ENDCAPS
280
     0
  9
$JOINSTYLE
280
     0
  9
$LWDISPLAY
290
     0
  9
$INSUNITS
 70
     0
  9
$HYPERLINKBASE
  1

  9
$STYLESHEET
  1

  9
$XEDIT
290
     1
  9
$CEPSNTYPE
380
     0
  9
$PSTYLEMODE
290
     1
  9
$FINGERPRINTGUID
  2
{82FDFF0E-ACCF-11D6-AAC6-0010A4A25215}
  9
$VERSIONGUID
  2
{AEB6061F-FBEE-0746-B398-4897C5FCAAC1}
  9
$EXTNAMES
290
     1
  9
$PSVPSCALE
 40
0.0
  9
$OLESTARTUP
290
     0
  9
$SORTENTS
280
   127
  9
$INDEXCTL
280
     0
  9
$HIDETEXT
280
     0
  9
$XCLIPFRAME
280
     2
  9
$HALOGAP
280
     0
  9
$OBSCOLOR
 70
   257
  9
$OBSLTYPE
280
     0
  9
$INTERSECTIONDISPLAY
280
     0
  9
$INTERSECTIONCOLOR
 70
   257
  9
$DIMASSOC
280
     1
  9
$PROJECTNAME
  1

  9
$CAMERADISPLAY
290
     0
  9
$LENSLENGTH
 40
50.0
  9
$CAMERAHEIGHT
 40
0.0
  9
$STEPSPERSEC
 40
2.0
  9
$STEPSIZE
 40
6.0
  9
$3DDWFPREC
 40
2.0
  9
$PSOLWIDTH
 40
0.25
  9
$PSOLHEIGHT
 40
4.0
  9
$LOFTANG1
 40
1.570796326794896
  9
$LOFTANG2
 40
1.570796326794896
  9
$LOFTMAG1
 40
0.0
  9
$LOFTMAG2
 40
0.0
  9
$LOFTPARAM
 70
     7
  9
$LOFTNORMALS
280
     1
  9
$LATITUDE
 40
37.795
  9
$LONGITUDE
 40
-122.394
  9
$NORTHDIRECTION
 40
0.0
  9
$TIMEZONE
 70
 -8000
  9
$LIGHTGLYPHDISPLAY
280
     1
  9
$TILEMODELIGHTSYNCH
280
     1
  9
$CMATERIAL
347
DA
  9
$SOLIDHIST
280
     0
  9
$SHOWHIST
280
     1
  9
$DWFFRAME
280
     2
  9
$DGNFRAME
280
     0
  9
$REALWORLDSCALE
290
     1
  9
$INTERFERECOLOR
 62
     1
  9
$INTERFEREOBJVS
345
FC
  9
$INTERFEREVPVS
346
F9
  9
$CSHADOW
280
     0
  9
$SHADOWPLANELOCATION
 40
0.0
  0
ENDSEC
  0
SECTION
  2
CLASSES
  0
CLASS
  1
DICTIONARYVAR
  2
AcDbDictionaryVar
  3
ObjectDBX Classes
 90
        0
 91
       27
280
     0
281
     0
  0
CLASS
  1
ACDBDICTIONARYWDFLT
  2
AcDbDictionaryWithDefault
  3
ObjectDBX Classes
 90
        0
 91
        1
280
     0
281
     0
  0
CLASS
  1
MATERIAL
  2
AcDbMaterial
  3
ObjectDBX Classes
 90
     1153
 91
        3
280
     0
281
     0
  0
CLASS
  1
VISUALSTYLE
  2
AcDbVisualStyle
  3
ObjectDBX Classes
 90
     4095
 91
       24
280
     0
281
     0
  0
CLASS
  1
TABLESTYLE
  2
AcDbTableStyle
  3
ObjectDBX Classes
 90
     4095
 91
        1
280
     0
281
     0
  0
CLASS
  1
SCALE
  2
AcDbScale
  3
ObjectDBX Classes
 90
     1153
 91
       17
280
     0
281
     0
  0
CLASS
  1
MLEADERSTYLE
  2
AcDbMLeaderStyle
  3
ACDB_MLEADERSTYLE_CLASS
 90
     4095
 91
        1
280
     0
281
     0
  0
CLASS
  1
ACDBSECTIONVIEWSTYLE
  2
AcDbSectionViewStyle
  3
ObjectDBX Classes
 90
     1025
 91
        1
280
     0
281
     0
  0
CLASS
  1
ACDBDETAILVIEWSTYLE
  2
AcDbDetailViewStyle
  3
ObjectDBX Classes
 90
     1025
 91
        1
280
     0
281
     0
  0
CLASS
  1
ACDB_TEXTOBJECTCONTEXTDATA_CLASS
  2
AcDbTextObjectContextData
  3
ObjectDBX Classes
 90
     1153
 91
        4
280
     0
281
     0
  0
CLASS
  1
SORTENTSTABLE
  2
AcDbSortentsTable
  3
ObjectDBX Classes
 90
        0
 91
        1
280
     0
281
     0
  0
CLASS
  1
CELLSTYLEMAP
  2
AcDbCellStyleMap
  3
ObjectDBX Classes
 90
     1152
 91
        1
280
     0
281
     0
  0
ENDSEC
  0
SECTION
  2
TABLES
  0
TABLE
  2
VPORT
  5
19
330
0
100
AcDbSymbolTable
 70
     1
  0
VPORT
  5
1A
330
19
100
AcDbSymbolTableRecord
100
AcDbViewportTableRecord
  2
*Active
 70
     0
 10
0.0
 20
0.0
 11
1.0
 21
1.0
 12
73.2184510833444
 22
110.7887978401148
 13
0.0
 23
0.0
 14
5.0
 24
5.0
 15
10.0
 25
10.0
 16
0.0
 26
0.0
 36
1.0
 17
0.0
 27
0.0
 37
0.0
 40
402.3415819615699
 41
1.46595744680851
 42
50.0
 43
0.0
 44
0.0
 50
0.0
 51
0.0
 71
     0
 72
   100
 73
     1
 74
     1
 75
     0
 76
     0
 77
     0
 78
     0
281
     0
 65
     1
110
0.0
120
0.0
130
0.0
111
1.0
121
0.0
131
0.0
112
0.0
122
1.0
132
0.0
 79
     0
146
0.0
348
F8
 60
     3
 61
     5
292
     1
282
     1
141
0.0
142
0.0
 63
   250
421
  3355443
1001
ACAD_NAV_VCDISPLAY
1070
     3
  0
ENDTAB
  0
TABLE
  2
LTYPE
  5
14
330
0
100
AcDbSymbolTable
 70
     3
  0
LTYPE
  5
15
330
14
100
AcDbSymbolTableRecord
100
AcDbLinetypeTableRecord
  2
BYBLOCK
 70
     0
  3

 72
    65
 73
     0
 40
0.0
  0
LTYPE
  5
16
330
14
100
AcDbSymbolTableRecord
100
AcDbLinetypeTableRecord
  2
BYLAYER
 70
     0
  3

 72
    65
 73
     0
 40
0.0
  0
LTYPE
  5
8
330
14
100
AcDbSymbolTableRecord
100
AcDbLinetypeTableRecord
  2
CONTINUOUS
 70
     0
  3
Solid line
 72
    65
 73
     0
 40
0.0
  0
ENDTAB
  0
TABLE
  2
LAYER
  5
10
102
{ACAD_XDICTIONARY
360
12D
102
}
330
0
100
AcDbSymbolTable
 70
     3
  0
LAYER
  5
4
102
{ACAD_XDICTIONARY
360
161
102
}
330
10
100
AcDbSymbolTableRecord
100
AcDbLayerTableRecord
  2
0
 70
     0
 62
     7
  6
CONTINUOUS
370
    -3
390
5
347
EA
348
0
  0
LAYER
  5
25
102
{ACAD_XDICTIONARY
360
163
102
}
330
10
100
AcDbSymbolTableRecord
100
AcDbLayerTableRecord
  2
ANCON-CHANNEL
 70
     0
 62
     1
  6
CONTINUOUS
370
    -3
390
5
347
EA
348
0
  0
LAYER
  5
91
102
{ACAD_XDICTIONARY
360
165
102
}
330
10
100
AcDbSymbolTableRecord
100
AcDbLayerTableRecord
  2
ANCON-TEXT
 70
     0
 62
     6
  6
CONTINUOUS
370
    -3
390
5
347
EA
348
0
  0
ENDTAB
  0
TABLE
  2
STYLE
  5
11
330
0
100
AcDbSymbolTable
 70
     3
  0
STYLE
  5
12
330
11
100
AcDbSymbolTableRecord
100
AcDbTextStyleTableRecord
  2
STANDARD
 70
     0
 40
0.0
 41
1.0
 50
0.0
 71
     0
 42
3.0
  3
txt.shx
  4

  0
STYLE
  5
92
330
11
100
AcDbSymbolTableRecord
100
AcDbTextStyleTableRecord
  2
ROMANS
 70
     0
 40
9.0
 41
1.0
 50
0.0
 71
     0
 42
9.0
  3
romans
  4

  0
STYLE
  5
12A
330
11
100
AcDbSymbolTableRecord
100
AcDbTextStyleTableRecord
  2
arial
 70
     0
 40
0.0
 41
1.0
 50
0.0
 71
     0
 42
3.0
  3
arial.ttf
  4

1001
AcadAnnotative
1000
AnnotativeData
1002
{
1070
     1
1070
     1
1002
}
1001
ACAD
1000
Arial
1071
       34
  0
ENDTAB
  0
TABLE
  2
VIEW
  5
17
330
0
100
AcDbSymbolTable
 70
     1
  0
ENDTAB
  0
TABLE
  2
UCS
  5
18
330
0
100
AcDbSymbolTable
 70
     0
  0
ENDTAB
  0
TABLE
  2
APPID
  5
1B
330
0
100
AcDbSymbolTable
 70
     4
  0
APPID
  5
1C
330
1B
100
AcDbSymbolTableRecord
100
AcDbRegAppTableRecord
  2
ACAD
 70
     0
  0
APPID
  5
12B
330
1B
100
AcDbSymbolTableRecord
100
AcDbRegAppTableRecord
  2
AcadAnnotative
 70
     0
  0
APPID
  5
12C
330
1B
100
AcDbSymbolTableRecord
100
AcDbRegAppTableRecord
  2
ACAD_NAV_VCDISPLAY
 70
     0
  0
APPID
  5
14F
330
1B
100
AcDbSymbolTableRecord
100
AcDbRegAppTableRecord
  2
ACAD_EXEMPT_FROM_CAD_STANDARDS
 70
     0
  0
ENDTAB
  0
TABLE
  2
DIMSTYLE
  5
1D
330
0
100
AcDbSymbolTable
 70
     2
100
AcDbDimStyleTable
 71
     0
  0
DIMSTYLE
105
23
330
1D
100
AcDbSymbolTableRecord
100
AcDbDimStyleTableRecord
  2
STANDARD
 70
     0
340
12
  0
ENDTAB
  0
TABLE
  2
BLOCK_RECORD
  5
1
330
0
100
AcDbSymbolTable
 70
     2
  0
BLOCK_RECORD
  5
2
330
1
100
AcDbSymbolTableRecord
100
AcDbBlockTableRecord
  2
*MODEL_SPACE
340
A
 70
     0
280
     1
281
     0
  0
BLOCK_RECORD
  5
C
330
1
100
AcDbSymbolTableRecord
100
AcDbBlockTableRecord
  2
*PAPER_SPACE
340
F
 70
     0
280
     1
281
     0
  0
ENDTAB
  0
ENDSEC
  0
SECTION
  2
BLOCKS
  0
BLOCK
  5
3
330
2
100
AcDbEntity
  8
0
100
AcDbBlockBegin
  2
*MODEL_SPACE
 70
     0
 10
0.0
 20
0.0
 30
0.0
  3
*MODEL_SPACE
  1

  0
ENDBLK
  5
9
330
2
100
AcDbEntity
  8
0
100
AcDbBlockEnd
  0
BLOCK
  5
D
330
C
100
AcDbEntity
 67
     1
  8
0
100
AcDbBlockBegin
  2
*PAPER_SPACE
 70
     0
 10
0.0
 20
0.0
 30
0.0
  3
*PAPER_SPACE
  1

  0
ENDBLK
  5
E
330
C
100
AcDbEntity
 67
     1
  8
0
100
AcDbBlockEnd
  0
ENDSEC
  0
SECTION
  2
ENTITIES
  0
LINE
  5
24
330
2
100
AcDbEntity
  8
ANCON-CHANNEL
100
AcDbLine
 10
40.56638686877107
 20
199.7265069710151
 30
0.0
 11
42.67771124497033
 21
198.3877353779248
 31
0.0
  0
LINE
  5
26
330
2
100
AcDbEntity
  8
ANCON-CHANNEL
100
AcDbLine
 10
40.56638686877107
 20
130.8877353779261
 30
0.0
 11
42.67771124497033
 21
132.2265069710164
 31
0.0
  0
ARC
  5
27
330
2
100
AcDbEntity
  8
ANCON-CHANNEL
100
AcDbCircle
 10
60.31299877993745
 20
202.2275757199254
 30
0.0
 40
4.670454545454523
100
AcDbArc
 50
212.3784125140538
 51
327.6215874859462
  0
ARC
  5
28
330
2
100
AcDbEntity
  8
ANCON-CHANNEL
100
AcDbCircle
 10
60.31299877993745
 20
202.2275757199254
 30
0.0
 40
7.170454545454523
100
AcDbArc
 50
212.3784125140538
 51
327.6215874859462
  0
LINE
  5
29
330
2
100
AcDbEntity
  8
ANCON-CHANNEL
100
AcDbLine
 10
84.27533869321161
 20
196.2629658823452
 30
0.0
 11
84.12190387234756
 21
196.1524082007995
 31
0.0
  0
ARC
  5
2A
330
2
100
AcDbEntity
  8
ANCON-CHANNEL
100
AcDbCircle
 10
80.31299877993735
 20
202.2275757199254
 30
0.0
 40
7.170454545454523
100
AcDbArc
 50
212.3784125140538
 51
302.0861892382793
  0
ARC
  5
2B
330
2
100
AcDbEntity
  8
ANCON-CHANNEL
100
AcDbCircle
 10
80.31299877993735
 20
202.2275757199254
 30
0.0
 40
4.670454545454523
100
AcDbArc
 50
212.3784125140538
 51
301.4188792747602
  0
ARC
  5
2C
330
2
100
AcDbEntity
  8
ANCON-CHANNEL
100
AcDbCircle
 10
70.31299877993735
 20
195.8866666290154
 30
0.0
 40
4.670454545454523
100
AcDbArc
 50
32.3784125140538
 51
147.6215874859462
  0
ARC
  5
2D
330
2
100
AcDbEntity
  8
ANCON-CHANNEL
100
AcDbCircle
 10
70.31299877993735
 20
195.8866666290154
 30
0.0
 40
7.170454545454523
100
AcDbArc
 50
32.3784125140538
 51
147.6215874859462
  0
LINE
  5
2E
330
2
100
AcDbEntity
  8
ANCON-CHANNEL
100
AcDbLine
 10
90.31299877993735
 20
197.8071211744704
 30
0.0
 11
90.00272612005693
 21
197.8264497176808
 31
0.0
  0
ARC
  5
2F
330
2
100
AcDbEntity
  8
ANCON-CHANNEL
100
AcDbCircle
 10
106.8129987799369
 20
196.8071211744704
 30
0.0
 40
1.0
100
AcDbArc
 50
0.0
 51
90.0
  0
LINE
  5
30
330
2
100
AcDbEntity
  8
ANCON-CHANNEL
100
AcDbLine
 10
106.8129987799369
 20
197.8071211744704
 30
0.0
 11
90.31299877993735
 21
197.8071211744704
 31
0.0
  0
LINE
  5
31
330
2
100
AcDbEntity
  8
ANCON-CHANNEL
100
AcDbLine
 10
106.8129987799369
 20
200.3071211744704
 30
0.0
 11
90.31299877993735
 21
200.3071211744704
 31
0.0
  0
LINE
  5
32
330
2
100
AcDbEntity
  8
ANCON-CHANNEL
100
AcDbLine
 10
108.8829196199106
 20
199.6294301079931
 30
0.0
 11
108.8829196199106
 21
215.3071211744705
 31
0.0
  0
LINE
  5
33
330
2
100
AcDbEntity
  8
ANCON-CHANNEL
100
AcDbLine
 10
103.8829196199106
 20
215.3071211744705
 30
0.0
 11
103.8829196199106
 21
200.3071211744704
 31
0.0
  0
LINE
  5
34
330
2
100
AcDbEntity
  8
ANCON-CHANNEL
100
AcDbLine
 10
122.8829196199106
 20
211.4744211744705
 30
0.0
 11
125.7113467446568
 21
214.3028482992167
 31
0.0
  0
LINE
  5
35
330
2
100
AcDbEntity
  8
ANCON-CHANNEL
100
AcDbLine
 10
125.7113467446568
 20
208.6459482992168
 30
0.0
 11
122.8829196199106
 21
211.474375423963
 31
0.0
  0
LINE
  5
36
330
2
100
AcDbEntity
  8
ANCON-CHANNEL
100
AcDbLine
 10
125.7113467446568
 20
214.3028482992167
 30
0.0
 11
124.7070738694031
 21
215.3071211744705
 31
0.0
  0
LINE
  5
37
330
2
100
AcDbEntity
  8
ANCON-CHANNEL
100
AcDbLine
 10
125.7113467446568
 20
202.9890482992167
 30
0.0
 11
122.8829196199106
 21
205.8174754239629
 31
0.0
  0
LINE
  5
38
330
2
100
AcDbEntity
  8
ANCON-CHANNEL
100
AcDbLine
 10
122.8829196199106
 20
194.5037211744705
 30
0.0
 11
125.7113467446568
 21
197.3321482992167
 31
0.0
  0
LINE
  5
39
330
2
100
AcDbEntity
  8
ANCON-CHANNEL
100
AcDbLine
 10
125.7113467446568
 20
191.6752482992167
 30
0.0
 11
122.8829196199106
 21
194.5036754239629
 31
0.0
  0
LINE
  5
3A
330
2
100
AcDbEntity
  8
ANCON-CHANNEL
100
AcDbLine
 10
122.8829196199106
 20
200.1606211744705
 30
0.0
 11
125.7113467446568
 21
202.9890482992167
 31
0.0
  0
LINE
  5
3B
330
2
100
AcDbEntity
  8
ANCON-CHANNEL
100
AcDbLine
 10
125.7113467446568
 20
197.3321482992167
 30
0.0
 11
122.8829196199106
 21
200.1605754239629
 31
0.0
  0
LINE
  5
3C
330
2
100
AcDbEntity
  8
ANCON-CHANNEL
100
AcDbLine
 10
122.8829196199106
 20
205.8175211744706
 30
0.0
 11
125.7113467446568
 21
208.6459482992168
 31
0.0
  0
ARC
  5
3D
330
2
100
AcDbEntity
  8
ANCON-CHANNEL
100
AcDbCircle
 10
106.8129987799369
 20
196.8071211744704
 30
0.0
 40
3.5
100
AcDbArc
 50
0.0
 51
90.0
  0
LINE
  5
3E
330
2
100
AcDbEntity
  8
ANCON-CHANNEL
100
AcDbLine
 10
125.7113467446568
 20
186.0183482992167
 30
0.0
 11
122.8829196199106
 21
188.8467754239629
 31
0.0
  0
LINE
  5
3F
330
2
100
AcDbEntity
  8
ANCON-CHANNEL
100
AcDbLine
 10
125.7113467446568
 20
174.7045482992167
 30
0.0
 11
122.8829196199106
 21
177.5329754239629
 31
0.0
  0
LINE
  5
40
330
2
100
AcDbEntity
  8
ANCON-CHANNEL
100
AcDbLine
 10
122.8829196199106
 20
183.1899211744705
 30
0.0
 11
125.7113467446568
 21
186.0183482992167
 31
0.0
  0
LINE
  5
41
330
2
100
AcDbEntity
  8
ANCON-CHANNEL
100
AcDbLine
 10
122.8829196199106
 20
177.5330211744706
 30
0.0
 11
125.7113467446568
 21
180.3614482992168
 31
0.0
  0
LINE
  5
42
330
2
100
AcDbEntity
  8
ANCON-CHANNEL
100
AcDbLine
 10
125.7113467446568
 20
180.3614482992168
 30
0.0
 11
122.8829196199106
 21
183.189875423963
 31
0.0
  0
LINE
  5
43
330
2
100
AcDbEntity
  8
ANCON-CHANNEL
100
AcDbLine
 10
125.0639196199107
 20
174.0571211744705
 30
0.0
 11
114.8829196199106
 21
174.0571211744705
 31
0.0
  0
LINE
  5
44
330
2
100
AcDbEntity
  8
ANCON-CHANNEL
100
AcDbLine
 10
125.7113467446568
 20
169.0476482992167
 30
0.0
 11
122.8829196199106
 21
171.876075423963
 31
0.0
  0
LINE
  5
45
330
2
100
AcDbEntity
  8
ANCON-CHANNEL
100
AcDbLine
 10
125.7113467446568
 20
163.3907482992169
 30
0.0
 11
122.8829196199106
 21
166.219175423963
 31
0.0
  0
LINE
  5
46
330
2
100
AcDbEntity
  8
ANCON-CHANNEL
100
AcDbLine
 10
122.8829196199106
 20
166.2192211744705
 30
0.0
 11
125.7113467446568
 21
169.0476482992167
 31
0.0
  0
LINE
  5
47
330
2
100
AcDbEntity
  8
ANCON-CHANNEL
100
AcDbLine
 10
125.7113467446568
 20
157.7338482992168
 30
0.0
 11
122.8829196199106
 21
160.562275423963
 31
0.0
  0
LINE
  5
48
330
2
100
AcDbEntity
  8
ANCON-CHANNEL
100
AcDbLine
 10
122.8829196199106
 20
160.5623211744706
 30
0.0
 11
125.7113467446568
 21
163.3907482992169
 31
0.0
  0
LINE
  5
49
330
2
100
AcDbEntity
  8
ANCON-CHANNEL
100
AcDbLine
 10
122.8829196199106
 20
171.8761211744705
 30
0.0
 11
125.7113467446568
 21
174.7045482992167
 31
0.0
  0
LINE
  5
4A
330
2
100
AcDbEntity
  8
ANCON-CHANNEL
100
AcDbLine
 10
122.8829196199106
 20
188.8468211744705
 30
0.0
 11
125.7113467446568
 21
191.6752482992167
 31
0.0
  0
ARC
  5
4B
330
2
100
AcDbEntity
  8
ANCON-CHANNEL
100
AcDbCircle
 10
89.03585852041926
 20
190.096213808917
 30
0.0
 40
10.29046726200484
100
AcDbArc
 50
82.87069172961365
 51
127.6669018911135
  0
ARC
  5
4C
330
2
100
AcDbEntity
  8
ANCON-CHANNEL
100
AcDbCircle
 10
89.03585852041926
 20
190.096213808917
 30
0.0
 40
7.790467262004838
100
AcDbArc
 50
82.87069172961365
 51
127.6669018911135
  0
ARC
  5
4D
330
2
100
AcDbEntity
  8
ANCON-CHANNEL
100
AcDbCircle
 10
60.31299877993745
 20
128.3866666290158
 30
0.0
 40
7.170454545454523
100
AcDbArc
 50
32.3784125140538
 51
147.6215874859462
  0
ARC
  5
4E
330
2
100
AcDbEntity
  8
ANCON-CHANNEL
100
AcDbCircle
 10
60.31299877993745
 20
128.3866666290158
 30
0.0
 40
4.670454545454523
100
AcDbArc
 50
32.3784125140538
 51
147.6215874859462
  0
LINE
  5
4F
330
2
100
AcDbEntity
  8
ANCON-CHANNEL
100
AcDbLine
 10
84.27533869321161
 20
134.3512764665959
 30
0.0
 11
84.12190387234756
 21
134.4618341481416
 31
0.0
  0
ARC
  5
50
330
2
100
AcDbEntity
  8
ANCON-CHANNEL
100
AcDbCircle
 10
80.31299877993735
 20
128.3866666290158
 30
0.0
 40
7.170454545454523
100
AcDbArc
 50
57.91381076172072
 51
147.6215874859462
  0
ARC
  5
51
330
2
100
AcDbEntity
  8
ANCON-CHANNEL
100
AcDbCircle
 10
80.31299877993735
 20
128.3866666290158
 30
0.0
 40
4.670454545454523
100
AcDbArc
 50
58.58112072523979
 51
147.6215874859462
  0
ARC
  5
52
330
2
100
AcDbEntity
  8
ANCON-CHANNEL
100
AcDbCircle
 10
70.31299877993735
 20
134.7275757199258
 30
0.0
 40
7.170454545454523
100
AcDbArc
 50
212.3784125140538
 51
327.6215874859462
  0
ARC
  5
53
330
2
100
AcDbEntity
  8
ANCON-CHANNEL
100
AcDbCircle
 10
70.31299877993735
 20
134.7275757199258
 30
0.0
 40
4.670454545454523
100
AcDbArc
 50
212.3784125140538
 51
327.6215874859462
  0
LINE
  5
54
330
2
100
AcDbEntity
  8
ANCON-CHANNEL
100
AcDbLine
 10
90.31299877993735
 20
132.8071211744708
 30
0.0
 11
90.00272612005693
 21
132.7877926312604
 31
0.0
  0
LINE
  5
55
330
2
100
AcDbEntity
  8
ANCON-CHANNEL
100
AcDbLine
 10
107.8129987799369
 20
131.8804848697089
 30
0.0
 11
107.8129987799369
 21
131.8241958301278
 31
0.0
  0
ARC
  5
56
330
2
100
AcDbEntity
  8
ANCON-CHANNEL
100
AcDbCircle
 10
106.8129987799369
 20
133.8071211744708
 30
0.0
 40
1.0
100
AcDbArc
 50
270.0
 51
0.0
  0
LINE
  5
57
330
2
100
AcDbEntity
  8
ANCON-CHANNEL
100
AcDbLine
 10
106.8129987799369
 20
130.3071211744708
 30
0.0
 11
90.31299877993735
 21
130.3071211744708
 31
0.0
  0
LINE
  5
58
330
2
100
AcDbEntity
  8
ANCON-CHANNEL
100
AcDbLine
 10
106.8129987799369
 20
132.8071211744708
 30
0.0
 11
90.31299877993735
 21
132.8071211744708
 31
0.0
  0
LINE
  5
59
330
2
100
AcDbEntity
  8
ANCON-CHANNEL
100
AcDbLine
 10
125.7113467446568
 20
152.0769482992168
 30
0.0
 11
122.8829196199106
 21
154.905375423963
 31
0.0
  0
LINE
  5
5A
330
2
100
AcDbEntity
  8
ANCON-CHANNEL
100
AcDbLine
 10
122.8829196199106
 20
143.5916211744706
 30
0.0
 11
125.7113467446568
 21
146.4200482992168
 31
0.0
  0
LINE
  5
5B
330
2
100
AcDbEntity
  8
ANCON-CHANNEL
100
AcDbLine
 10
122.8829196199106
 20
149.2485211744706
 30
0.0
 11
125.7113467446568
 21
152.0769482992168
 31
0.0
  0
LINE
  5
5C
330
2
100
AcDbEntity
  8
ANCON-CHANNEL
100
AcDbLine
 10
125.7113467446568
 20
146.4200482992168
 30
0.0
 11
122.8829196199106
 21
149.248475423963
 31
0.0
  0
LINE
  5
5D
330
2
100
AcDbEntity
  8
ANCON-CHANNEL
100
AcDbLine
 10
125.7113467446568
 20
140.7631482992168
 30
0.0
 11
122.8829196199106
 21
143.591575423963
 31
0.0
  0
LINE
  5
5E
330
2
100
AcDbEntity
  8
ANCON-CHANNEL
100
AcDbLine
 10
124.0346196199107
 20
156.0571211744705
 30
0.0
 11
114.8829196199106
 21
156.0571211744706
 31
0.0
  0
LINE
  5
5F
330
2
100
AcDbEntity
  8
ANCON-CHANNEL
100
AcDbLine
 10
122.8829196199106
 20
132.2778211744706
 30
0.0
 11
125.7113467446568
 21
135.1062482992168
 31
0.0
  0
LINE
  5
60
330
2
100
AcDbEntity
  8
ANCON-CHANNEL
100
AcDbLine
 10
122.8829196199106
 20
126.6209211744706
 30
0.0
 11
125.7113467446568
 21
129.4493482992168
 31
0.0
  0
LINE
  5
61
330
2
100
AcDbEntity
  8
ANCON-CHANNEL
100
AcDbLine
 10
125.7113467446568
 20
129.4493482992168
 30
0.0
 11
122.8829196199106
 21
132.277775423963
 31
0.0
  0
LINE
  5
62
330
2
100
AcDbEntity
  8
ANCON-CHANNEL
100
AcDbLine
 10
125.7113467446568
 20
123.7924482992168
 30
0.0
 11
122.8829196199106
 21
126.620875423963
 31
0.0
  0
LINE
  5
63
330
2
100
AcDbEntity
  8
ANCON-CHANNEL
100
AcDbLine
 10
125.7113467446568
 20
135.1062482992168
 30
0.0
 11
122.8829196199106
 21
137.934675423963
 31
0.0
  0
LINE
  5
64
330
2
100
AcDbEntity
  8
ANCON-CHANNEL
100
AcDbLine
 10
122.8829196199106
 20
137.9347211744706
 30
0.0
 11
125.7113467446568
 21
140.7631482992168
 31
0.0
  0
ARC
  5
65
330
2
100
AcDbEntity
  8
ANCON-CHANNEL
100
AcDbCircle
 10
106.8129987799369
 20
133.8071211744708
 30
0.0
 40
3.5
100
AcDbArc
 50
270.0
 51
0.0
  0
LINE
  5
66
330
2
100
AcDbEntity
  8
ANCON-CHANNEL
100
AcDbLine
 10
122.8829196199106
 20
115.3071211744706
 30
0.0
 11
125.7113467446568
 21
118.1355482992168
 31
0.0
  0
LINE
  5
67
330
2
100
AcDbEntity
  8
ANCON-CHANNEL
100
AcDbLine
 10
125.7113467446568
 20
118.1355482992168
 30
0.0
 11
122.8829196199106
 21
120.963975423963
 31
0.0
  0
LINE
  5
68
330
2
100
AcDbEntity
  8
ANCON-CHANNEL
100
AcDbLine
 10
108.8829196199106
 20
115.3071211744706
 30
0.0
 11
108.8829196199106
 21
130.9848122409434
 31
0.0
  0
LINE
  5
69
330
2
100
AcDbEntity
  8
ANCON-CHANNEL
100
AcDbLine
 10
103.8829196199106
 20
130.3071211744708
 30
0.0
 11
103.8829196199106
 21
115.3071211744706
 31
0.0
  0
LINE
  5
6A
330
2
100
AcDbEntity
  8
ANCON-CHANNEL
100
AcDbLine
 10
122.8829196199106
 20
120.9640211744705
 30
0.0
 11
125.7113467446568
 21
123.7924482992168
 31
0.0
  0
ARC
  5
6B
330
2
100
AcDbEntity
  8
ANCON-CHANNEL
100
AcDbCircle
 10
89.03585852041926
 20
140.5180285400241
 30
0.0
 40
10.29046726200484
100
AcDbArc
 50
232.3330981088839
 51
277.1293082703863
  0
ARC
  5
6C
330
2
100
AcDbEntity
  8
ANCON-CHANNEL
100
AcDbCircle
 10
89.03585852041926
 20
140.5180285400241
 30
0.0
 40
7.790467262004838
100
AcDbArc
 50
232.3330981088839
 51
277.1293082703863
  0
LINE
  5
6D
330
2
100
AcDbEntity
  8
ANCON-CHANNEL
100
AcDbLine
 10
107.8129987799369
 20
197.4788912226841
 30
0.0
 11
107.8129987799369
 21
133.1353511262965
 31
0.0
  0
LINE
  5
6E
330
2
100
AcDbEntity
  8
ANCON-CHANNEL
100
AcDbLine
 10
103.8829196199106
 20
197.8071211744704
 30
0.0
 11
103.8829196199106
 21
132.8071211744708
 31
0.0
  0
LINE
  5
6F
330
2
100
AcDbEntity
  8
ANCON-CHANNEL
100
AcDbLine
 10
110.3129987799373
 20
196.8071211744704
 30
0.0
 11
110.3129987799373
 21
133.8071211744708
 31
0.0
  0
LINE
  5
70
330
2
100
AcDbEntity
  8
ANCON-CHANNEL
100
AcDbLine
 10
107.8129987799369
 20
196.8071211744704
 30
0.0
 11
107.8129987799369
 21
133.8071211744708
 31
0.0
  0
LINE
  5
71
330
2
100
AcDbEntity
  8
ANCON-CHANNEL
100
AcDbLine
 10
114.8829196199106
 20
156.0571211744706
 30
0.0
 11
114.8829196199106
 21
174.0571211744705
 31
0.0
  0
LINE
  5
72
330
2
100
AcDbEntity
  8
ANCON-CHANNEL
100
AcDbLine
 10
122.8829196199106
 20
154.9054211744706
 30
0.0
 11
125.7113467446568
 21
157.7338482992168
 31
0.0
  0
LINE
  5
73
330
2
100
AcDbEntity
  8
ANCON-CHANNEL
100
AcDbLine
 10
143.7741644365292
 20
183.1676211744706
 30
0.0
 11
147.2704698318564
 21
183.1676211744706
 31
0.0
  0
ARC
  5
74
330
2
100
AcDbEntity
  8
ANCON-CHANNEL
100
AcDbCircle
 10
162.6967325193563
 20
165.3071211744709
 30
0.0
 40
15.4262626874999
100
AcDbArc
 50
147.7391653073656
 51
212.2608346926344
  0
LINE
  5
75
330
2
100
AcDbEntity
  8
ANCON-CHANNEL
100
AcDbLine
 10
147.2704698318564
 20
183.1676211744706
 30
0.0
 11
147.2704698318564
 21
165.3071211744706
 31
0.0
  0
ARC
  5
76
330
2
100
AcDbEntity
  8
ANCON-CHANNEL
100
AcDbCircle
 10
152.0398882659672
 20
177.6697909949439
 30
0.0
 40
4.769418434110749
100
AcDbArc
 50
120.0459147637284
 51
239.9540852362716
  0
LINE
  5
77
330
2
100
AcDbEntity
  8
ANCON-CHANNEL
100
AcDbLine
 10
171.6798198318565
 20
159.94897117447
 30
0.0
 11
171.6798198318565
 21
171.26062117447
 31
0.0
  0
LINE
  5
78
330
2
100
AcDbEntity
  8
ANCON-CHANNEL
100
AcDbLine
 10
169.2984198318562
 20
157.5675711744701
 30
0.0
 11
162.7495698318566
 21
157.5675711744701
 31
0.0
  0
LINE
  5
79
330
2
100
AcDbEntity
  8
ANCON-CHANNEL
100
AcDbLine
 10
171.6798198318565
 20
159.94897117447
 30
0.0
 11
169.2984198318562
 21
157.5675711744701
 31
0.0
  0
LINE
  5
7A
330
2
100
AcDbEntity
  8
ANCON-CHANNEL
100
AcDbLine
 10
169.2984198318562
 20
173.64202117447
 30
0.0
 11
162.7495698318566
 21
173.64202117447
 31
0.0
  0
LINE
  5
7B
330
2
100
AcDbEntity
  8
ANCON-CHANNEL
100
AcDbLine
 10
169.2984198318562
 20
173.64202117447
 30
0.0
 11
171.6798198318565
 21
171.26062117447
 31
0.0
  0
ARC
  5
7C
330
2
100
AcDbEntity
  8
ANCON-CHANNEL
100
AcDbCircle
 10
147.3233071443566
 20
165.3071211744707
 30
0.0
 40
15.42626268749983
100
AcDbArc
 50
327.7391653073656
 51
32.26083469263438
  0
ARC
  5
7D
330
2
100
AcDbEntity
  8
ANCON-CHANNEL
100
AcDbCircle
 10
157.9801513977447
 20
177.6697909949434
 30
0.0
 40
4.76941843411174
100
AcDbArc
 50
300.0459147637473
 51
59.9540852362645
  0
LINE
  5
7E
330
2
100
AcDbEntity
  8
ANCON-CHANNEL
100
AcDbLine
 10
149.6518698318564
 20
173.5412658154171
 30
0.0
 11
160.3681698318573
 21
173.5412658154171
 31
0.0
  0
LINE
  5
7F
330
2
100
AcDbEntity
  8
ANCON-CHANNEL
100
AcDbLine
 10
149.651869831856
 20
157.0729765335245
 30
0.0
 11
160.3681698318568
 21
157.0729765335245
 31
0.0
  0
LINE
  5
80
330
2
100
AcDbEntity
  8
ANCON-CHANNEL
100
AcDbLine
 10
149.6518698318564
 20
181.7983161744703
 30
0.0
 11
160.3681698318564
 21
181.7983161744703
 31
0.0
  0
LINE
  5
81
330
2
100
AcDbEntity
  8
ANCON-CHANNEL
100
AcDbLine
 10
147.2704698318564
 20
147.4466211744706
 30
0.0
 11
143.7741644365292
 21
147.4466211744706
 31
0.0
  0
LINE
  5
82
330
2
100
AcDbEntity
  8
ANCON-CHANNEL
100
AcDbLine
 10
149.6518698318564
 20
148.8159261744703
 30
0.0
 11
160.3681698318575
 21
148.8159261744703
 31
0.0
  0
ARC
  5
83
330
2
100
AcDbEntity
  8
ANCON-CHANNEL
100
AcDbCircle
 10
157.980151397744
 20
152.9444513539975
 30
0.0
 40
4.769418434112365
100
AcDbArc
 50
300.0459147637394
 51
59.9540852362531
  0
LINE
  5
84
330
2
100
AcDbEntity
  8
ANCON-CHANNEL
100
AcDbLine
 10
147.2704698318564
 20
165.3071211744706
 30
0.0
 11
147.2704698318564
 21
147.4466211744706
 31
0.0
  0
LINE
  5
85
330
2
100
AcDbEntity
  8
ANCON-CHANNEL
100
AcDbLine
 10
143.7741644365292
 20
147.4466211744706
 30
0.0
 11
143.7741644365292
 21
183.1676211744706
 31
0.0
  0
ARC
  5
86
330
2
100
AcDbEntity
  8
ANCON-CHANNEL
100
AcDbCircle
 10
152.039888265968
 20
152.9444513539971
 30
0.0
 40
4.769418434111595
100
AcDbArc
 50
120.0459147637355
 51
239.9540852362644
  0
LINE
  5
87
330
2
100
AcDbEntity
  8
ANCON-CHANNEL
100
AcDbLine
 10
130.8829196199106
 20
115.3071211744706
 30
0.0
 11
130.8829196199106
 21
215.3071211744705
 31
0.0
  0
LINE
  5
88
330
2
100
AcDbEntity
  8
ANCON-CHANNEL
100
AcDbLine
 10
162.7495698318566
 20
152.9444513539974
 30
0.0
 11
162.7495698318566
 21
177.6697909949436
 31
0.0
  0
LINE
  5
89
330
2
100
AcDbEntity
  8
ANCON-CHANNEL
100
AcDbLine
 10
147.2704698318564
 20
152.9444513539974
 30
0.0
 11
147.2704698318564
 21
177.6697909949436
 31
0.0
  0
LINE
  5
8A
330
2
100
AcDbEntity
  8
ANCON-CHANNEL
100
AcDbLine
 10
103.8829196199106
 20
115.3071211744706
 30
0.0
 11
130.8829196199106
 21
115.3071211744706
 31
0.0
  0
LINE
  5
8B
330
2
100
AcDbEntity
  8
ANCON-CHANNEL
100
AcDbLine
 10
130.8829196199106
 20
215.3071211744705
 30
0.0
 11
103.8829196199106
 21
215.3071211744705
 31
0.0
  0
ARC
  5
8C
330
2
100
AcDbEntity
  8
ANCON-CHANNEL
100
AcDbCircle
 10
48.46752391840386
 20
138.5942682527901
 30
0.0
 40
11.03714707831906
100
AcDbArc
 50
224.2856448020628
 51
315.7143551979378
  0
ARC
  5
8D
330
2
100
AcDbEntity
  8
ANCON-CHANNEL
100
AcDbCircle
 10
48.46752391840386
 20
138.8679480888412
 30
0.0
 40
8.810826914370212
100
AcDbArc
 50
228.9190411468476
 51
311.0809588531558
  0
ARC
  5
8E
330
2
100
AcDbEntity
  8
ANCON-CHANNEL
100
AcDbCircle
 10
48.46752391840386
 20
191.7462942601
 30
0.0
 40
8.810826914370212
100
AcDbArc
 50
48.91904114684422
 51
131.0809588531523
  0
ARC
  5
8F
330
2
100
AcDbEntity
  8
ANCON-CHANNEL
100
AcDbCircle
 10
48.46752391840386
 20
192.019974096151
 30
0.0
 40
11.03714707831906
100
AcDbArc
 50
44.28564480206221
 51
135.7143551979372
  0
TEXT
  5
90
330
2
100
AcDbEntity
  8
ANCON-TEXT
100
AcDbText
 10
-388.3538807824293
 20
-45.23572445620127
 30
0.0
 40
9.0
  1

  7
ROMANS
100
AcDbText
  0
TEXT
  5
93
330
2
100
AcDbEntity
  8
ANCON-TEXT
100
AcDbText
 10
-388.3538807824293
 20
-59.59282782648878
 30
0.0
 40
9.0
  1

  7
ROMANS
100
AcDbText
  0
LINE
  5
94
330
2
100
AcDbEntity
  8
ANCON-CHANNEL
100
AcDbLine
 10
126.1329196199105
 20
91.38832960255456
 30
0.0
 11
109.8829196199106
 21
91.38832960255459
 31
0.0
  0
LINE
  5
95
330
2
100
AcDbEntity
  8
ANCON-CHANNEL
100
AcDbLine
 10
126.1329196199105
 20
94.38832960255458
 30
0.0
 11
109.8829196199106
 21
94.38832960255458
 31
0.0
  0
LINE
  5
96
330
2
100
AcDbEntity
  8
ANCON-CHANNEL
100
AcDbLine
 10
126.1329196199105
 20
56.38832960255456
 30
0.0
 11
109.8829196199106
 21
56.38832960255453
 31
0.0
  0
LINE
  5
97
330
2
100
AcDbEntity
  8
ANCON-CHANNEL
100
AcDbLine
 10
126.1329196199105
 20
53.38832960255459
 30
0.0
 11
109.8829196199106
 21
53.38832960255453
 31
0.0
  0
TEXT
  5
98
330
2
100
AcDbEntity
  8
ANCON-TEXT
100
AcDbText
 10
-333.3312888541478
 20
-30.50014041039751
 30
0.0
 40
9.0
  1

  7
ROMANS
100
AcDbText
  0
LINE
  5
9B
330
2
100
AcDbEntity
  8
ANCON-CHANNEL
100
AcDbLine
 10
35.88291961991064
 20
63.88832960255456
 30
0.0
 11
103.8829196199106
 21
63.88832960255456
 31
0.0
  0
LINE
  5
9C
330
2
100
AcDbEntity
  8
ANCON-CHANNEL
100
AcDbLine
 10
35.88291961991064
 20
83.88832960255456
 30
0.0
 11
103.8829196199106
 21
83.88832960255456
 31
0.0
  0
LINE
  5
9D
330
2
100
AcDbEntity
  8
ANCON-CHANNEL
100
AcDbLine
 10
66.97011217649742
 20
63.88832960255456
 30
0.0
 11
66.97011217649742
 21
68.84829907054461
 31
0.0
  0
LINE
  5
9E
330
2
100
AcDbEntity
  8
ANCON-CHANNEL
100
AcDbLine
 10
53.83824441414663
 20
63.88832960255456
 30
0.0
 11
53.83824441414663
 21
68.84829907054461
 31
0.0
  0
LINE
  5
9F
330
2
100
AcDbEntity
  8
ANCON-CHANNEL
100
AcDbLine
 10
35.88291961991064
 20
63.88832960255456
 30
0.0
 11
35.88291961991064
 21
83.88832960255456
 31
0.0
  0
LINE
  5
A0
330
2
100
AcDbEntity
  8
ANCON-CHANNEL
100
AcDbLine
 10
51.83824441414663
 20
63.88832960255456
 30
0.0
 11
51.83824441414663
 21
66.18744531081643
 31
0.0
  0
LINE
  5
A1
330
2
100
AcDbEntity
  8
ANCON-CHANNEL
100
AcDbLine
 10
52.83824441414663
 20
63.88832960255456
 30
0.0
 11
52.83824441414663
 21
66.98570171440019
 31
0.0
  0
LINE
  5
A2
330
2
100
AcDbEntity
  8
ANCON-CHANNEL
100
AcDbLine
 10
65.97011217649742
 20
63.88832960255456
 30
0.0
 11
65.97011217649742
 21
66.98570171440019
 31
0.0
  0
LINE
  5
A3
330
2
100
AcDbEntity
  8
ANCON-CHANNEL
100
AcDbLine
 10
64.97011217649742
 20
63.88832960255456
 30
0.0
 11
64.97011217649742
 21
66.18744531081643
 31
0.0
  0
LINE
  5
A4
330
2
100
AcDbEntity
  8
ANCON-CHANNEL
100
AcDbLine
 10
51.83824441414663
 20
78.95954501150348
 30
0.0
 11
51.83824441414663
 21
83.88832960255456
 31
0.0
  0
LINE
  5
A5
330
2
100
AcDbEntity
  8
ANCON-CHANNEL
100
AcDbLine
 10
52.83824441414663
 20
76.3652120444379
 30
0.0
 11
52.83824441414663
 21
83.88832960255456
 31
0.0
  0
LINE
  5
A6
330
2
100
AcDbEntity
  8
ANCON-CHANNEL
100
AcDbLine
 10
53.83824441414663
 20
71.64219579392448
 30
0.0
 11
53.83824441414663
 21
77.69563892430198
 31
0.0
  0
LINE
  5
A7
330
2
100
AcDbEntity
  8
ANCON-CHANNEL
100
AcDbLine
 10
51.83824441414663
 20
68.71525748521938
 30
0.0
 11
51.83824441414663
 21
76.49825500808962
 31
0.0
  0
LINE
  5
A8
330
2
100
AcDbEntity
  8
ANCON-CHANNEL
100
AcDbLine
 10
52.83824441414663
 20
68.71525748521938
 30
0.0
 11
52.83824441414663
 21
74.96826299358471
 31
0.0
  0
LINE
  5
A9
330
2
100
AcDbEntity
  8
ANCON-CHANNEL
100
AcDbLine
 10
53.83824441414663
 20
80.55605644034448
 30
0.0
 11
53.83824441414663
 21
83.88832960255456
 31
0.0
  0
LINE
  5
AA
330
2
100
AcDbEntity
  8
ANCON-CHANNEL
100
AcDbLine
 10
65.97011217649742
 20
76.3652120444379
 30
0.0
 11
65.97011217649742
 21
83.88832960255456
 31
0.0
  0
LINE
  5
AB
330
2
100
AcDbEntity
  8
ANCON-CHANNEL
100
AcDbLine
 10
64.97011217649742
 20
78.95954501150348
 30
0.0
 11
64.97011217649742
 21
83.88832960255456
 31
0.0
  0
LINE
  5
AC
330
2
100
AcDbEntity
  8
ANCON-CHANNEL
100
AcDbLine
 10
64.97011217649742
 20
68.71525748521938
 30
0.0
 11
64.97011217649742
 21
76.49825500808962
 31
0.0
  0
LINE
  5
AD
330
2
100
AcDbEntity
  8
ANCON-CHANNEL
100
AcDbLine
 10
65.97011217649742
 20
68.71525748521938
 30
0.0
 11
65.97011217649742
 21
74.96826299358471
 31
0.0
  0
LINE
  5
AE
330
2
100
AcDbEntity
  8
ANCON-CHANNEL
100
AcDbLine
 10
66.97011217649742
 20
71.64219579392448
 30
0.0
 11
66.97011217649742
 21
77.69563892430198
 31
0.0
  0
LINE
  5
AF
330
2
100
AcDbEntity
  8
ANCON-CHANNEL
100
AcDbLine
 10
66.97011217649742
 20
80.55605644034448
 30
0.0
 11
66.97011217649742
 21
83.88832960255456
 31
0.0
  0
LINE
  5
B0
330
2
100
AcDbEntity
  8
ANCON-CHANNEL
100
AcDbLine
 10
93.23384770119904
 20
63.88832960255456
 30
0.0
 11
93.23384770119904
 21
68.84829907054461
 31
0.0
  0
LINE
  5
B1
330
2
100
AcDbEntity
  8
ANCON-CHANNEL
100
AcDbLine
 10
103.8829196199106
 20
83.88832960255456
 30
0.0
 11
103.8829196199106
 21
63.88832960255456
 31
0.0
  0
LINE
  5
B2
330
2
100
AcDbEntity
  8
ANCON-CHANNEL
100
AcDbLine
 10
103.8829196199106
 20
59.38832960255453
 30
0.0
 11
103.8829196199106
 21
88.38832960255459
 31
0.0
  0
LINE
  5
B3
330
2
100
AcDbEntity
  8
ANCON-CHANNEL
100
AcDbLine
 10
109.8829196199106
 20
63.88832960255456
 30
0.0
 11
109.8829196199106
 21
83.88832960255456
 31
0.0
  0
LINE
  5
B4
330
2
100
AcDbEntity
  8
ANCON-CHANNEL
100
AcDbLine
 10
106.8829196199106
 20
83.88832960255456
 30
0.0
 11
106.8829196199106
 21
63.88832960255456
 31
0.0
  0
LINE
  5
B5
330
2
100
AcDbEntity
  8
ANCON-CHANNEL
100
AcDbLine
 10
106.8829196199106
 20
59.38832960255453
 30
0.0
 11
106.8829196199106
 21
88.38832960255459
 31
0.0
  0
LINE
  5
B6
330
2
100
AcDbEntity
  8
ANCON-CHANNEL
100
AcDbLine
 10
80.10197993884824
 20
63.88832960255456
 30
0.0
 11
80.10197993884824
 21
68.84829907054461
 31
0.0
  0
LINE
  5
B7
330
2
100
AcDbEntity
  8
ANCON-CHANNEL
100
AcDbLine
 10
78.10197993884824
 20
63.88832960255456
 30
0.0
 11
78.10197993884824
 21
66.18744531081643
 31
0.0
  0
LINE
  5
B8
330
2
100
AcDbEntity
  8
ANCON-CHANNEL
100
AcDbLine
 10
79.10197993884825
 20
63.88832960255456
 30
0.0
 11
79.10197993884825
 21
66.98570171440019
 31
0.0
  0
LINE
  5
B9
330
2
100
AcDbEntity
  8
ANCON-CHANNEL
100
AcDbLine
 10
91.23384770119903
 20
63.88832960255456
 30
0.0
 11
91.23384770119903
 21
66.18744531081643
 31
0.0
  0
LINE
  5
BA
330
2
100
AcDbEntity
  8
ANCON-CHANNEL
100
AcDbLine
 10
92.23384770119904
 20
63.88832960255456
 30
0.0
 11
92.23384770119904
 21
66.98570171440019
 31
0.0
  0
ARC
  5
BB
330
2
100
AcDbEntity
  8
ANCON-CHANNEL
100
AcDbCircle
 10
109.8829196199106
 20
59.38832960255453
 30
0.0
 40
6.0
100
AcDbArc
 50
180.0
 51
270.0
  0
ARC
  5
BC
330
2
100
AcDbEntity
  8
ANCON-CHANNEL
100
AcDbCircle
 10
109.8829196199106
 20
59.38832960255453
 30
0.0
 40
3.0
100
AcDbArc
 50
180.0
 51
270.0
  0
LINE
  5
BD
330
2
100
AcDbEntity
  8
ANCON-CHANNEL
100
AcDbLine
 10
106.8829196199106
 20
63.88832960255456
 30
0.0
 11
109.8829196199106
 21
63.88832960255456
 31
0.0
  0
LINE
  5
BE
330
2
100
AcDbEntity
  8
ANCON-CHANNEL
100
AcDbLine
 10
78.10197993884824
 20
78.95954501150348
 30
0.0
 11
78.10197993884824
 21
83.88832960255456
 31
0.0
  0
LINE
  5
BF
330
2
100
AcDbEntity
  8
ANCON-CHANNEL
100
AcDbLine
 10
79.10197993884825
 20
76.3652120444379
 30
0.0
 11
79.10197993884825
 21
83.88832960255456
 31
0.0
  0
LINE
  5
C0
330
2
100
AcDbEntity
  8
ANCON-CHANNEL
100
AcDbLine
 10
80.10197993884824
 20
71.64219579392448
 30
0.0
 11
80.10197993884824
 21
77.69563892430198
 31
0.0
  0
LINE
  5
C1
330
2
100
AcDbEntity
  8
ANCON-CHANNEL
100
AcDbLine
 10
78.10197993884824
 20
68.71525748521938
 30
0.0
 11
78.10197993884824
 21
76.49825500808962
 31
0.0
  0
LINE
  5
C2
330
2
100
AcDbEntity
  8
ANCON-CHANNEL
100
AcDbLine
 10
79.10197993884825
 20
68.71525748521938
 30
0.0
 11
79.10197993884825
 21
74.96826299358471
 31
0.0
  0
LINE
  5
C3
330
2
100
AcDbEntity
  8
ANCON-CHANNEL
100
AcDbLine
 10
80.10197993884824
 20
80.55605644034448
 30
0.0
 11
80.10197993884824
 21
83.88832960255456
 31
0.0
  0
LINE
  5
C4
330
2
100
AcDbEntity
  8
ANCON-CHANNEL
100
AcDbLine
 10
92.23384770119904
 20
76.3652120444379
 30
0.0
 11
92.23384770119904
 21
83.88832960255456
 31
0.0
  0
LINE
  5
C5
330
2
100
AcDbEntity
  8
ANCON-CHANNEL
100
AcDbLine
 10
91.23384770119903
 20
78.95954501150348
 30
0.0
 11
91.23384770119903
 21
83.88832960255456
 31
0.0
  0
LINE
  5
C6
330
2
100
AcDbEntity
  8
ANCON-CHANNEL
100
AcDbLine
 10
91.23384770119903
 20
68.71525748521938
 30
0.0
 11
91.23384770119903
 21
76.49825500808962
 31
0.0
  0
LINE
  5
C7
330
2
100
AcDbEntity
  8
ANCON-CHANNEL
100
AcDbLine
 10
92.23384770119904
 20
68.71525748521938
 30
0.0
 11
92.23384770119904
 21
74.96826299358471
 31
0.0
  0
ARC
  5
C8
330
2
100
AcDbEntity
  8
ANCON-CHANNEL
100
AcDbCircle
 10
109.8829196199106
 20
88.38832960255459
 30
0.0
 40
3.0
100
AcDbArc
 50
90.0
 51
179.9999999999999
  0
ARC
  5
C9
330
2
100
AcDbEntity
  8
ANCON-CHANNEL
100
AcDbCircle
 10
109.8829196199106
 20
88.38832960255459
 30
0.0
 40
6.0
100
AcDbArc
 50
90.0
 51
179.9999999999999
  0
LINE
  5
CA
330
2
100
AcDbEntity
  8
ANCON-CHANNEL
100
AcDbLine
 10
93.23384770119904
 20
71.64219579392448
 30
0.0
 11
93.23384770119904
 21
77.69563892430198
 31
0.0
  0
LINE
  5
CB
330
2
100
AcDbEntity
  8
ANCON-CHANNEL
100
AcDbLine
 10
93.23384770119904
 20
80.55605644034448
 30
0.0
 11
93.23384770119904
 21
83.88832960255456
 31
0.0
  0
LINE
  5
CC
330
2
100
AcDbEntity
  8
ANCON-CHANNEL
100
AcDbLine
 10
106.8829196199106
 20
83.88832960255456
 30
0.0
 11
109.8829196199106
 21
83.88832960255456
 31
0.0
  0
LINE
  5
CD
330
2
100
AcDbEntity
  8
ANCON-CHANNEL
100
AcDbLine
 10
125.6329196199106
 20
59.81538058567943
 30
0.0
 11
120.8829196199106
 21
59.81538058567943
 31
0.0
  0
LINE
  5
CE
330
2
100
AcDbEntity
  8
ANCON-CHANNEL
100
AcDbLine
 10
125.6329196199106
 20
62.88832960255459
 30
0.0
 11
120.8829196199106
 21
62.88832960255459
 31
0.0
  0
ARC
  5
CF
330
2
100
AcDbEntity
  8
ANCON-CHANNEL
100
AcDbCircle
 10
126.1204223077083
 20
58.15082974401761
 30
0.0
 40
4.762516538579967
100
AcDbArc
 50
270.1503499379819
 51
95.87522507038258
  0
LINE
  5
D0
330
2
100
AcDbEntity
  8
ANCON-CHANNEL
100
AcDbLine
 10
120.8829196199106
 20
59.81538058567943
 30
0.0
 11
120.8829196199106
 21
62.88832960255459
 31
0.0
  0
ARC
  5
D1
330
2
100
AcDbEntity
  8
ANCON-CHANNEL
100
AcDbCircle
 10
126.1329196199105
 20
58.13832960255459
 30
0.0
 40
1.75
100
AcDbArc
 50
270.0
 51
106.6015495990198
  0
ARC
  5
D2
330
2
100
AcDbEntity
  8
ANCON-CHANNEL
100
AcDbCircle
 10
126.1329196199105
 20
89.63832960255457
 30
0.0
 40
1.75
100
AcDbArc
 50
253.3984504009802
 51
90.0
  0
ARC
  5
D3
330
2
100
AcDbEntity
  8
ANCON-CHANNEL
100
AcDbCircle
 10
126.1204223077083
 20
89.62582946109151
 30
0.0
 40
4.762516538579958
100
AcDbArc
 50
264.1247749296174
 51
89.84965006201818
  0
LINE
  5
D4
330
2
100
AcDbEntity
  8
ANCON-CHANNEL
100
AcDbLine
 10
125.6329196199106
 20
87.96127861942972
 30
0.0
 11
120.8829196199106
 21
87.96127861942972
 31
0.0
  0
LINE
  5
D5
330
2
100
AcDbEntity
  8
ANCON-CHANNEL
100
AcDbLine
 10
125.6329196199106
 20
84.88832960255455
 30
0.0
 11
120.8829196199106
 21
84.88832960255455
 31
0.0
  0
LINE
  5
D6
330
2
100
AcDbEntity
  8
ANCON-CHANNEL
100
AcDbLine
 10
120.8829196199106
 20
87.96127861942968
 30
0.0
 11
120.8829196199106
 21
84.88832960255455
 31
0.0
  0
TEXT
  5
143
102
{ACAD_XDICTIONARY
360
144
102
}
330
2
100
AcDbEntity
  8
ANCON-TEXT
100
AcDbText
 10
57.92169952003803
 20
246.3738557881112
 30
0.0
 40
4.497647157502282
  1
ANCON 41/27 CAST-IN CHANNEL
  7
arial
100
AcDbText
1001
AcadAnnotative
1000
AnnotativeData
1002
{
1070
     1
1070
     1
1002
}
  0
TEXT
  5
148
102
{ACAD_XDICTIONARY
360
149
102
}
330
2
100
AcDbEntity
  8
ANCON-TEXT
100
AcDbText
 10
57.92169952003803
 20
239.0919508664408
 30
0.0
 40
4.497647157502282
  1
STANDARD EDGE : 100mm
  7
arial
100
AcDbText
1001
AcadAnnotative
1000
AnnotativeData
1002
{
1070
     1
1070
     1
1002
}
  0
MTEXT
  5
14D
330
2
100
AcDbEntity
  8
ANCON-TEXT
100
AcDbMText
 10
29.89974374014764
 20
42.16631728802792
 30
0.0
 40
4.0
 41
95.73209882442336
 46
0.0
 71
     1
 72
     5
  1
{\fArial|b0|i0|c0|p34;Leviat \PTel:  1300 304 320\PEmail: technical.au@leviat.com\PWeb: ancon.com.au / Leviat.com}
 73
     1
 44
1.0
101
Embedded Object
 70
     1
 10
1.0
 20
0.0
 30
0.0
 11
29.89974374014764
 21
42.16631728802792
 31
0.0
 40
95.73209882442336
 41
0.0
 42
80.94679399727148
 43
24.22646657571624
 71
     2
 72
     1
 44
95.73209882442336
 45
0.5
 73
     0
 74
     0
 46
0.0
  0
LWPOLYLINE
  5
14E
330
2
100
AcDbEntity
  8
0
100
AcDbPolyline
 90
        4
 70
     1
 43
0.0
 10
26.27544540168901
 20
10.40886407481662
 10
181.3512395852372
 20
10.40886407481662
 10
181.3512395852372
 20
258.5435831028067
 10
26.27544540168901
 20
258.5435831028067
  0
ENDSEC
  0
SECTION
  2
OBJECTS
  0
DICTIONARY
  5
7
330
0
100
AcDbDictionary
281
     1
  3
ACAD_CIP_PREVIOUS_PRODUCT_INFO
350
129
  3
ACAD_COLOR
350
10B
  3
ACAD_DETAILVIEWSTYLE
350
124
  3
ACAD_GROUP
350
1F
  3
ACAD_LAYOUT
350
B
  3
ACAD_MATERIAL
350
D9
  3
ACAD_MLEADERSTYLE
350
120
  3
ACAD_MLINESTYLE
350
20
  3
ACAD_PLOTSETTINGS
350
21
  3
ACAD_PLOTSTYLENAME
350
6
  3
ACAD_SCALELIST
350
10E
  3
ACAD_SECTIONVIEWSTYLE
350
122
  3
ACAD_TABLESTYLE
350
10C
  3
ACAD_VISUALSTYLE
350
F2
  3
ACDB_RECOMPOSE_DATA
350
184
  3
AcDbVariableDictionary
350
178
  0
DICTIONARY
  5
12D
330
10
100
AcDbDictionary
280
     1
281
     1
  3
ACAD_LAYERSTATES
360
12E
  0
DICTIONARY
  5
161
330
4
100
AcDbDictionary
280
     1
281
     1
  3
ADSK_XREC_LAYER_RECONCILED
360
162
  0
DICTIONARY
  5
163
330
25
100
AcDbDictionary
280
     1
281
     1
  3
ADSK_XREC_LAYER_RECONCILED
360
164
  0
DICTIONARY
  5
165
330
91
100
AcDbDictionary
280
     1
281
     1
  3
ADSK_XREC_LAYER_RECONCILED
360
166
  0
DICTIONARY
  5
144
330
143
100
AcDbDictionary
280
     1
281
     1
  3
AcDbContextDataManager
360
145
  0
DICTIONARY
  5
149
330
148
100
AcDbDictionary
280
     1
281
     1
  3
AcDbContextDataManager
360
14A
  0
XRECORD
  5
129
102
{ACAD_REACTORS
330
7
102
}
330
7
100
AcDbXrecord
280
     1
300
ACDLT
300
2020
300

  0
DICTIONARY
  5
10B
102
{ACAD_REACTORS
330
7
102
}
330
7
100
AcDbDictionary
281
     1
  0
DICTIONARY
  5
124
102
{ACAD_REACTORS
330
7
102
}
330
7
100
AcDbDictionary
281
     1
  3
Imperial24
350
125
  0
DICTIONARY
  5
1F
102
{ACAD_REACTORS
330
7
102
}
330
7
100
AcDbDictionary
281
     1
  0
DICTIONARY
  5
B
102
{ACAD_REACTORS
330
7
102
}
330
7
100
AcDbDictionary
281
     1
  3
Layout1
350
F
  3
Model
350
A
  0
DICTIONARY
  5
D9
102
{ACAD_REACTORS
330
7
102
}
330
7
100
AcDbDictionary
281
     1
  3
ByBlock
350
E2
  3
ByLayer
350
DA
  3
Global
350
EA
  0
DICTIONARY
  5
120
102
{ACAD_REACTORS
330
7
102
}
330
7
100
AcDbDictionary
281
     1
  3
Standard
350
121
  0
DICTIONARY
  5
20
102
{ACAD_REACTORS
330
7
102
}
330
7
100
AcDbDictionary
281
     1
  3
STANDARD
350
22
  0
DICTIONARY
  5
21
102
{ACAD_REACTORS
330
7
102
}
330
7
100
AcDbDictionary
281
     1
  0
ACDBDICTIONARYWDFLT
  5
6
102
{ACAD_REACTORS
330
7
102
}
330
7
100
AcDbDictionary
281
     1
  3
Normal
350
5
100
AcDbDictionaryWithDefault
340
5
  0
DICTIONARY
  5
10E
102
{ACAD_REACTORS
330
7
102
}
330
7
100
AcDbDictionary
281
     1
  3
A0
350
10F
  3
A1
350
110
  3
A2
350
111
  3
A3
350
112
  3
A4
350
113
  3
A5
350
114
  3
A6
350
115
  3
A7
350
116
  3
A8
350
117
  3
A9
350
118
  3
B0
350
119
  3
B1
350
11A
  3
B2
350
11B
  3
B3
350
11C
  3
B4
350
11D
  3
B5
350
11E
  3
B6
350
11F
  0
DICTIONARY
  5
122
102
{ACAD_REACTORS
330
7
102
}
330
7
100
AcDbDictionary
281
     1
  3
Imperial24
350
123
  0
DICTIONARY
  5
10C
102
{ACAD_REACTORS
330
7
102
}
330
7
100
AcDbDictionary
281
     1
  3
Standard
350
10D
  0
DICTIONARY
  5
F2
102
{ACAD_REACTORS
330
7
102
}
330
7
100
AcDbDictionary
281
     1
  3
2dWireframe
350
F8
  3
Basic
350
F7
  3
Brighten
350
FE
  3
ColorChange
350
102
  3
Conceptual
350
FB
  3
Dim
350
FD
  3
EdgeColorOff
350
10A
  3
Facepattern
350
101
  3
Flat
350
F3
  3
FlatWithEdges
350
F4
  3
Gouraud
350
F5
  3
GouraudWithEdges
350
F6
  3
Hidden
350
FA
  3
JitterOff
350
108
  3
Linepattern
350
100
  3
OverhangOff
350
109
  3
Realistic
350
FC
  3
Shaded
350
107
  3
Shaded with edges
350
106
  3
Shades of Gray
350
103
  3
Sketchy
350
104
  3
Thicken
350
FF
  3
Wireframe
350
F9
  3
X-Ray
350
105
  0
XRECORD
  5
184
102
{ACAD_REACTORS
330
7
102
}
330
7
100
AcDbXrecord
280
     1
 90
        1
330
10D
  0
DICTIONARY
  5
178
102
{ACAD_REACTORS
330
7
102
}
330
7
100
AcDbDictionary
281
     1
  3
CANNOSCALE
350
17E
  3
CMLEADERSTYLE
350
17A
  3
CTABLESTYLE
350
179
  3
CVIEWDETAILSTYLE
350
17B
  3
CVIEWSECTIONSTYLE
350
17C
  3
LAYEREVAL
350
180
  3
LAYERNOTIFY
350
181
  3
LIGHTINGUNITS
350
17F
  3
MSLTSCALE
350
17D
  0
DICTIONARY
  5
12E
102
{ACAD_REACTORS
330
12D
102
}
330
12D
100
AcDbDictionary
281
     1
  0
XRECORD
  5
162
102
{ACAD_REACTORS
330
161
102
}
330
161
100
AcDbXrecord
280
     1
290
     1
  0
XRECORD
  5
164
102
{ACAD_REACTORS
330
163
102
}
330
163
100
AcDbXrecord
280
     1
290
     1
  0
XRECORD
  5
166
102
{ACAD_REACTORS
330
165
102
}
330
165
100
AcDbXrecord
280
     1
290
     1
  0
DICTIONARY
  5
145
102
{ACAD_REACTORS
330
144
102
}
330
144
100
AcDbDictionary
281
     1
  3
ACDB_ANNOTATIONSCALES
350
146
  0
DICTIONARY
  5
14A
102
{ACAD_REACTORS
330
149
102
}
330
149
100
AcDbDictionary
281
     1
  3
ACDB_ANNOTATIONSCALES
350
14B
  0
ACDBDETAILVIEWSTYLE
  5
125
102
{ACAD_REACTORS
330
124
102
}
330
124
100
AcDbModelDocViewStyle
 70
     0
  3
Imperial24
290
     1
300
Imperial24
 90
        0
100
AcDbDetailViewStyle
 70
     0
 71
     0
 90
        3
 71
     1
340
12
 62
   256
 40
0.24
340
0
 62
   256
 40
0.24
300

 40
0.36
280
     3
 71
     2
340
8
 90
       25
 62
   256
 71
     3
340
12
 62
   256
 40
0.24
 90
        1
 40
0.75
 90
        1
300
%<\AcVar ViewType \f "%tc1">% %<\AcVar ViewDetailId>%\PSCALE %<\AcVar ViewScale \f "%sn">%
 71
     4
340
8
 90
       25
 62
   256
340
8
 90
       25
 62
   256
280
     0
  0
LAYOUT
  5
F
102
{ACAD_REACTORS
330
B
102
}
330
B
100
AcDbPlotSettings
  1

  2
Ancon 2
  4

  6

 40
0.0
 41
0.0
 42
0.0
 43
0.0
 44
0.0
 45
0.0
 46
0.0
 47
0.0
 48
0.0
 49
0.0
140
0.0
141
0.0
142
1.0
143
1.0
 70
   688
 72
     0
 73
     0
 74
     5
  7

 75
    16
147
1.0
 76
     0
 77
     2
 78
   300
148
0.0
149
0.0
100
AcDbLayout
  1
Layout1
 70
     1
 71
     1
 10
0.0
 20
0.0
 11
420.0
 21
297.0
 12
0.0
 22
0.0
 32
0.0
 14
1.000000000000000E+20
 24
1.000000000000000E+20
 34
1.000000000000000E+20
 15
-1.000000000000000E+20
 25
-1.000000000000000E+20
 35
-1.000000000000000E+20
146
0.0
 13
0.0
 23
0.0
 33
0.0
 16
1.0
 26
0.0
 36
0.0
 17
0.0
 27
1.0
 37
0.0
 76
     0
330
C
  0
LAYOUT
  5
A
102
{ACAD_REACTORS
330
B
102
}
330
B
100
AcDbPlotSettings
  1

  2
Ancon 2
  4

  6

 40
0.0
 41
0.0
 42
0.0
 43
0.0
 44
0.0
 45
0.0
 46
0.0
 47
0.0
 48
0.0
 49
0.0
140
0.0
141
0.0
142
1.0
143
1.0
 70
  1712
 72
     0
 73
     0
 74
     0
  7

 75
     0
147
1.0
 76
     0
 77
     2
 78
   300
148
0.0
149
0.0
100
AcDbLayout
  1
Model
 70
     1
 71
     0
 10
0.0
 20
0.0
 11
12.0
 21
9.0
 12
0.0
 22
0.0
 32
0.0
 14
0.0
 24
0.0
 34
0.0
 15
0.0
 25
0.0
 35
0.0
146
0.0
 13
0.0
 23
0.0
 33
0.0
 16
1.0
 26
0.0
 36
0.0
 17
0.0
 27
1.0
 37
0.0
 76
     0
330
2
331
1A
  0
MATERIAL
  5
E2
102
{ACAD_XDICTIONARY
360
E3
102
}
102
{ACAD_REACTORS
330
D9
102
}
330
D9
100
AcDbMaterial
  1
ByBlock
 72
     0
 43
0.0208333333333333
 43
0.0
 43
0.0
 43
0.0
 43
0.0
 43
0.0208333333333333
 43
0.0
 43
0.0
 43
0.0
 43
0.0
 43
1.0
 43
0.0
 43
0.0
 43
0.0
 43
0.0
 43
1.0
 77
     0
 47
0.0208333333333333
 47
0.0
 47
0.0
 47
0.0
 47
0.0
 47
0.0208333333333333
 47
0.0
 47
0.0
 47
0.0
 47
0.0
 47
1.0
 47
0.0
 47
0.0
 47
0.0
 47
0.0
 47
1.0
171
     0
 49
0.0208333333333333
 49
0.0
 49
0.0
 49
0.0
 49
0.0
 49
0.0208333333333333
 49
0.0
 49
0.0
 49
0.0
 49
0.0
 49
1.0
 49
0.0
 49
0.0
 49
0.0
 49
0.0
 49
1.0
175
     0
142
0.0208333333333333
142
0.0
142
0.0
142
0.0
142
0.0
142
0.0208333333333333
142
0.0
142
0.0
142
0.0
142
0.0
142
1.0
142
0.0
142
0.0
142
0.0
142
0.0
142
1.0
179
     0
144
0.0208333333333333
144
0.0
144
0.0
144
0.0
144
0.0
144
0.0208333333333333
144
0.0
144
0.0
144
0.0
144
0.0
144
1.0
144
0.0
144
0.0
144
0.0
144
0.0
144
1.0
147
0.0208333333333333
147
0.0
147
0.0
147
0.0
147
0.0
147
0.0208333333333333
147
0.0
147
0.0
147
0.0
147
0.0
147
1.0
147
0.0
147
0.0
147
0.0
147
0.0
147
1.0
  0
MATERIAL
  5
DA
102
{ACAD_XDICTIONARY
360
DB
102
}
102
{ACAD_REACTORS
330
D9
102
}
330
D9
100
AcDbMaterial
  1
ByLayer
 72
     0
 43
0.0208333333333333
 43
0.0
 43
0.0
 43
0.0
 43
0.0
 43
0.0208333333333333
 43
0.0
 43
0.0
 43
0.0
 43
0.0
 43
1.0
 43
0.0
 43
0.0
 43
0.0
 43
0.0
 43
1.0
 77
     0
 47
0.0208333333333333
 47
0.0
 47
0.0
 47
0.0
 47
0.0
 47
0.0208333333333333
 47
0.0
 47
0.0
 47
0.0
 47
0.0
 47
1.0
 47
0.0
 47
0.0
 47
0.0
 47
0.0
 47
1.0
171
     0
 49
0.0208333333333333
 49
0.0
 49
0.0
 49
0.0
 49
0.0
 49
0.0208333333333333
 49
0.0
 49
0.0
 49
0.0
 49
0.0
 49
1.0
 49
0.0
 49
0.0
 49
0.0
 49
0.0
 49
1.0
175
     0
142
0.0208333333333333
142
0.0
142
0.0
142
0.0
142
0.0
142
0.0208333333333333
142
0.0
142
0.0
142
0.0
142
0.0
142
1.0
142
0.0
142
0.0
142
0.0
142
0.0
142
1.0
179
     0
144
0.0208333333333333
144
0.0
144
0.0
144
0.0
144
0.0
144
0.0208333333333333
144
0.0
144
0.0
144
0.0
144
0.0
144
1.0
144
0.0
144
0.0
144
0.0
144
0.0
144
1.0
147
0.0208333333333333
147
0.0
147
0.0
147
0.0
147
0.0
147
0.0208333333333333
147
0.0
147
0.0
147
0.0
147
0.0
147
1.0
147
0.0
147
0.0
147
0.0
147
0.0
147
1.0
  0
MATERIAL
  5
EA
102
{ACAD_XDICTIONARY
360
EB
102
}
102
{ACAD_REACTORS
330
D9
102
}
330
D9
100
AcDbMaterial
  1
Global
 72
     0
 43
0.0208333333333333
 43
0.0
 43
0.0
 43
0.0
 43
0.0
 43
0.0208333333333333
 43
0.0
 43
0.0
 43
0.0
 43
0.0
 43
1.0
 43
0.0
 43
0.0
 43
0.0
 43
0.0
 43
1.0
 77
     0
 47
0.0208333333333333
 47
0.0
 47
0.0
 47
0.0
 47
0.0
 47
0.0208333333333333
 47
0.0
 47
0.0
 47
0.0
 47
0.0
 47
1.0
 47
0.0
 47
0.0
 47
0.0
 47
0.0
 47
1.0
171
     0
 49
0.0208333333333333
 49
0.0
 49
0.0
 49
0.0
 49
0.0
 49
0.0208333333333333
 49
0.0
 49
0.0
 49
0.0
 49
0.0
 49
1.0
 49
0.0
 49
0.0
 49
0.0
 49
0.0
 49
1.0
175
     0
142
0.0208333333333333
142
0.0
142
0.0
142
0.0
142
0.0
142
0.0208333333333333
142
0.0
142
0.0
142
0.0
142
0.0
142
1.0
142
0.0
142
0.0
142
0.0
142
0.0
142
1.0
179
     0
144
0.0208333333333333
144
0.0
144
0.0
144
0.0
144
0.0
144
0.0208333333333333
144
0.0
144
0.0
144
0.0
144
0.0
144
1.0
144
0.0
144
0.0
144
0.0
144
0.0
144
1.0
147
0.0208333333333333
147
0.0
147
0.0
147
0.0
147
0.0
147
0.0208333333333333
147
0.0
147
0.0
147
0.0
147
0.0
147
1.0
147
0.0
147
0.0
147
0.0
147
0.0
147
1.0
  0
MLEADERSTYLE
  5
121
102
{ACAD_REACTORS
330
120
102
}
330
120
100
AcDbMLeaderStyle
179
     2
170
     2
171
     1
172
     0
 90
        2
 40
0.0
 41
0.0
173
     1
 91
-1056964608
340
15
 92
       -2
290
     1
 42
0.09
291
     1
 43
0.36
  3
Standard
 44
0.18
300

342
12
174
     1
178
     6
175
     1
176
     0
 93
-1056964608
 45
0.18
292
     0
297
     0
 46
0.18
 94
-1056964608
 47
1.0
 49
1.0
140
1.0
293
     1
141
0.0
294
     1
177
     0
142
1.0
295
     1
296
     0
143
0.125
271
     0
272
     9
273
     9
298
     1
  0
MLINESTYLE
  5
22
102
{ACAD_REACTORS
330
20
102
}
330
20
100
AcDbMlineStyle
  2
STANDARD
 70
     0
  3

 62
   256
 51
90.0
 52
90.0
 71
     2
 49
0.5
 62
   256
  6
BYLAYER
 49
-0.5
 62
   256
  6
BYLAYER
  0
ACDBPLACEHOLDER
  5
5
102
{ACAD_REACTORS
330
6
102
}
330
6
  0
SCALE
  5
10F
102
{ACAD_REACTORS
330
10E
102
}
330
10E
100
AcDbScale
 70
     0
300
1:1
140
1.0
141
1.0
290
     1
  0
SCALE
  5
110
102
{ACAD_REACTORS
330
10E
102
}
330
10E
100
AcDbScale
 70
     0
300
1/128" = 1'-0"
140
0.0078125
141
12.0
290
     0
  0
SCALE
  5
111
102
{ACAD_REACTORS
330
10E
102
}
330
10E
100
AcDbScale
 70
     0
300
1/64" = 1'-0"
140
0.015625
141
12.0
290
     0
  0
SCALE
  5
112
102
{ACAD_REACTORS
330
10E
102
}
330
10E
100
AcDbScale
 70
     0
300
1/32" = 1'-0"
140
0.03125
141
12.0
290
     0
  0
SCALE
  5
113
102
{ACAD_REACTORS
330
10E
102
}
330
10E
100
AcDbScale
 70
     0
300
1/16" = 1'-0"
140
0.0625
141
12.0
290
     0
  0
SCALE
  5
114
102
{ACAD_REACTORS
330
10E
102
}
330
10E
100
AcDbScale
 70
     0
300
3/32" = 1'-0"
140
0.09375
141
12.0
290
     0
  0
SCALE
  5
115
102
{ACAD_REACTORS
330
10E
102
}
330
10E
100
AcDbScale
 70
     0
300
1/8" = 1'-0"
140
0.125
141
12.0
290
     0
  0
SCALE
  5
116
102
{ACAD_REACTORS
330
10E
102
}
330
10E
100
AcDbScale
 70
     0
300
3/16" = 1'-0"
140
0.1875
141
12.0
290
     0
  0
SCALE
  5
117
102
{ACAD_REACTORS
330
10E
102
}
330
10E
100
AcDbScale
 70
     0
300
1/4" = 1'-0"
140
0.25
141
12.0
290
     0
  0
SCALE
  5
118
102
{ACAD_REACTORS
330
10E
102
}
330
10E
100
AcDbScale
 70
     0
300
3/8" = 1'-0"
140
0.375
141
12.0
290
     0
  0
SCALE
  5
119
102
{ACAD_REACTORS
330
10E
102
}
330
10E
100
AcDbScale
 70
     0
300
1/2" = 1'-0"
140
0.5
141
12.0
290
     0
  0
SCALE
  5
11A
102
{ACAD_REACTORS
330
10E
102
}
330
10E
100
AcDbScale
 70
     0
300
3/4" = 1'-0"
140
0.75
141
12.0
290
     0
  0
SCALE
  5
11B
102
{ACAD_REACTORS
330
10E
102
}
330
10E
100
AcDbScale
 70
     0
300
1" = 1'-0"
140
1.0
141
12.0
290
     0
  0
SCALE
  5
11C
102
{ACAD_REACTORS
330
10E
102
}
330
10E
100
AcDbScale
 70
     0
300
1-1/2" = 1'-0"
140
1.5
141
12.0
290
     0
  0
SCALE
  5
11D
102
{ACAD_REACTORS
330
10E
102
}
330
10E
100
AcDbScale
 70
     0
300
3" = 1'-0"
140
3.0
141
12.0
290
     0
  0
SCALE
  5
11E
102
{ACAD_REACTORS
330
10E
102
}
330
10E
100
AcDbScale
 70
     0
300
6" = 1'-0"
140
6.0
141
12.0
290
     0
  0
SCALE
  5
11F
102
{ACAD_REACTORS
330
10E
102
}
330
10E
100
AcDbScale
 70
     0
300
1'-0" = 1'-0"
140
12.0
141
12.0
290
     0
  0
ACDBSECTIONVIEWSTYLE
  5
123
102
{ACAD_REACTORS
330
122
102
}
330
122
100
AcDbModelDocViewStyle
 70
     0
  3
Imperial24
290
     1
300
Imperial24
 90
        0
100
AcDbSectionViewStyle
 70
     0
 71
     0
 90
       78
 71
     1
340
12
 62
   256
 40
0.24
340
0
340
0
 62
   256
 40
0.24
300
I, O, Q, S, X, Z
 40
0.48
 90
        3
 40
0.18
 90
        1
 71
     2
340
8
 90
       25
 62
   256
340
8
 90
       50
 62
   256
 40
0.24
 40
0.0
 40
0.24
 71
     3
340
12
 62
   256
 40
0.24
 90
        1
 40
0.75
 90
        1
300
%<\AcVar ViewType \f "%tc1">% %<\AcVar ViewSectionStartId>%-%<\AcVar ViewSectionEndId>%\PSCALE %<\AcVar ViewScale \f "%sn">%
 71
     4
 62
   256
 62
   257
300
ANSI31
 40
1.0
 90
        0
290
     0
290
     0
 90
        6
 40
0.0
 40
1.570796326794896
 40
0.2617993877991494
 40
1.308996938995747
 40
-0.2617993877991494
 40
1.832595714594046
  0
TABLESTYLE
  5
10D
102
{ACAD_XDICTIONARY
360
182
102
}
102
{ACAD_REACTORS
330
10C
102
}
330
10C
100
AcDbTableStyle
280
     0
  3
Standard
 70
     0
 71
     0
 40
0.06
 41
0.06
280
     0
281
     0
  7
STANDARD
140
0.18
170
     2
 62
     0
 63
     7
283
     0
 90
      512
 91
        0
  1

274
    -2
284
     1
 64
     0
275
    -2
285
     1
 65
     0
276
    -2
286
     1
 66
     0
277
    -2
287
     1
 67
     0
278
    -2
288
     1
 68
     0
279
    -2
289
     1
 69
     0
  7
STANDARD
140
0.25
170
     5
 62
     0
 63
     7
283
     0
 90
      512
 91
        0
  1

274
    -2
284
     1
 64
     0
275
    -2
285
     1
 65
     0
276
    -2
286
     1
 66
     0
277
    -2
287
     1
 67
     0
278
    -2
288
     1
 68
     0
279
    -2
289
     1
 69
     0
  7
STANDARD
140
0.18
170
     5
 62
     0
 63
     7
283
     0
 90
      512
 91
        0
  1

274
    -2
284
     1
 64
     0
275
    -2
285
     1
 65
     0
276
    -2
286
     1
 66
     0
277
    -2
287
     1
 67
     0
278
    -2
288
     1
 68
     0
279
    -2
289
     1
 69
     0
  0
VISUALSTYLE
  5
F8
102
{ACAD_REACTORS
330
F2
102
}
330
F2
100
AcDbVisualStyle
  2
2dWireframe
 70
     4
177
     3
291
     0
 70
    58
 90
        0
176
     1
 90
        2
176
     1
 90
        0
176
     1
 90
        0
176
     1
 40
0.6
176
     1
 40
30.0
176
     1
 62
     7
420
 16777215
176
     1
 90
        1
176
     1
 90
        4
176
     1
 62
     7
176
     1
 62
   257
176
     1
 90
        1
176
     1
 90
        1
176
     1
 40
1.0
176
     1
 90
        0
176
     1
 62
   257
176
     1
 40
1.0
176
     1
 90
        1
176
     1
 90
        6
176
     1
 90
        2
176
     1
 62
     7
176
     1
 90
        5
176
     1
 90
        0
176
     1
 90
        0
176
     1
290
     0
176
     1
 90
        1
176
     1
 40
0.0
176
     1
 90
        0
176
     1
290
     1
176
     1
290
     1
176
     1
290
     0
176
     1
290
     0
176
     1
290
     0
176
     1
290
     0
176
     1
290
     0
176
     1
290
     0
176
     1
290
     0
176
     1
 90
       50
176
     1
 40
0.0
176
     1
 40
1.0
176
     1
 90
        0
176
     1
 62
    18
420
        0
176
     1
 90
       50
176
     1
 90
        3
176
     1
 62
     5
420
      255
176
     1
290
     0
176
     1
 90
       50
176
     1
 90
       50
176
     1
 90
       50
176
     1
290
     0
176
     1
 90
       50
176
     1
 62
   256
176
     0
 40
1.0
176
     0
 90
        2
176
     1
  1
strokes_ogs.tif
176
     1
290
     0
176
     1
 40
1.0
176
     1
 40
1.0
176
     1
  0
VISUALSTYLE
  5
F7
102
{ACAD_REACTORS
330
F2
102
}
330
F2
100
AcDbVisualStyle
  2
Basic
 70
     7
177
     3
291
     1
 70
    58
 90
        1
176
     1
 90
        0
176
     1
 90
        1
176
     1
 90
        0
176
     1
 40
0.6
176
     1
 40
30.0
176
     1
 62
     7
420
 16777215
176
     1
 90
        0
176
     1
 90
        4
176
     1
 62
     7
176
     1
 62
   257
176
     1
 90
        1
176
     1
 90
        1
176
     1
 40
1.0
176
     1
 90
        8
176
     1
 62
     7
176
     1
 40
1.0
176
     1
 90
        1
176
     1
 90
        6
176
     1
 90
        2
176
     1
 62
     7
176
     1
 90
        5
176
     1
 90
        0
176
     1
 90
        0
176
     1
290
     0
176
     1
 90
        1
176
     1
 40
0.0
176
     1
 90
        0
176
     1
290
     0
176
     1
290
     1
176
     1
290
     1
176
     1
290
     0
176
     1
290
     0
176
     1
290
     0
176
     1
290
     0
176
     1
290
     0
176
     1
290
     0
176
     1
 90
       50
176
     1
 40
0.0
176
     1
 40
1.0
176
     1
 90
        0
176
     1
 62
    18
420
        0
176
     1
 90
       50
176
     1
 90
        3
176
     1
 62
     5
420
      255
176
     1
290
     0
176
     1
 90
       50
176
     1
 90
       50
176
     1
 90
       50
176
     1
290
     0
176
     1
 90
       50
176
     1
 62
   256
176
     0
 40
1.0
176
     0
 90
        2
176
     1
  1
strokes_ogs.tif
176
     1
290
     0
176
     1
 40
1.0
176
     1
 40
1.0
176
     1
  0
VISUALSTYLE
  5
FE
102
{ACAD_REACTORS
330
F2
102
}
330
F2
100
AcDbVisualStyle
  2
Brighten
 70
    12
177
     3
291
     1
 70
    58
 90
        2
176
     1
 90
        2
176
     1
 90
        0
176
     1
 90
        0
176
     1
 40
0.6
176
     1
 40
30.0
176
     1
 62
     7
420
 16777215
176
     1
 90
        1
176
     1
 90
        4
176
     1
 62
     7
176
     1
 62
   257
176
     1
 90
        1
176
     1
 90
        1
176
     1
 40
1.0
176
     1
 90
        8
176
     1
 62
     7
176
     1
 40
1.0
176
     1
 90
        1
176
     1
 90
        6
176
     1
 90
        2
176
     1
 62
     7
176
     1
 90
        5
176
     1
 90
        0
176
     1
 90
        0
176
     1
290
     0
176
     1
 90
        1
176
     1
 40
50.0
176
     1
 90
        0
176
     1
290
     0
176
     1
290
     1
176
     1
290
     1
176
     1
290
     0
176
     1
290
     0
176
     1
290
     0
176
     1
290
     0
176
     1
290
     0
176
     1
290
     0
176
     1
 90
       50
176
     1
 40
0.0
176
     1
 40
1.0
176
     1
 90
        0
176
     1
 62
    18
420
        0
176
     1
 90
       50
176
     1
 90
        3
176
     1
 62
     5
420
      255
176
     1
290
     0
176
     1
 90
       50
176
     1
 90
       50
176
     1
 90
       50
176
     1
290
     0
176
     1
 90
       50
176
     1
 62
   256
176
     0
 40
1.0
176
     0
 90
        2
176
     1
  1
strokes_ogs.tif
176
     1
290
     0
176
     1
 40
1.0
176
     1
 40
1.0
176
     1
  0
VISUALSTYLE
  5
102
102
{ACAD_REACTORS
330
F2
102
}
330
F2
100
AcDbVisualStyle
  2
ColorChange
 70
    16
177
     3
291
     1
 70
    58
 90
        2
176
     1
 90
        2
176
     1
 90
        3
176
     1
 90
        0
176
     1
 40
0.6
176
     1
 40
30.0
176
     1
 62
     8
420
  8421504
176
     1
 90
        1
176
     1
 90
        4
176
     1
 62
     7
176
     1
 62
   257
176
     1
 90
        1
176
     1
 90
        1
176
     1
 40
1.0
176
     1
 90
        8
176
     1
 62
     8
420
  8421504
176
     1
 40
1.0
176
     1
 90
        1
176
     1
 90
        6
176
     1
 90
        2
176
     1
 62
     7
176
     1
 90
        5
176
     1
 90
        0
176
     1
 90
        0
176
     1
290
     0
176
     1
 90
        1
176
     1
 40
0.0
176
     1
 90
        0
176
     1
290
     0
176
     1
290
     1
176
     1
290
     1
176
     1
290
     0
176
     1
290
     0
176
     1
290
     0
176
     1
290
     0
176
     1
290
     0
176
     1
290
     0
176
     1
 90
       50
176
     1
 40
0.0
176
     1
 40
1.0
176
     1
 90
        0
176
     1
 62
    18
420
        0
176
     1
 90
       50
176
     1
 90
        3
176
     1
 62
     5
420
      255
176
     1
290
     0
176
     1
 90
       50
176
     1
 90
       50
176
     1
 90
       50
176
     1
290
     0
176
     1
 90
       50
176
     1
 62
   256
176
     0
 40
1.0
176
     0
 90
        2
176
     1
  1
strokes_ogs.tif
176
     1
290
     0
176
     1
 40
1.0
176
     1
 40
1.0
176
     1
  0
VISUALSTYLE
  5
FB
102
{ACAD_REACTORS
330
F2
102
}
330
F2
100
AcDbVisualStyle
  2
Conceptual
 70
     9
177
     3
291
     0
 70
    58
 90
        3
176
     1
 90
        2
176
     1
 90
        0
176
     1
 90
        0
176
     1
 40
0.6
176
     1
 40
30.0
176
     1
 62
     7
420
 16777215
176
     1
 90
        2
176
     1
 90
        2
176
     1
 62
     7
176
     1
 62
   257
176
     1
 90
        1
176
     1
 90
        1
176
     1
 40
179.0
176
     1
 90
        8
176
     1
 62
     7
176
     1
 40
1.0
176
     1
 90
        1
176
     1
 90
        6
176
     1
 90
        2
176
     1
 62
     7
176
     1
 90
        3
176
     1
 90
        0
176
     1
 90
        0
176
     1
290
     0
176
     1
 90
        1
176
     1
 40
0.0
176
     1
 90
        0
176
     1
290
     0
176
     1
290
     1
176
     1
290
     1
176
     1
290
     0
176
     1
290
     0
176
     1
290
     0
176
     1
290
     0
176
     1
290
     0
176
     1
290
     0
176
     1
 90
       50
176
     1
 40
0.0
176
     1
 40
1.0
176
     1
 90
        0
176
     1
 62
    18
420
        0
176
     1
 90
       50
176
     1
 90
        3
176
     1
 62
     5
420
      255
176
     1
290
     0
176
     1
 90
       50
176
     1
 90
       50
176
     1
 90
       50
176
     1
290
     0
176
     1
 90
       50
176
     1
 62
   256
176
     0
 40
1.0
176
     0
 90
        2
176
     1
  1
strokes_ogs.tif
176
     1
290
     0
176
     1
 40
1.0
176
     1
 40
1.0
176
     1
  0
VISUALSTYLE
  5
FD
102
{ACAD_REACTORS
330
F2
102
}
330
F2
100
AcDbVisualStyle
  2
Dim
 70
    11
177
     3
291
     1
 70
    58
 90
        2
176
     1
 90
        2
176
     1
 90
        0
176
     1
 90
        0
176
     1
 40
0.6
176
     1
 40
30.0
176
     1
 62
     7
420
 16777215
176
     1
 90
        1
176
     1
 90
        4
176
     1
 62
     7
176
     1
 62
   257
176
     1
 90
        1
176
     1
 90
        1
176
     1
 40
1.0
176
     1
 90
        8
176
     1
 62
     7
176
     1
 40
1.0
176
     1
 90
        1
176
     1
 90
        6
176
     1
 90
        2
176
     1
 62
     7
176
     1
 90
        5
176
     1
 90
        0
176
     1
 90
        0
176
     1
290
     0
176
     1
 90
        1
176
     1
 40
-50.0
176
     1
 90
        0
176
     1
290
     0
176
     1
290
     1
176
     1
290
     1
176
     1
290
     0
176
     1
290
     0
176
     1
290
     0
176
     1
290
     0
176
     1
290
     0
176
     1
290
     0
176
     1
 90
       50
176
     1
 40
0.0
176
     1
 40
1.0
176
     1
 90
        0
176
     1
 62
    18
420
        0
176
     1
 90
       50
176
     1
 90
        3
176
     1
 62
     5
420
      255
176
     1
290
     0
176
     1
 90
       50
176
     1
 90
       50
176
     1
 90
       50
176
     1
290
     0
176
     1
 90
       50
176
     1
 62
   256
176
     0
 40
1.0
176
     0
 90
        2
176
     1
  1
strokes_ogs.tif
176
     1
290
     0
176
     1
 40
1.0
176
     1
 40
1.0
176
     1
  0
VISUALSTYLE
  5
10A
102
{ACAD_REACTORS
330
F2
102
}
330
F2
100
AcDbVisualStyle
  2
EdgeColorOff
 70
    22
177
     3
291
     1
 70
    58
 90
        2
176
     0
 90
        2
176
     0
 90
        0
176
     0
 90
        0
176
     0
 40
0.6
176
     0
 40
30.0
176
     0
 62
     7
420
 16777215
176
     0
 90
        1
176
     0
 90
        4
176
     0
 62
     7
176
     0
 62
   257
176
     0
 90
        1
176
     0
 90
        1
176
     0
 40
1.0
176
     0
 90
        8
176
     2
 62
     7
176
     0
 40
1.0
176
     0
 90
        1
176
     0
 90
        6
176
     0
 90
        2
176
     0
 62
     7
176
     0
 90
        5
176
     0
 90
        0
176
     0
 90
        0
176
     0
290
     0
176
     0
 90
        1
176
     0
 40
0.0
176
     0
 90
        0
176
     0
290
     0
176
     0
290
     1
176
     0
290
     1
176
     0
290
     0
176
     0
290
     0
176
     0
290
     0
176
     0
290
     0
176
     0
290
     0
176
     0
290
     0
176
     0
 90
       50
176
     0
 40
0.0
176
     0
 40
1.0
176
     0
 90
        0
176
     0
 62
    18
420
        0
176
     0
 90
       50
176
     0
 90
        3
176
     0
 62
     5
420
      255
176
     0
290
     0
176
     0
 90
       50
176
     0
 90
       50
176
     0
 90
       50
176
     0
290
     0
176
     0
 90
       50
176
     0
 62
   256
176
     0
 40
1.0
176
     0
 90
        2
176
     0
  1
strokes_ogs.tif
176
     0
290
     0
176
     0
 40
1.0
176
     0
 40
1.0
176
     0
  0
VISUALSTYLE
  5
101
102
{ACAD_REACTORS
330
F2
102
}
330
F2
100
AcDbVisualStyle
  2
Facepattern
 70
    15
177
     3
291
     1
 70
    58
 90
        2
176
     1
 90
        2
176
     1
 90
        0
176
     1
 90
        0
176
     1
 40
0.6
176
     1
 40
30.0
176
     1
 62
     7
420
 16777215
176
     1
 90
        1
176
     1
 90
        4
176
     1
 62
     7
176
     1
 62
   257
176
     1
 90
        1
176
     1
 90
        1
176
     1
 40
1.0
176
     1
 90
        8
176
     1
 62
     7
176
     1
 40
1.0
176
     1
 90
        1
176
     1
 90
        6
176
     1
 90
        2
176
     1
 62
     7
176
     1
 90
        5
176
     1
 90
        0
176
     1
 90
        0
176
     1
290
     0
176
     1
 90
        1
176
     1
 40
0.0
176
     1
 90
        0
176
     1
290
     0
176
     1
290
     1
176
     1
290
     1
176
     1
290
     0
176
     1
290
     0
176
     1
290
     0
176
     1
290
     0
176
     1
290
     0
176
     1
290
     0
176
     1
 90
       50
176
     1
 40
0.0
176
     1
 40
1.0
176
     1
 90
        0
176
     1
 62
    18
420
        0
176
     1
 90
       50
176
     1
 90
        3
176
     1
 62
     5
420
      255
176
     1
290
     0
176
     1
 90
       50
176
     1
 90
       50
176
     1
 90
       50
176
     1
290
     0
176
     1
 90
       50
176
     1
 62
   256
176
     0
 40
1.0
176
     0
 90
        2
176
     1
  1
strokes_ogs.tif
176
     1
290
     0
176
     1
 40
1.0
176
     1
 40
1.0
176
     1
  0
VISUALSTYLE
  5
F3
102
{ACAD_REACTORS
330
F2
102
}
330
F2
100
AcDbVisualStyle
  2
Flat
 70
     0
177
     3
291
     1
 70
    58
 90
        2
176
     1
 90
        1
176
     1
 90
        1
176
     1
 90
        2
176
     1
 40
0.6
176
     1
 40
30.0
176
     1
 62
     7
420
 16777215
176
     1
 90
        0
176
     1
 90
        0
176
     1
 62
     7
176
     1
 62
   257
176
     1
 90
        1
176
     1
 90
        1
176
     1
 40
1.0
176
     1
 90
        8
176
     1
 62
     7
176
     1
 40
1.0
176
     1
 90
        1
176
     1
 90
        6
176
     1
 90
        2
176
     1
 62
     7
176
     1
 90
        5
176
     1
 90
        0
176
     1
 90
        0
176
     1
290
     0
176
     1
 90
       13
176
     1
 40
0.0
176
     1
 90
        0
176
     1
290
     0
176
     1
290
     1
176
     1
290
     1
176
     1
290
     0
176
     1
290
     0
176
     1
290
     0
176
     1
290
     0
176
     1
290
     0
176
     1
290
     0
176
     1
 90
       50
176
     1
 40
0.0
176
     1
 40
1.0
176
     1
 90
        0
176
     1
 62
    18
420
        0
176
     1
 90
       50
176
     1
 90
        3
176
     1
 62
     5
420
      255
176
     1
290
     0
176
     1
 90
       50
176
     1
 90
       50
176
     1
 90
       50
176
     1
290
     0
176
     1
 90
       50
176
     1
 62
   256
176
     0
 40
1.0
176
     0
 90
        2
176
     1
  1
strokes_ogs.tif
176
     1
290
     0
176
     1
 40
1.0
176
     1
 40
1.0
176
     1
  0
VISUALSTYLE
  5
F4
102
{ACAD_REACTORS
330
F2
102
}
330
F2
100
AcDbVisualStyle
  2
FlatWithEdges
 70
     1
177
     3
291
     1
 70
    58
 90
        2
176
     1
 90
        1
176
     1
 90
        1
176
     1
 90
        2
176
     1
 40
0.6
176
     1
 40
30.0
176
     1
 62
     7
420
 16777215
176
     1
 90
        1
176
     1
 90
        0
176
     1
 62
     7
176
     1
 62
   257
176
     1
 90
        1
176
     1
 90
        1
176
     1
 40
1.0
176
     1
 90
        0
176
     1
 62
   257
176
     1
 40
1.0
176
     1
 90
        1
176
     1
 90
        6
176
     1
 90
        2
176
     1
 62
     7
176
     1
 90
        5
176
     1
 90
        0
176
     1
 90
        0
176
     1
290
     0
176
     1
 90
       13
176
     1
 40
0.0
176
     1
 90
        0
176
     1
290
     0
176
     1
290
     1
176
     1
290
     1
176
     1
290
     0
176
     1
290
     0
176
     1
290
     0
176
     1
290
     0
176
     1
290
     0
176
     1
290
     0
176
     1
 90
       50
176
     1
 40
0.0
176
     1
 40
1.0
176
     1
 90
        0
176
     1
 62
    18
420
        0
176
     1
 90
       50
176
     1
 90
        3
176
     1
 62
     5
420
      255
176
     1
290
     0
176
     1
 90
       50
176
     1
 90
       50
176
     1
 90
       50
176
     1
290
     0
176
     1
 90
       50
176
     1
 62
   256
176
     0
 40
1.0
176
     0
 90
        2
176
     1
  1
strokes_ogs.tif
176
     1
290
     0
176
     1
 40
1.0
176
     1
 40
1.0
176
     1
  0
VISUALSTYLE
  5
F5
102
{ACAD_REACTORS
330
F2
102
}
330
F2
100
AcDbVisualStyle
  2
Gouraud
 70
     2
177
     3
291
     1
 70
    58
 90
        2
176
     1
 90
        2
176
     1
 90
        1
176
     1
 90
        2
176
     1
 40
0.6
176
     1
 40
30.0
176
     1
 62
     7
420
 16777215
176
     1
 90
        0
176
     1
 90
        0
176
     1
 62
     7
176
     1
 62
   257
176
     1
 90
        1
176
     1
 90
        1
176
     1
 40
1.0
176
     1
 90
        0
176
     1
 62
     7
176
     1
 40
1.0
176
     1
 90
        1
176
     1
 90
        6
176
     1
 90
        2
176
     1
 62
     7
176
     1
 90
        5
176
     1
 90
        0
176
     1
 90
        0
176
     1
290
     0
176
     1
 90
       13
176
     1
 40
0.0
176
     1
 90
        0
176
     1
290
     0
176
     1
290
     1
176
     1
290
     1
176
     1
290
     0
176
     1
290
     0
176
     1
290
     0
176
     1
290
     0
176
     1
290
     0
176
     1
290
     0
176
     1
 90
       50
176
     1
 40
0.0
176
     1
 40
1.0
176
     1
 90
        0
176
     1
 62
    18
420
        0
176
     1
 90
       50
176
     1
 90
        3
176
     1
 62
     5
420
      255
176
     1
290
     0
176
     1
 90
       50
176
     1
 90
       50
176
     1
 90
       50
176
     1
290
     0
176
     1
 90
       50
176
     1
 62
   256
176
     0
 40
1.0
176
     0
 90
        2
176
     1
  1
strokes_ogs.tif
176
     1
290
     0
176
     1
 40
1.0
176
     1
 40
1.0
176
     1
  0
VISUALSTYLE
  5
F6
102
{ACAD_REACTORS
330
F2
102
}
330
F2
100
AcDbVisualStyle
  2
GouraudWithEdges
 70
     3
177
     3
291
     1
 70
    58
 90
        2
176
     1
 90
        2
176
     1
 90
        1
176
     1
 90
        2
176
     1
 40
0.6
176
     1
 40
30.0
176
     1
 62
     7
420
 16777215
176
     1
 90
        1
176
     1
 90
        0
176
     1
 62
     7
176
     1
 62
   257
176
     1
 90
        1
176
     1
 90
        1
176
     1
 40
1.0
176
     1
 90
        0
176
     1
 62
   257
176
     1
 40
1.0
176
     1
 90
        1
176
     1
 90
        6
176
     1
 90
        2
176
     1
 62
     7
176
     1
 90
        5
176
     1
 90
        0
176
     1
 90
        0
176
     1
290
     0
176
     1
 90
       13
176
     1
 40
0.0
176
     1
 90
        0
176
     1
290
     0
176
     1
290
     1
176
     1
290
     1
176
     1
290
     0
176
     1
290
     0
176
     1
290
     0
176
     1
290
     0
176
     1
290
     0
176
     1
290
     0
176
     1
 90
       50
176
     1
 40
0.0
176
     1
 40
1.0
176
     1
 90
        0
176
     1
 62
    18
420
        0
176
     1
 90
       50
176
     1
 90
        3
176
     1
 62
     5
420
      255
176
     1
290
     0
176
     1
 90
       50
176
     1
 90
       50
176
     1
 90
       50
176
     1
290
     0
176
     1
 90
       50
176
     1
 62
   256
176
     0
 40
1.0
176
     0
 90
        2
176
     1
  1
strokes_ogs.tif
176
     1
290
     0
176
     1
 40
1.0
176
     1
 40
1.0
176
     1
  0
VISUALSTYLE
  5
FA
102
{ACAD_REACTORS
330
F2
102
}
330
F2
100
AcDbVisualStyle
  2
Hidden
 70
     6
177
     3
291
     0
 70
    58
 90
        1
176
     1
 90
        2
176
     1
 90
        2
176
     1
 90
        0
176
     1
 40
0.6
176
     1
 40
30.0
176
     1
 62
     7
420
 16777215
176
     1
 90
        2
176
     1
 90
        2
176
     1
 62
     7
176
     1
 62
   257
176
     1
 90
        2
176
     1
 90
        1
176
     1
 40
40.0
176
     1
 90
        0
176
     1
 62
   257
176
     1
 40
1.0
176
     1
 90
        1
176
     1
 90
        6
176
     1
 90
        2
176
     1
 62
     7
176
     1
 90
        3
176
     1
 90
        0
176
     1
 90
        0
176
     1
290
     0
176
     1
 90
        1
176
     1
 40
0.0
176
     1
 90
        0
176
     1
290
     0
176
     1
290
     1
176
     1
290
     1
176
     1
290
     0
176
     1
290
     0
176
     1
290
     0
176
     1
290
     0
176
     1
290
     0
176
     1
290
     0
176
     1
 90
       50
176
     1
 40
0.0
176
     1
 40
1.0
176
     1
 90
        0
176
     1
 62
    18
420
        0
176
     1
 90
       50
176
     1
 90
        3
176
     1
 62
     5
420
      255
176
     1
290
     0
176
     1
 90
       50
176
     1
 90
       50
176
     1
 90
       50
176
     1
290
     0
176
     1
 90
       50
176
     1
 62
   256
176
     0
 40
1.0
176
     0
 90
        2
176
     1
  1
strokes_ogs.tif
176
     1
290
     0
176
     1
 40
1.0
176
     1
 40
1.0
176
     1
  0
VISUALSTYLE
  5
108
102
{ACAD_REACTORS
330
F2
102
}
330
F2
100
AcDbVisualStyle
  2
JitterOff
 70
    20
177
     3
291
     1
 70
    58
 90
        2
176
     0
 90
        2
176
     0
 90
        0
176
     0
 90
        0
176
     0
 40
0.6
176
     0
 40
30.0
176
     0
 62
     7
420
 16777215
176
     0
 90
        1
176
     0
 90
        4
176
     0
 62
     7
176
     0
 62
   257
176
     0
 90
        1
176
     0
 90
        1
176
     0
 40
1.0
176
     0
 90
       10
176
     2
 62
     7
176
     0
 40
1.0
176
     0
 90
        1
176
     0
 90
        6
176
     0
 90
        2
176
     0
 62
     7
176
     0
 90
        5
176
     0
 90
        0
176
     0
 90
        0
176
     0
290
     0
176
     0
 90
        1
176
     0
 40
0.0
176
     0
 90
        0
176
     0
290
     0
176
     0
290
     1
176
     0
290
     1
176
     0
290
     0
176
     0
290
     0
176
     0
290
     0
176
     0
290
     0
176
     0
290
     0
176
     0
290
     0
176
     0
 90
       50
176
     0
 40
0.0
176
     0
 40
1.0
176
     0
 90
        0
176
     0
 62
    18
420
        0
176
     0
 90
       50
176
     0
 90
        3
176
     0
 62
     5
420
      255
176
     0
290
     0
176
     0
 90
       50
176
     0
 90
       50
176
     0
 90
       50
176
     0
290
     0
176
     0
 90
       50
176
     0
 62
   256
176
     0
 40
1.0
176
     0
 90
        2
176
     0
  1
strokes_ogs.tif
176
     0
290
     0
176
     0
 40
1.0
176
     0
 40
1.0
176
     0
  0
VISUALSTYLE
  5
100
102
{ACAD_REACTORS
330
F2
102
}
330
F2
100
AcDbVisualStyle
  2
Linepattern
 70
    14
177
     3
291
     1
 70
    58
 90
        2
176
     1
 90
        2
176
     1
 90
        0
176
     1
 90
        0
176
     1
 40
0.6
176
     1
 40
30.0
176
     1
 62
     7
420
 16777215
176
     1
 90
        1
176
     1
 90
        4
176
     1
 62
     7
176
     1
 62
   257
176
     1
 90
        7
176
     1
 90
        7
176
     1
 40
1.0
176
     1
 90
        8
176
     1
 62
     7
176
     1
 40
1.0
176
     1
 90
        1
176
     1
 90
        6
176
     1
 90
        2
176
     1
 62
     7
176
     1
 90
        5
176
     1
 90
        0
176
     1
 90
        0
176
     1
290
     0
176
     1
 90
        1
176
     1
 40
0.0
176
     1
 90
        0
176
     1
290
     0
176
     1
290
     1
176
     1
290
     1
176
     1
290
     0
176
     1
290
     0
176
     1
290
     0
176
     1
290
     0
176
     1
290
     0
176
     1
290
     0
176
     1
 90
       50
176
     1
 40
0.0
176
     1
 40
1.0
176
     1
 90
        0
176
     1
 62
    18
420
        0
176
     1
 90
       50
176
     1
 90
        3
176
     1
 62
     5
420
      255
176
     1
290
     0
176
     1
 90
       50
176
     1
 90
       50
176
     1
 90
       50
176
     1
290
     0
176
     1
 90
       50
176
     1
 62
   256
176
     0
 40
1.0
176
     0
 90
        2
176
     1
  1
strokes_ogs.tif
176
     1
290
     0
176
     1
 40
1.0
176
     1
 40
1.0
176
     1
  0
VISUALSTYLE
  5
109
102
{ACAD_REACTORS
330
F2
102
}
330
F2
100
AcDbVisualStyle
  2
OverhangOff
 70
    21
177
     3
291
     1
 70
    58
 90
        2
176
     0
 90
        2
176
     0
 90
        0
176
     0
 90
        0
176
     0
 40
0.6
176
     0
 40
30.0
176
     0
 62
     7
420
 16777215
176
     0
 90
        1
176
     0
 90
        4
176
     0
 62
     7
176
     0
 62
   257
176
     0
 90
        1
176
     0
 90
        1
176
     0
 40
1.0
176
     0
 90
        9
176
     2
 62
     7
176
     0
 40
1.0
176
     0
 90
        1
176
     0
 90
        6
176
     0
 90
        2
176
     0
 62
     7
176
     0
 90
        5
176
     0
 90
        0
176
     0
 90
        0
176
     0
290
     0
176
     0
 90
        1
176
     0
 40
0.0
176
     0
 90
        0
176
     0
290
     0
176
     0
290
     1
176
     0
290
     1
176
     0
290
     0
176
     0
290
     0
176
     0
290
     0
176
     0
290
     0
176
     0
290
     0
176
     0
290
     0
176
     0
 90
       50
176
     0
 40
0.0
176
     0
 40
1.0
176
     0
 90
        0
176
     0
 62
    18
420
        0
176
     0
 90
       50
176
     0
 90
        3
176
     0
 62
     5
420
      255
176
     0
290
     0
176
     0
 90
       50
176
     0
 90
       50
176
     0
 90
       50
176
     0
290
     0
176
     0
 90
       50
176
     0
 62
   256
176
     0
 40
1.0
176
     0
 90
        2
176
     0
  1
strokes_ogs.tif
176
     0
290
     0
176
     0
 40
1.0
176
     0
 40
1.0
176
     0
  0
VISUALSTYLE
  5
FC
102
{ACAD_REACTORS
330
F2
102
}
330
F2
100
AcDbVisualStyle
  2
Realistic
 70
     8
177
     3
291
     0
 70
    58
 90
        2
176
     1
 90
        3
176
     1
 90
        0
176
     1
 90
        2
176
     1
 40
0.6
176
     1
 40
30.0
176
     1
 62
     7
420
 16777215
176
     1
 90
        0
176
     1
 90
        0
176
     1
 62
     7
176
     1
 62
   257
176
     1
 90
        1
176
     1
 90
        1
176
     1
 40
1.0
176
     1
 90
        8
176
     1
 62
   257
176
     1
 40
1.0
176
     1
 90
        1
176
     1
 90
        6
176
     1
 90
        2
176
     1
 62
     7
176
     1
 90
        3
176
     1
 90
        0
176
     1
 90
        0
176
     1
290
     0
176
     1
 90
       13
176
     1
 40
0.0
176
     1
 90
        0
176
     1
290
     0
176
     1
290
     1
176
     1
290
     1
176
     1
290
     0
176
     1
290
     0
176
     1
290
     0
176
     1
290
     0
176
     1
290
     0
176
     1
290
     0
176
     1
 90
       50
176
     1
 40
0.0
176
     1
 40
1.0
176
     1
 90
        0
176
     1
 62
    18
420
        0
176
     1
 90
       50
176
     1
 90
        3
176
     1
 62
     5
420
      255
176
     1
290
     0
176
     1
 90
       50
176
     1
 90
       50
176
     1
 90
       50
176
     1
290
     0
176
     1
 90
       50
176
     1
 62
   256
176
     0
 40
1.0
176
     0
 90
        2
176
     1
  1
strokes_ogs.tif
176
     1
290
     0
176
     1
 40
1.0
176
     1
 40
1.0
176
     1
  0
VISUALSTYLE
  5
107
102
{ACAD_REACTORS
330
F2
102
}
330
F2
100
AcDbVisualStyle
  2
Shaded
 70
    27
177
     3
291
     0
 70
    58
 90
        2
176
     1
 90
        2
176
     1
 90
        1
176
     1
 90
        2
176
     1
 40
0.6
176
     1
 40
30.0
176
     1
 62
     7
420
 16777215
176
     1
 90
        0
176
     1
 90
        4
176
     1
 62
     7
176
     1
 62
   257
176
     1
 90
        1
176
     1
 90
        1
176
     1
 40
1.0
176
     1
 90
        8
176
     1
 62
   257
176
     1
 40
1.0
176
     1
 90
        1
176
     1
 90
        6
176
     1
 90
        2
176
     1
 62
     8
420
  7895160
176
     1
 90
        3
176
     1
 90
        0
176
     1
 90
        0
176
     1
290
     0
176
     1
 90
        5
176
     1
 40
0.0
176
     1
 90
        0
176
     1
290
     0
176
     1
290
     1
176
     1
290
     1
176
     1
290
     0
176
     1
290
     0
176
     1
290
     0
176
     1
290
     0
176
     1
290
     0
176
     1
290
     0
176
     1
 90
       50
176
     1
 40
0.0
176
     1
 40
1.0
176
     1
 90
        0
176
     1
 62
    18
420
        0
176
     1
 90
       50
176
     1
 90
        3
176
     1
 62
     5
420
      255
176
     1
290
     0
176
     1
 90
       50
176
     1
 90
       50
176
     1
 90
       50
176
     1
290
     0
176
     1
 90
       50
176
     1
 62
   256
176
     0
 40
1.0
176
     0
 90
        2
176
     1
  1
strokes_ogs.tif
176
     1
290
     0
176
     1
 40
1.0
176
     1
 40
1.0
176
     1
  0
VISUALSTYLE
  5
106
102
{ACAD_REACTORS
330
F2
102
}
330
F2
100
AcDbVisualStyle
  2
Shaded with edges
 70
    26
177
     3
291
     0
 70
    58
 90
        2
176
     1
 90
        2
176
     1
 90
        1
176
     1
 90
        2
176
     1
 40
0.6
176
     1
 40
30.0
176
     1
 62
     7
420
 16777215
176
     1
 90
        1
176
     1
 90
        2
176
     1
 62
     7
176
     1
 62
   257
176
     1
 90
        2
176
     1
 90
        1
176
     1
 40
1.0
176
     1
 90
        8
176
     1
 62
   257
176
     1
 40
1.0
176
     1
 90
        1
176
     1
 90
        6
176
     1
 90
        2
176
     1
 62
     7
176
     1
 90
        3
176
     1
 90
        0
176
     1
 90
        0
176
     1
290
     0
176
     1
 90
        5
176
     1
 40
0.0
176
     1
 90
        0
176
     1
290
     0
176
     1
290
     1
176
     1
290
     1
176
     1
290
     0
176
     1
290
     0
176
     1
290
     0
176
     1
290
     0
176
     1
290
     0
176
     1
290
     0
176
     1
 90
       50
176
     1
 40
0.0
176
     1
 40
1.0
176
     1
 90
        0
176
     1
 62
    18
420
        0
176
     1
 90
       50
176
     1
 90
        3
176
     1
 62
     5
420
      255
176
     1
290
     0
176
     1
 90
       50
176
     1
 90
       50
176
     1
 90
       50
176
     1
290
     0
176
     1
 90
       50
176
     1
 62
   256
176
     0
 40
1.0
176
     0
 90
        2
176
     1
  1
strokes_ogs.tif
176
     1
290
     0
176
     1
 40
1.0
176
     1
 40
1.0
176
     1
  0
VISUALSTYLE
  5
103
102
{ACAD_REACTORS
330
F2
102
}
330
F2
100
AcDbVisualStyle
  2
Shades of Gray
 70
    23
177
     3
291
     0
 70
    58
 90
        2
176
     1
 90
        2
176
     1
 90
        3
176
     1
 90
        0
176
     1
 40
0.6
176
     1
 40
30.0
176
     1
 62
     7
420
 16777215
176
     1
 90
        2
176
     1
 90
        2
176
     1
 62
     7
176
     1
 62
     7
176
     1
 90
        1
176
     1
 90
        1
176
     1
 40
40.0
176
     1
 90
        8
176
     1
 62
     7
176
     1
 40
1.0
176
     1
 90
        1
176
     1
 90
        6
176
     1
 90
        2
176
     1
 62
     7
176
     1
 90
        3
176
     1
 90
        0
176
     1
 90
        0
176
     1
290
     0
176
     1
 90
        1
176
     1
 40
0.0
176
     1
 90
        0
176
     1
290
     0
176
     1
290
     1
176
     1
290
     1
176
     1
290
     0
176
     1
290
     0
176
     1
290
     0
176
     1
290
     0
176
     1
290
     0
176
     1
290
     0
176
     1
 90
       50
176
     1
 40
0.0
176
     1
 40
1.0
176
     1
 90
        0
176
     1
 62
    18
420
        0
176
     1
 90
       50
176
     1
 90
        3
176
     1
 62
     5
420
      255
176
     1
290
     0
176
     1
 90
       50
176
     1
 90
       50
176
     1
 90
       50
176
     1
290
     0
176
     1
 90
       50
176
     1
 62
   256
176
     0
 40
1.0
176
     0
 90
        2
176
     1
  1
strokes_ogs.tif
176
     1
290
     0
176
     1
 40
1.0
176
     1
 40
1.0
176
     1
  0
VISUALSTYLE
  5
104
102
{ACAD_REACTORS
330
F2
102
}
330
F2
100
AcDbVisualStyle
  2
Sketchy
 70
    24
177
     3
291
     0
 70
    58
 90
        1
176
     1
 90
        2
176
     1
 90
        2
176
     1
 90
        0
176
     1
 40
0.6
176
     1
 40
30.0
176
     1
 62
     7
420
 16777215
176
     1
 90
        2
176
     1
 90
        2
176
     1
 62
     7
176
     1
 62
     7
176
     1
 90
        1
176
     1
 90
        1
176
     1
 40
40.0
176
     1
 90
       11
176
     1
 62
     7
176
     1
 40
1.0
176
     1
 90
        1
176
     1
 90
        6
176
     1
 90
        2
176
     1
 62
     7
176
     1
 90
        6
176
     1
 90
        0
176
     1
 90
        0
176
     1
290
     0
176
     1
 90
        1
176
     1
 40
0.0
176
     1
 90
        0
176
     1
290
     0
176
     1
290
     1
176
     1
290
     1
176
     1
290
     0
176
     1
290
     0
176
     1
290
     0
176
     1
290
     0
176
     1
290
     0
176
     1
290
     0
176
     1
 90
       50
176
     1
 40
0.0
176
     1
 40
1.0
176
     1
 90
        0
176
     1
 62
    18
420
        0
176
     1
 90
       50
176
     1
 90
        3
176
     1
 62
     5
420
      255
176
     1
290
     0
176
     1
 90
       50
176
     1
 90
       50
176
     1
 90
       50
176
     1
290
     0
176
     1
 90
       50
176
     1
 62
   256
176
     0
 40
1.0
176
     0
 90
        2
176
     1
  1
strokes_ogs.tif
176
     1
290
     0
176
     1
 40
1.0
176
     1
 40
1.0
176
     1
  0
VISUALSTYLE
  5
FF
102
{ACAD_REACTORS
330
F2
102
}
330
F2
100
AcDbVisualStyle
  2
Thicken
 70
    13
177
     3
291
     1
 70
    58
 90
        2
176
     1
 90
        2
176
     1
 90
        0
176
     1
 90
        0
176
     1
 40
0.6
176
     1
 40
30.0
176
     1
 62
     7
420
 16777215
176
     1
 90
        1
176
     1
 90
        4
176
     1
 62
     7
176
     1
 62
   257
176
     1
 90
        1
176
     1
 90
        1
176
     1
 40
1.0
176
     1
 90
       12
176
     1
 62
     7
176
     1
 40
1.0
176
     1
 90
        1
176
     1
 90
        6
176
     1
 90
        2
176
     1
 62
     7
176
     1
 90
        5
176
     1
 90
        0
176
     1
 90
        0
176
     1
290
     0
176
     1
 90
        1
176
     1
 40
0.0
176
     1
 90
        0
176
     1
290
     0
176
     1
290
     1
176
     1
290
     1
176
     1
290
     0
176
     1
290
     0
176
     1
290
     0
176
     1
290
     0
176
     1
290
     0
176
     1
290
     0
176
     1
 90
       50
176
     1
 40
0.0
176
     1
 40
1.0
176
     1
 90
        0
176
     1
 62
    18
420
        0
176
     1
 90
       50
176
     1
 90
        3
176
     1
 62
     5
420
      255
176
     1
290
     0
176
     1
 90
       50
176
     1
 90
       50
176
     1
 90
       50
176
     1
290
     0
176
     1
 90
       50
176
     1
 62
   256
176
     0
 40
1.0
176
     0
 90
        2
176
     1
  1
strokes_ogs.tif
176
     1
290
     0
176
     1
 40
1.0
176
     1
 40
1.0
176
     1
  0
VISUALSTYLE
  5
F9
102
{ACAD_REACTORS
330
F2
102
}
330
F2
100
AcDbVisualStyle
  2
Wireframe
 70
     5
177
     3
291
     0
 70
    58
 90
        0
176
     1
 90
        2
176
     1
 90
        0
176
     1
 90
        0
176
     1
 40
0.6
176
     1
 40
30.0
176
     1
 62
     7
420
 16777215
176
     1
 90
        1
176
     1
 90
        4
176
     1
 62
     7
176
     1
 62
   257
176
     1
 90
        1
176
     1
 90
        1
176
     1
 40
1.0
176
     1
 90
        0
176
     1
 62
   257
176
     1
 40
1.0
176
     1
 90
        1
176
     1
 90
        6
176
     1
 90
        2
176
     1
 62
     7
176
     1
 90
        3
176
     1
 90
        0
176
     1
 90
        0
176
     1
290
     0
176
     1
 90
        1
176
     1
 40
0.0
176
     1
 90
        0
176
     1
290
     0
176
     1
290
     1
176
     1
290
     1
176
     1
290
     0
176
     1
290
     0
176
     1
290
     0
176
     1
290
     0
176
     1
290
     0
176
     1
290
     0
176
     1
 90
       50
176
     1
 40
0.0
176
     1
 40
1.0
176
     1
 90
        0
176
     1
 62
    18
420
        0
176
     1
 90
       50
176
     1
 90
        3
176
     1
 62
     5
420
      255
176
     1
290
     0
176
     1
 90
       50
176
     1
 90
       50
176
     1
 90
       50
176
     1
290
     0
176
     1
 90
       50
176
     1
 62
   256
176
     0
 40
1.0
176
     0
 90
        2
176
     1
  1
strokes_ogs.tif
176
     1
290
     0
176
     1
 40
1.0
176
     1
 40
1.0
176
     1
  0
VISUALSTYLE
  5
105
102
{ACAD_REACTORS
330
F2
102
}
330
F2
100
AcDbVisualStyle
  2
X-Ray
 70
    25
177
     3
291
     0
 70
    58
 90
        2
176
     1
 90
        2
176
     1
 90
        1
176
     1
 90
        1
176
     1
 40
0.5
176
     1
 40
30.0
176
     1
 62
     7
420
 16777215
176
     1
 90
        1
176
     1
 90
        0
176
     1
 62
     7
176
     1
 62
   257
176
     1
 90
        1
176
     1
 90
        1
176
     1
 40
1.0
176
     1
 90
        8
176
     1
 62
     7
176
     1
 40
1.0
176
     1
 90
        1
176
     1
 90
        6
176
     1
 90
        2
176
     1
 62
     7
176
     1
 90
        3
176
     1
 90
        0
176
     1
 90
        0
176
     1
290
     0
176
     1
 90
       13
176
     1
 40
0.0
176
     1
 90
        0
176
     1
290
     0
176
     1
290
     1
176
     1
290
     1
176
     1
290
     0
176
     1
290
     0
176
     1
290
     0
176
     1
290
     0
176
     1
290
     0
176
     1
290
     0
176
     1
 90
       50
176
     1
 40
0.0
176
     1
 40
1.0
176
     1
 90
        0
176
     1
 62
    18
420
        0
176
     1
 90
       50
176
     1
 90
        3
176
     1
 62
     5
420
      255
176
     1
290
     0
176
     1
 90
       50
176
     1
 90
       50
176
     1
 90
       50
176
     1
290
     0
176
     1
 90
       50
176
     1
 62
   256
176
     0
 40
1.0
176
     0
 90
        2
176
     1
  1
strokes_ogs.tif
176
     1
290
     0
176
     1
 40
1.0
176
     1
 40
1.0
176
     1
  0
DICTIONARYVAR
  5
17E
102
{ACAD_REACTORS
330
178
102
}
330
178
100
DictionaryVariables
280
     0
  1
1:1
  0
DICTIONARYVAR
  5
17A
102
{ACAD_REACTORS
330
178
102
}
330
178
100
DictionaryVariables
280
     0
  1
STANDARD
  0
DICTIONARYVAR
  5
179
102
{ACAD_REACTORS
330
178
102
}
330
178
100
DictionaryVariables
280
     0
  1
STANDARD
  0
DICTIONARYVAR
  5
17B
102
{ACAD_REACTORS
330
178
102
}
330
178
100
DictionaryVariables
280
     0
  1
Imperial24
  0
DICTIONARYVAR
  5
17C
102
{ACAD_REACTORS
330
178
102
}
330
178
100
DictionaryVariables
280
     0
  1
Imperial24
  0
DICTIONARYVAR
  5
180
102
{ACAD_REACTORS
330
178
102
}
330
178
100
DictionaryVariables
280
     0
  1
1
  0
DICTIONARYVAR
  5
181
102
{ACAD_REACTORS
330
178
102
}
330
178
100
DictionaryVariables
280
     0
  1
15
  0
DICTIONARYVAR
  5
17F
102
{ACAD_REACTORS
330
178
102
}
330
178
100
DictionaryVariables
280
     0
  1
0
  0
DICTIONARYVAR
  5
17D
102
{ACAD_REACTORS
330
178
102
}
330
178
100
DictionaryVariables
280
     0
  1
0
  0
DICTIONARY
  5
146
102
{ACAD_REACTORS
330
145
102
}
330
145
100
AcDbDictionary
281
     1
  3
*A1
350
147
  0
DICTIONARY
  5
14B
102
{ACAD_REACTORS
330
14A
102
}
330
14A
100
AcDbDictionary
281
     1
  3
*A1
350
14C
  0
DICTIONARY
  5
E3
330
E2
100
AcDbDictionary
280
     1
281
     1
  3
BUMPTILE
360
E5
  3
DIFFUSETILE
360
E4
  3
OPACITYTILE
360
E8
  3
REFLECTIONTILE
360
E7
  3
REFRACTIONTILE
360
E9
  3
SPECULARTILE
360
E6
  0
DICTIONARY
  5
DB
330
DA
100
AcDbDictionary
280
     1
281
     1
  3
BUMPTILE
360
DD
  3
DIFFUSETILE
360
DC
  3
OPACITYTILE
360
E0
  3
REFLECTIONTILE
360
DF
  3
REFRACTIONTILE
360
E1
  3
SPECULARTILE
360
DE
  0
DICTIONARY
  5
EB
330
EA
100
AcDbDictionary
280
     1
281
     1
  3
BUMPTILE
360
ED
  3
DIFFUSETILE
360
EC
  3
OPACITYTILE
360
F0
  3
REFLECTIONTILE
360
EF
  3
REFRACTIONTILE
360
F1
  3
SPECULARTILE
360
EE
  0
DICTIONARY
  5
182
330
10D
100
AcDbDictionary
280
     1
281
     1
  3
ACAD_ROUNDTRIP_2008_TABLESTYLE_CELLSTYLEMAP
360
183
  0
ACDB_TEXTOBJECTCONTEXTDATA_CLASS
  5
147
102
{ACAD_REACTORS
330
146
102
}
330
146
100
AcDbObjectContextData
 70
     4
290
     1
100
AcDbAnnotScaleObjectContextData
340
10F
 70
     0
 50
0.0
 10
57.92169952003803
 20
246.3738557881112
 11
0.0
 21
0.0
  0
ACDB_TEXTOBJECTCONTEXTDATA_CLASS
  5
14C
102
{ACAD_REACTORS
330
14B
102
}
330
14B
100
AcDbObjectContextData
 70
     4
290
     1
100
AcDbAnnotScaleObjectContextData
340
10F
 70
     0
 50
0.0
 10
57.92169952003803
 20
239.0919508664408
 11
0.0
 21
0.0
  0
XRECORD
  5
E5
102
{ACAD_REACTORS
330
E3
102
}
330
E3
100
AcDbXrecord
280
     1
270
     1
271
     1
  0
XRECORD
  5
E4
102
{ACAD_REACTORS
330
E3
102
}
330
E3
100
AcDbXrecord
280
     1
270
     1
271
     1
  0
XRECORD
  5
E8
102
{ACAD_REACTORS
330
E3
102
}
330
E3
100
AcDbXrecord
280
     1
270
     1
271
     1
  0
XRECORD
  5
E7
102
{ACAD_REACTORS
330
E3
102
}
330
E3
100
AcDbXrecord
280
     1
270
     1
271
     1
  0
XRECORD
  5
E9
102
{ACAD_REACTORS
330
E3
102
}
330
E3
100
AcDbXrecord
280
     1
270
     1
271
     1
  0
XRECORD
  5
E6
102
{ACAD_REACTORS
330
E3
102
}
330
E3
100
AcDbXrecord
280
     1
270
     1
271
     1
  0
XRECORD
  5
DD
102
{ACAD_REACTORS
330
DB
102
}
330
DB
100
AcDbXrecord
280
     1
270
     1
271
     1
  0
XRECORD
  5
DC
102
{ACAD_REACTORS
330
DB
102
}
330
DB
100
AcDbXrecord
280
     1
270
     1
271
     1
  0
XRECORD
  5
E0
102
{ACAD_REACTORS
330
DB
102
}
330
DB
100
AcDbXrecord
280
     1
270
     1
271
     1
  0
XRECORD
  5
DF
102
{ACAD_REACTORS
330
DB
102
}
330
DB
100
AcDbXrecord
280
     1
270
     1
271
     1
  0
XRECORD
  5
E1
102
{ACAD_REACTORS
330
DB
102
}
330
DB
100
AcDbXrecord
280
     1
270
     1
271
     1
  0
XRECORD
  5
DE
102
{ACAD_REACTORS
330
DB
102
}
330
DB
100
AcDbXrecord
280
     1
270
     1
271
     1
  0
XRECORD
  5
ED
102
{ACAD_REACTORS
330
EB
102
}
330
EB
100
AcDbXrecord
280
     1
270
     1
271
     1
  0
XRECORD
  5
EC
102
{ACAD_REACTORS
330
EB
102
}
330
EB
100
AcDbXrecord
280
     1
270
     1
271
     1
  0
XRECORD
  5
F0
102
{ACAD_REACTORS
330
EB
102
}
330
EB
100
AcDbXrecord
280
     1
270
     1
271
     1
  0
XRECORD
  5
EF
102
{ACAD_REACTORS
330
EB
102
}
330
EB
100
AcDbXrecord
280
     1
270
     1
271
     1
  0
XRECORD
  5
F1
102
{ACAD_REACTORS
330
EB
102
}
330
EB
100
AcDbXrecord
280
     1
270
     1
271
     1
  0
XRECORD
  5
EE
102
{ACAD_REACTORS
330
EB
102
}
330
EB
100
AcDbXrecord
280
     1
270
     1
271
     1
  0
CELLSTYLEMAP
  5
183
102
{ACAD_REACTORS
330
182
102
}
330
182
100
AcDbCellStyleMap
 90
        3
300
CELLSTYLE
  1
TABLEFORMAT_BEGIN
 90
        5
170
     1
 91
        0
 92
    32768
 62
   257
 93
        1
300
CONTENTFORMAT
  1
CONTENTFORMAT_BEGIN
 90
        0
 91
        0
 92
      512
 93
        0
300

 40
0.0
140
1.0
 94
        5
 62
     0
340
12
144
0.25
309
CONTENTFORMAT_END
171
     0
 94
        0
309
TABLEFORMAT_END
  1
CELLSTYLE_BEGIN
 90
        1
 91
        1
300
_TITLE
309
CELLSTYLE_END
300
CELLSTYLE
  1
TABLEFORMAT_BEGIN
 90
        5
170
     1
 91
        0
 92
        0
 62
   257
 93
        1
300
CONTENTFORMAT
  1
CONTENTFORMAT_BEGIN
 90
        0
 91
        0
 92
      512
 93
        0
300

 40
0.0
140
1.0
 94
        5
 62
     0
340
12
144
0.18
309
CONTENTFORMAT_END
171
     0
 94
        0
309
TABLEFORMAT_END
  1
CELLSTYLE_BEGIN
 90
        2
 91
        1
300
_HEADER
309
CELLSTYLE_END
300
CELLSTYLE
  1
TABLEFORMAT_BEGIN
 90
        5
170
     1
 91
        0
 92
        0
 62
   257
 93
        1
300
CONTENTFORMAT
  1
CONTENTFORMAT_BEGIN
 90
        0
 91
        0
 92
      512
 93
        0
300

 40
0.0
140
1.0
 94
        2
 62
     0
340
12
144
0.18
309
CONTENTFORMAT_END
171
     0
 94
        0
309
TABLEFORMAT_END
  1
CELLSTYLE_BEGIN
 90
        3
 91
        2
300
_DATA
309
CELLSTYLE_END
  0
ENDSEC
  0
SECTION
  2
ACDSDATA
 70
     2
 71
     8
  0
ACDSSCHEMA
 90
        0
  1
AcDb_Thumbnail_Schema
  2
AcDbDs::ID
280
    10
 91
        8
  2
Thumbnail_Data
280
    15
 91
        0
101
ACDSRECORD
 95
        0
 90
        1
  2
AcDbDs::TreatedAsObjectData
280
     1
291
     1
101
ACDSRECORD
 95
        0
 90
        2
  2
AcDbDs::Legacy
280
     1
291
     1
101
ACDSRECORD
  1
AcDbDs::ID
 90
        3
  2
AcDs:Indexable
280
     1
291
     1
101
ACDSRECORD
  1
AcDbDs::ID
 90
        4
  2
AcDbDs::HandleAttribute
280
     7
282
     1
  0
ACDSSCHEMA
 90
        1
  1
AcDbDs::TreatedAsObjectDataSchema
  2
AcDbDs::TreatedAsObjectData
280
     1
 91
        0
  0
ACDSSCHEMA
 90
        2
  1
AcDbDs::LegacySchema
  2
AcDbDs::Legacy
280
     1
 91
        0
  0
ACDSSCHEMA
 90
        3
  1
AcDbDs::IndexedPropertySchema
  2
AcDs:Indexable
280
     1
 91
        0
  0
ACDSSCHEMA
 90
        4
  1
AcDbDs::HandleAttributeSchema
  2
AcDbDs::HandleAttribute
280
     7
 91
        1
284
     1
  0
ACDSRECORD
 90
        0
  2
AcDbDs::ID
280
    10
320
A
  2
Thumbnail_Data
280
    15
 94
     1267
310
89504E470D0A1A0A0000000D4948445200000100000000AE0803000000EECD237E00000300504C5445212830FFFFFF2128300000000000000000000000000000000000000000000000000000330000660000990000CC0000FF0033000033330033660033990033CC0033FF0066000066330066660066990066CC0066FF0099
310
000099330099660099990099CC0099FF00CC0000CC3300CC6600CC9900CCCC00CCFF00FF0000FF3300FF6600FF9900FFCC00FFFF3300003300333300663300993300CC3300FF3333003333333333663333993333CC3333FF3366003366333366663366993366CC3366FF3399003399333399663399993399CC3399FF33CC00
310
33CC3333CC6633CC9933CCCC33CCFF33FF0033FF3333FF6633FF9933FFCC33FFFF6600006600336600666600996600CC6600FF6633006633336633666633996633CC6633FF6666006666336666666666996666CC6666FF6699006699336699666699996699CC6699FF66CC0066CC3366CC6666CC9966CCCC66CCFF66FF0066
310
FF3366FF6666FF9966FFCC66FFFF9900009900339900669900999900CC9900FF9933009933339933669933999933CC9933FF9966009966339966669966999966CC9966FF9999009999339999669999999999CC9999FF99CC0099CC3399CC6699CC9999CCCC99CCFF99FF0099FF3399FF6699FF9999FFCC99FFFFCC0000CC00
310
33CC0066CC0099CC00CCCC00FFCC3300CC3333CC3366CC3399CC33CCCC33FFCC6600CC6633CC6666CC6699CC66CCCC66FFCC9900CC9933CC9966CC9999CC99CCCC99FFCCCC00CCCC33CCCC66CCCC99CCCCCCCCCCFFCCFF00CCFF33CCFF66CCFF99CCFFCCCCFFFFFF0000FF0033FF0066FF0099FF00CCFF00FFFF3300FF3333
310
FF3366FF3399FF33CCFF33FFFF6600FF6633FF6666FF6699FF66CCFF66FFFF9900FF9933FF9966FF9999FF99CCFF99FFFFCC00FFCC33FFCC66FFCC99FFCCCCFFCCFFFFFF00FFFF33FFFF66FFFF99FFFFCCFFFFFF0000000D0D0D1A1A1A2828283535354343435050505D5D5D6B6B6B787878868686939393A1A1A1AEAEAEBB
310
BBBBC9C9C9D6D6D6E4E4E4F1F1F1FFFFFF0000000000000000000000000000000000000000000000000000000000002E4550F1000001AE4944415478DAEDDDCD6EC230104561BFFF43CDA6CFD47DA56212934242A542C1F73B0BFE16917CB8198F9D085A0300000000000000000FE0F30F786F012F710802087811011FF743
310
0001A102E26B0001A641020820800002082080801401359029A0557F6ED902D617043805A616B0AD751109A8D3B8CF95FEFB715BFCE74E401FF766D6BB9CFCE6AE01A7910EA31D5F557611EC03CFED03D6694002244002AE340A7109E8FD42450B684341C83B0586B6294640EF932E05F4D32043C02601CBAA2148C08F1A40
310
409880AB4550022420390151D3E0A60F187B619DA0B5406002B25783A1FB01B6C48A007B82130BD8BB329490806AEDF6B5C19A3F01358C7DF3769DF127AF01EB3813EF0FD82D826E929200099080EC4E30FC56D9671C820002082080000208785501BB6D508080834630615374D1102DA0CD9B803AA22760DA1A50E357BD6C
310
01AF1FD4ECB3C0A580962EA00820400D900002B204A4374277AF05A205DC5E0C580EDB10995DC0E30F4100010410F06F026EFD562A0159028E7E3B970002A204FCCA0601044C2EE048010104580B10F0C602D2FF6A0B00000000000000000000000000000078225FB420C18BDB5DCD2A0000000049454E44AE426082
  0
ENDSEC
  0
EOF
