  0
SECTION
  2
HEADER
  9
$ACADVER
  1
AC1015
  9
$ACADMAINTVER
 70
    10
  9
$DWGCODEPAGE
  3
ANSI_1252
  9
$INSBASE
 10
0.0
 20
0.0
 30
0.0
  9
$EXTMIN
 10
437.6573408561102
 20
2.055159988865852
 30
0.0
  9
$EXTMAX
 10
1361.023770336868
 20
1127.900305217309
 30
0.0
  9
$LIMMIN
 10
0.0
 20
0.0
  9
$LIMMAX
 10
12.0
 20
9.0
  9
$ORTHOMODE
 70
     1
  9
$REGENMODE
 70
     1
  9
$FILLMODE
 70
     1
  9
$QTEXTMODE
 70
     0
  9
$MIRRTEXT
 70
     1
  9
$LTSCALE
 40
1.0
  9
$ATTMODE
 70
     1
  9
$TEXTSIZE
 40
0.2
  9
$TRACEWID
 40
0.05
  9
$TEXTSTYLE
  7
Standard
  9
$CLAYER
  8
Defpoints
  9
$CELTYPE
  6
ByLayer
  9
$CECOLOR
 62
   256
  9
$CELTSCALE
 40
1.0
  9
$DISPSILH
 70
     0
  9
$DIMSCALE
 40
2.0
  9
$DIMASZ
 40
2.0
  9
$DIMEXO
 40
4.5
  9
$DIMDLI
 40
0.0
  9
$DIMRND
 40
1.0
  9
$DIMDLE
 40
0.0
  9
$DIMEXE
 40
1.5
  9
$DIMTP
 40
0.0
  9
$DIMTM
 40
0.0
  9
$DIMTXT
 40
1.8
  9
$DIMCEN
 40
0.0
  9
$DIMTSZ
 40
0.0
  9
$DIMTOL
 70
     0
  9
$DIMLIM
 70
     0
  9
$DIMTIH
 70
     0
  9
$DIMTOH
 70
     0
  9
$DIMSE1
 70
     0
  9
$DIMSE2
 70
     0
  9
$DIMTAD
 70
     1
  9
$DIMZIN
 70
    12
  9
$DIMBLK
  1

  9
$DIMASO
 70
     1
  9
$DIMSHO
 70
     1
  9
$DIMPOST
  1

  9
$DIMAPOST
  1

  9
$DIMALT
 70
     0
  9
$DIMALTD
 70
     2
  9
$DIMALTF
 40
25.4
  9
$DIMLFAC
 40
1.0
  9
$DIMTOFL
 70
     0
  9
$DIMTVP
 40
0.0
  9
$DIMTIX
 70
     0
  9
$DIMSOXD
 70
     0
  9
$DIMSAH
 70
     0
  9
$DIMBLK1
  1

  9
$DIMBLK2
  1

  9
$DIMSTYLE
  2
1-2
  9
$DIMCLRD
 70
     0
  9
$DIMCLRE
 70
     0
  9
$DIMCLRT
 70
     0
  9
$DIMTFAC
 40
1.25
  9
$DIMGAP
 40
0.8
  9
$DIMJUST
 70
     0
  9
$DIMSD1
 70
     0
  9
$DIMSD2
 70
     0
  9
$DIMTOLJ
 70
     1
  9
$DIMTZIN
 70
    12
  9
$DIMALTZ
 70
    12
  9
$DIMALTTZ
 70
    12
  9
$DIMUPT
 70
     0
  9
$DIMDEC
 70
     4
  9
$DIMTDEC
 70
     4
  9
$DIMALTU
 70
     2
  9
$DIMALTTD
 70
     2
  9
$DIMTXSTY
  7
ROMANS
  9
$DIMAUNIT
 70
     0
  9
$DIMADEC
 70
     0
  9
$DIMALTRND
 40
0.0
  9
$DIMAZIN
 70
     0
  9
$DIMDSEP
 70
    46
  9
$DIMATFIT
 70
     3
  9
$DIMFRAC
 70
     0
  9
$DIMLDRBLK
  1

  9
$DIMLUNIT
 70
     2
  9
$DIMLWD
 70
    -2
  9
$DIMLWE
 70
    -2
  9
$DIMTMOVE
 70
     2
  9
$LUNITS
 70
     2
  9
$LUPREC
 70
     4
  9
$SKETCHINC
 40
0.1
  9
$FILLETRAD
 40
7.5
  9
$AUNITS
 70
     0
  9
$AUPREC
 70
     0
  9
$MENU
  1
.
  9
$ELEVATION
 40
0.0
  9
$PELEVATION
 40
0.0
  9
$THICKNESS
 40
0.0
  9
$LIMCHECK
 70
     0
  9
$CHAMFERA
 40
0.0
  9
$CHAMFERB
 40
0.0
  9
$CHAMFERC
 40
1.0
  9
$CHAMFERD
 40
0.0
  9
$SKPOLY
 70
     0
  9
$TDCREATE
 40
2452487.892052199
  9
$TDUCREATE
 40
2452487.850385532
  9
$TDUPDATE
 40
2452487.892687384
  9
$TDUUPDATE
 40
2452487.851020717
  9
$TDINDWG
 40
0.0006351852
  9
$TDUSRTIMER
 40
0.0006351852
  9
$USRTIMER
 70
     1
  9
$ANGBASE
 50
0.0
  9
$ANGDIR
 70
     0
  9
$PDMODE
 70
     0
  9
$PDSIZE
 40
0.0
  9
$PLINEWID
 40
0.0
  9
$SPLFRAME
 70
     0
  9
$SPLINETYPE
 70
     6
  9
$SPLINESEGS
 70
     8
  9
$HANDSEED
  5
530
  9
$SURFTAB1
 70
     6
  9
$SURFTAB2
 70
     6
  9
$SURFTYPE
 70
     6
  9
$SURFU
 70
     6
  9
$SURFV
 70
     6
  9
$UCSBASE
  2

  9
$UCSNAME
  2

  9
$UCSORG
 10
0.0
 20
0.0
 30
0.0
  9
$UCSXDIR
 10
1.0
 20
0.0
 30
0.0
  9
$UCSYDIR
 10
0.0
 20
1.0
 30
0.0
  9
$UCSORTHOREF
  2

  9
$UCSORTHOVIEW
 70
     0
  9
$UCSORGTOP
 10
0.0
 20
0.0
 30
0.0
  9
$UCSORGBOTTOM
 10
0.0
 20
0.0
 30
0.0
  9
$UCSORGLEFT
 10
0.0
 20
0.0
 30
0.0
  9
$UCSORGRIGHT
 10
0.0
 20
0.0
 30
0.0
  9
$UCSORGFRONT
 10
0.0
 20
0.0
 30
0.0
  9
$UCSORGBACK
 10
0.0
 20
0.0
 30
0.0
  9
$PUCSBASE
  2

  9
$PUCSNAME
  2

  9
$PUCSORG
 10
0.0
 20
0.0
 30
0.0
  9
$PUCSXDIR
 10
1.0
 20
0.0
 30
0.0
  9
$PUCSYDIR
 10
0.0
 20
1.0
 30
0.0
  9
$PUCSORTHOREF
  2

  9
$PUCSORTHOVIEW
 70
     0
  9
$PUCSORGTOP
 10
0.0
 20
0.0
 30
0.0
  9
$PUCSORGBOTTOM
 10
0.0
 20
0.0
 30
0.0
  9
$PUCSORGLEFT
 10
0.0
 20
0.0
 30
0.0
  9
$PUCSORGRIGHT
 10
0.0
 20
0.0
 30
0.0
  9
$PUCSORGFRONT
 10
0.0
 20
0.0
 30
0.0
  9
$PUCSORGBACK
 10
0.0
 20
0.0
 30
0.0
  9
$USERI1
 70
     0
  9
$USERI2
 70
     0
  9
$USERI3
 70
     0
  9
$USERI4
 70
     0
  9
$USERI5
 70
     0
  9
$USERR1
 40
0.0
  9
$USERR2
 40
0.0
  9
$USERR3
 40
0.0
  9
$USERR4
 40
0.0
  9
$USERR5
 40
0.0
  9
$WORLDVIEW
 70
     1
  9
$SHADEDGE
 70
     3
  9
$SHADEDIF
 70
    70
  9
$TILEMODE
 70
     1
  9
$MAXACTVP
 70
    64
  9
$PINSBASE
 10
0.0
 20
0.0
 30
0.0
  9
$PLIMCHECK
 70
     0
  9
$PEXTMIN
 10
7.777105839157954
 20
0.5792682657111623
 30
0.0
  9
$PEXTMAX
 10
197.6550712950588
 20
283.6213344614824
 30
0.0
  9
$PLIMMIN
 10
-2.231642193654153
 20
-6.398317342429949
  9
$PLIMMAX
 10
207.6570144225567
 20
290.6123332923356
  9
$UNITMODE
 70
     0
  9
$VISRETAIN
 70
     1
  9
$PLINEGEN
 70
     0
  9
$PSLTSCALE
 70
     0
  9
$TREEDEPTH
 70
  3020
  9
$CMLSTYLE
  2
Standard
  9
$CMLJUST
 70
     0
  9
$CMLSCALE
 40
1.0
  9
$PROXYGRAPHICS
 70
     1
  9
$MEASUREMENT
 70
     1
  9
$CELWEIGHT
370
    -1
  9
$ENDCAPS
280
     0
  9
$JOINSTYLE
280
     0
  9
$LWDISPLAY
290
     0
  9
$INSUNITS
 70
     1
  9
$HYPERLINKBASE
  1

  9
$STYLESHEET
  1

  9
$XEDIT
290
     1
  9
$CEPSNTYPE
380
     0
  9
$PSTYLEMODE
290
     1
  9
$FINGERPRINTGUID
  2
{0F8F7604-0E20-11D5-8D50-00105A3DEFE9}
  9
$VERSIONGUID
  2
{9E6D1BD5-A4BE-11D6-AAC6-0010A4A25215}
  9
$EXTNAMES
290
     1
  9
$PSVPSCALE
 40
0.0
  9
$OLESTARTUP
290
     0
  0
ENDSEC
  0
SECTION
  2
CLASSES
  0
CLASS
  1
ACDBDICTIONARYWDFLT
  2
AcDbDictionaryWithDefault
  3
AutoCAD 2000
 90
        0
280
     0
281
     0
  0
CLASS
  1
ACDBPLACEHOLDER
  2
AcDbPlaceHolder
  3
AutoCAD 2000
 90
        0
280
     0
281
     0
  0
CLASS
  1
LAYOUT
  2
AcDbLayout
  3
AutoCAD 2000
 90
        0
280
     0
281
     0
  0
ENDSEC
  0
SECTION
  2
TABLES
  0
TABLE
  2
VPORT
  5
8
330
0
100
AcDbSymbolTable
 70
     3
  0
VPORT
  5
52F
330
8
100
AcDbSymbolTableRecord
100
AcDbViewportTableRecord
  2
*Active
 70
     0
 10
0.0
 20
0.0
 11
1.0
 21
1.0
 12
855.0316516905214
 22
526.7210379842981
 13
0.0
 23
0.0
 14
0.5
 24
0.5
 15
0.5
 25
0.5
 16
0.0
 26
0.0
 36
1.0
 17
0.0
 27
0.0
 37
0.0
 40
52.43927779233713
 41
1.760948905109489
 42
50.0
 43
0.0
 44
0.0
 50
0.0
 51
0.0
 71
     0
 72
   100
 73
     1
 74
     3
 75
     0
 76
     0
 77
     0
 78
     0
281
     0
 65
     1
110
0.0
120
0.0
130
0.0
111
1.0
121
0.0
131
0.0
112
0.0
122
1.0
132
0.0
 79
     0
146
0.0
  0
ENDTAB
  0
TABLE
  2
LTYPE
  5
5
330
0
100
AcDbSymbolTable
 70
    21
  0
LTYPE
  5
14
330
5
100
AcDbSymbolTableRecord
100
AcDbLinetypeTableRecord
  2
ByBlock
 70
     0
  3

 72
    65
 73
     0
 40
0.0
  0
LTYPE
  5
15
330
5
100
AcDbSymbolTableRecord
100
AcDbLinetypeTableRecord
  2
ByLayer
 70
     0
  3

 72
    65
 73
     0
 40
0.0
  0
LTYPE
  5
16
330
5
100
AcDbSymbolTableRecord
100
AcDbLinetypeTableRecord
  2
Continuous
 70
     0
  3
Solid line
 72
    65
 73
     0
 40
0.0
  0
LTYPE
  5
336
330
5
100
AcDbSymbolTableRecord
100
AcDbLinetypeTableRecord
  2
GRID1_50
 70
     0
  3
________________  __  ________________  __
 72
    65
 73
     4
 40
1800.0
 49
1500.0
 74
     0
 49
-100.0
 74
     0
 49
100.0
 74
     0
 49
-100.0
 74
     0
  0
LTYPE
  5
348
330
5
100
AcDbSymbolTableRecord
100
AcDbLinetypeTableRecord
  2
DASHED1_01
 70
     0
  3
___  ___  ___  ___  ___  ___  ___  ___  ___  __
 72
    65
 73
     2
 40
9.0
 49
6.0
 74
     0
 49
-3.0
 74
     0
  0
LTYPE
  5
34D
330
5
100
AcDbSymbolTableRecord
100
AcDbLinetypeTableRecord
  2
DASHED1_02
 70
     0
  3
___  ___  ___  ___  ___  ___  ___  ___  ___  __
 72
    65
 73
     2
 40
18.0
 49
12.0
 74
     0
 49
-6.0
 74
     0
  0
LTYPE
  5
352
330
5
100
AcDbSymbolTableRecord
100
AcDbLinetypeTableRecord
  2
DASHED1_05
 70
     0
  3
___  ___  ___  ___  ___  ___  ___  ___  ___  __
 72
    65
 73
     2
 40
45.0
 49
30.0
 74
     0
 49
-15.0
 74
     0
  0
LTYPE
  5
357
330
5
100
AcDbSymbolTableRecord
100
AcDbLinetypeTableRecord
  2
DASHED1_20
 70
     0
  3
___  ___  ___  ___  ___  ___  ___  ___  ___  __
 72
    65
 73
     2
 40
180.0
 49
120.0
 74
     0
 49
-60.0
 74
     0
  0
LTYPE
  5
35C
330
5
100
AcDbSymbolTableRecord
100
AcDbLinetypeTableRecord
  2
GRID1_01
 70
     0
  3
________________  __  ________________  __
 72
    65
 73
     4
 40
36.0
 49
30.0
 74
     0
 49
-2.0
 74
     0
 49
2.0
 74
     0
 49
-2.0
 74
     0
  0
LTYPE
  5
361
330
5
100
AcDbSymbolTableRecord
100
AcDbLinetypeTableRecord
  2
GRID1_02
 70
     0
  3
________________  __  ________________  __
 72
    65
 73
     4
 40
72.0
 49
60.0
 74
     0
 49
-4.0
 74
     0
 49
4.0
 74
     0
 49
-4.0
 74
     0
  0
LTYPE
  5
366
330
5
100
AcDbSymbolTableRecord
100
AcDbLinetypeTableRecord
  2
GRID1_05
 70
     0
  3
________________  __  ________________  __
 72
    65
 73
     4
 40
180.0
 49
150.0
 74
     0
 49
-10.0
 74
     0
 49
10.0
 74
     0
 49
-10.0
 74
     0
  0
LTYPE
  5
36B
330
5
100
AcDbSymbolTableRecord
100
AcDbLinetypeTableRecord
  2
GRID1_10
 70
     0
  3
________________  __  ________________  __
 72
    65
 73
     4
 40
360.0
 49
300.0
 74
     0
 49
-20.0
 74
     0
 49
20.0
 74
     0
 49
-20.0
 74
     0
  0
LTYPE
  5
370
330
5
100
AcDbSymbolTableRecord
100
AcDbLinetypeTableRecord
  2
GRID1_20
 70
     0
  3
________________  __  ________________  __
 72
    65
 73
     4
 40
720.0
 49
600.0
 74
     0
 49
-40.0
 74
     0
 49
40.0
 74
     0
 49
-40.0
 74
     0
  0
LTYPE
  5
375
330
5
100
AcDbSymbolTableRecord
100
AcDbLinetypeTableRecord
  2
HIDDEN1_01
 70
     0
  3
__ __ __ __ __ __ __ __ __ __ __ __ __ __ __ __
 72
    65
 73
     2
 40
5.0
 49
3.0
 74
     0
 49
-2.0
 74
     0
  0
LTYPE
  5
37A
330
5
100
AcDbSymbolTableRecord
100
AcDbLinetypeTableRecord
  2
HIDDEN1_02
 70
     0
  3
__ __ __ __ __ __ __ __ __ __ __ __ __ __ __ __
 72
    65
 73
     2
 40
10.0
 49
6.0
 74
     0
 49
-4.0
 74
     0
  0
LTYPE
  5
37F
330
5
100
AcDbSymbolTableRecord
100
AcDbLinetypeTableRecord
  2
HIDDEN1_05
 70
     0
  3
__ __ __ __ __ __ __ __ __ __ __ __ __ __ __ __
 72
    65
 73
     2
 40
25.0
 49
15.0
 74
     0
 49
-10.0
 74
     0
  0
LTYPE
  5
384
330
5
100
AcDbSymbolTableRecord
100
AcDbLinetypeTableRecord
  2
HIDDEN1_10
 70
     0
  3
__ __ __ __ __ __ __ __ __ __ __ __ __ __ __ __
 72
    65
 73
     2
 40
50.0
 49
30.0
 74
     0
 49
-20.0
 74
     0
  0
LTYPE
  5
389
330
5
100
AcDbSymbolTableRecord
100
AcDbLinetypeTableRecord
  2
HIDDEN1_20
 70
     0
  3
__ __ __ __ __ __ __ __ __ __ __ __ __ __ __ __
 72
    65
 73
     2
 40
100.0
 49
60.0
 74
     0
 49
-40.0
 74
     0
  0
LTYPE
  5
38E
330
5
100
AcDbSymbolTableRecord
100
AcDbLinetypeTableRecord
  2
PHANTM1_01
 70
     0
  3
__________  __  __  _________  __  __  ________
 72
    65
 73
     6
 40
40.0
 49
20.0
 74
     0
 49
-4.0
 74
     0
 49
4.0
 74
     0
 49
-4.0
 74
     0
 49
4.0
 74
     0
 49
-4.0
 74
     0
  0
LTYPE
  5
393
330
5
100
AcDbSymbolTableRecord
100
AcDbLinetypeTableRecord
  2
PHANTM1_02
 70
     0
  3
__________  __  __  _________  __  __  ________
 72
    65
 73
     6
 40
80.0
 49
40.0
 74
     0
 49
-8.0
 74
     0
 49
8.0
 74
     0
 49
-8.0
 74
     0
 49
8.0
 74
     0
 49
-8.0
 74
     0
  0
LTYPE
  5
398
330
5
100
AcDbSymbolTableRecord
100
AcDbLinetypeTableRecord
  2
PHANTM1_05
 70
     0
  3
__________  __  __  _________  __  __  ________
 72
    65
 73
     6
 40
200.0
 49
100.0
 74
     0
 49
-20.0
 74
     0
 49
20.0
 74
     0
 49
-20.0
 74
     0
 49
20.0
 74
     0
 49
-20.0
 74
     0
  0
LTYPE
  5
39D
330
5
100
AcDbSymbolTableRecord
100
AcDbLinetypeTableRecord
  2
PHANTM1_10
 70
     0
  3
__________  __  __  _________  __  __  ________
 72
    65
 73
     6
 40
400.0
 49
200.0
 74
     0
 49
-40.0
 74
     0
 49
40.0
 74
     0
 49
-40.0
 74
     0
 49
40.0
 74
     0
 49
-40.0
 74
     0
  0
LTYPE
  5
3A2
330
5
100
AcDbSymbolTableRecord
100
AcDbLinetypeTableRecord
  2
PHANTM1_20
 70
     0
  3
__________  __  __  _________  __  __  ________
 72
    65
 73
     6
 40
800.0
 49
400.0
 74
     0
 49
-80.0
 74
     0
 49
80.0
 74
     0
 49
-80.0
 74
     0
 49
80.0
 74
     0
 49
-80.0
 74
     0
  0
ENDTAB
  0
TABLE
  2
LAYER
  5
2
330
0
100
AcDbSymbolTable
 70
    20
  0
LAYER
  5
10
330
2
100
AcDbSymbolTableRecord
100
AcDbLayerTableRecord
  2
0
 70
     0
 62
     7
  6
Continuous
370
    -3
390
F
  0
LAYER
  5
146
330
2
100
AcDbSymbolTableRecord
100
AcDbLayerTableRecord
  2
A4 SHEET
 70
     0
 62
     3
  6
Continuous
370
    -3
390
F
  0
LAYER
  5
147
330
2
100
AcDbSymbolTableRecord
100
AcDbLayerTableRecord
  2
DANCON
 70
     0
 62
     4
  6
Continuous
370
    -3
390
F
  0
LAYER
  5
309
330
2
100
AcDbSymbolTableRecord
100
AcDbLayerTableRecord
  2
Defpoints
 70
     0
 62
     7
  6
Continuous
290
     0
370
    -3
390
F
  0
LAYER
  5
331
330
2
100
AcDbSymbolTableRecord
100
AcDbLayerTableRecord
  2
A3 SHEET
 70
     0
 62
     3
  6
Continuous
370
    -3
390
F
  0
LAYER
  5
337
330
2
100
AcDbSymbolTableRecord
100
AcDbLayerTableRecord
  2
ANCON
 70
     0
 62
     4
  6
Continuous
370
    -3
390
F
  0
LAYER
  5
338
330
2
100
AcDbSymbolTableRecord
100
AcDbLayerTableRecord
  2
DCONC
 70
     0
 62
     6
  6
Continuous
370
    -3
390
F
  0
LAYER
  5
339
330
2
100
AcDbSymbolTableRecord
100
AcDbLayerTableRecord
  2
DDIMS
 70
     0
 62
     2
  6
Continuous
370
    -3
390
F
  0
LAYER
  5
33A
330
2
100
AcDbSymbolTableRecord
100
AcDbLayerTableRecord
  2
DIMS
 70
     0
 62
     2
  6
Continuous
370
    -3
390
F
  0
LAYER
  5
33B
330
2
100
AcDbSymbolTableRecord
100
AcDbLayerTableRecord
  2
DMASONRY
 70
     0
 62
     3
  6
Continuous
370
    -3
390
F
  0
LAYER
  5
33C
330
2
100
AcDbSymbolTableRecord
100
AcDbLayerTableRecord
  2
DSTEEL
 70
     0
 62
     6
  6
Continuous
370
    -3
390
F
  0
LAYER
  5
33D
330
2
100
AcDbSymbolTableRecord
100
AcDbLayerTableRecord
  2
DTEXT
 70
     0
 62
     6
  6
Continuous
370
    -3
390
F
  0
LAYER
  5
33E
330
2
100
AcDbSymbolTableRecord
100
AcDbLayerTableRecord
  2
FRAME
 70
     0
 62
     3
  6
Continuous
370
    -3
390
F
  0
LAYER
  5
33F
330
2
100
AcDbSymbolTableRecord
100
AcDbLayerTableRecord
  2
GRID
 70
     0
 62
     1
  6
GRID1_50
370
    -3
390
F
  0
LAYER
  5
340
330
2
100
AcDbSymbolTableRecord
100
AcDbLayerTableRecord
  2
HATCH
 70
     0
 62
     1
  6
Continuous
370
    -3
390
F
  0
LAYER
  5
341
330
2
100
AcDbSymbolTableRecord
100
AcDbLayerTableRecord
  2
OUTLINE
 70
     0
 62
     5
  6
Continuous
370
    -3
390
F
  0
LAYER
  5
342
330
2
100
AcDbSymbolTableRecord
100
AcDbLayerTableRecord
  2
REVISION
 70
     0
 62
     6
  6
Continuous
370
    -3
390
F
  0
LAYER
  5
343
330
2
100
AcDbSymbolTableRecord
100
AcDbLayerTableRecord
  2
STEXT
 70
     0
 62
     6
  6
Continuous
370
    -3
390
F
  0
LAYER
  5
51F
330
2
100
AcDbSymbolTableRecord
100
AcDbLayerTableRecord
  2
ANCON-ORIGIN
 70
     0
 62
     1
  6
Continuous
370
    -3
390
F
  0
LAYER
  5
520
330
2
100
AcDbSymbolTableRecord
100
AcDbLayerTableRecord
  2
DANGLE
 70
     0
 62
     4
  6
Continuous
370
    -3
390
F
  0
ENDTAB
  0
TABLE
  2
STYLE
  5
3
330
0
100
AcDbSymbolTable
 70
     2
  0
STYLE
  5
11
330
3
100
AcDbSymbolTableRecord
100
AcDbTextStyleTableRecord
  2
Standard
 70
     0
 40
9.0
 41
1.0
 50
0.0
 71
     0
 42
0.2
  3
romans.shx
  4

  0
STYLE
  5
148
330
3
100
AcDbSymbolTableRecord
100
AcDbTextStyleTableRecord
  2
ROMANS
 70
     0
 40
0.0
 41
1.0
 50
0.0
 71
     0
 42
18.0
  3
ROMANS.SHX
  4

  0
ENDTAB
  0
TABLE
  2
VIEW
  5
6
330
0
100
AcDbSymbolTable
 70
     0
  0
ENDTAB
  0
TABLE
  2
UCS
  5
7
330
0
100
AcDbSymbolTable
 70
     0
  0
ENDTAB
  0
TABLE
  2
APPID
  5
9
330
0
100
AcDbSymbolTable
 70
     1
  0
APPID
  5
12
330
9
100
AcDbSymbolTableRecord
100
AcDbRegAppTableRecord
  2
ACAD
 70
     0
  0
ENDTAB
  0
TABLE
  2
DIMSTYLE
  5
A
330
0
100
AcDbSymbolTable
 70
     9
100
AcDbDimStyleTable
 71
     2
340
313
340
30A
  0
DIMSTYLE
105
27
330
A
100
AcDbSymbolTableRecord
100
AcDbDimStyleTableRecord
  2
Standard
 70
     0
340
11
  0
DIMSTYLE
105
149
330
A
100
AcDbSymbolTableRecord
100
AcDbDimStyleTableRecord
  2
1-10
 70
     0
 40
10.0
 41
2.0
 42
4.5
 43
0.0
 44
1.5
 45
1.0
 46
1.25
 73
     0
 74
     0
 77
     1
 78
    12
140
1.8
141
0.0
143
0.04
146
1.25
147
1.0
271
     2
272
     2
279
     2
284
    12
285
    12
286
    12
340
148
  0
DIMSTYLE
105
30A
330
A
100
AcDbSymbolTableRecord
100
AcDbDimStyleTableRecord
  2
1-1
 70
     0
 41
2.0
 42
4.5
 43
0.0
 44
1.5
 45
1.0
 73
     0
 74
     0
 77
     1
 78
    12
140
1.8
141
0.0
146
1.25
147
0.8
279
     2
284
    12
285
    12
286
    12
340
148
  0
DIMSTYLE
105
313
330
A
100
AcDbSymbolTableRecord
100
AcDbDimStyleTableRecord
  2
1-2
 70
     0
 40
2.0
 41
2.0
 42
4.5
 43
0.0
 44
1.5
 45
1.0
 73
     0
 74
     0
 77
     1
 78
    12
140
1.8
141
0.0
146
1.25
147
0.8
279
     2
284
    12
285
    12
286
    12
340
148
  0
DIMSTYLE
105
318
330
A
100
AcDbSymbolTableRecord
100
AcDbDimStyleTableRecord
  2
1-20
 70
     0
 40
20.0
 41
2.0
 42
4.5
 43
0.0
 44
1.5
 45
1.0
 73
     0
 74
     0
 77
     1
 78
    12
140
1.8
141
0.0
146
1.25
147
1.0
340
11
  0
DIMSTYLE
105
31D
330
A
100
AcDbSymbolTableRecord
100
AcDbDimStyleTableRecord
  2
1-2LEADER
 70
     0
 40
2.0
 41
2.0
 42
4.5
 43
0.0
 44
1.5
 45
1.0
 73
     0
 74
     0
 78
    12
140
1.8
141
0.0
146
1.25
147
1.0
279
     2
284
    12
285
    12
286
    12
340
148
  0
DIMSTYLE
105
322
330
A
100
AcDbSymbolTableRecord
100
AcDbDimStyleTableRecord
  2
1-5
 70
     0
 40
5.0
 41
2.0
 42
4.5
 43
0.0
 44
1.5
 45
1.0
 73
     0
 74
     0
 77
     1
 78
    12
140
1.8
141
0.0
146
1.25
147
1.0
284
    12
285
    12
286
    12
340
148
  0
DIMSTYLE
105
327
330
A
100
AcDbSymbolTableRecord
100
AcDbDimStyleTableRecord
  2
1-50
 70
     0
 40
50.0
 41
2.0
 42
4.5
 43
0.0
 44
1.5
 45
1.0
 73
     0
 74
     0
 77
     1
 78
    12
140
1.8
141
0.0
146
1.25
147
1.0
284
    12
285
    12
286
    12
340
148
  0
DIMSTYLE
105
32C
330
A
100
AcDbSymbolTableRecord
100
AcDbDimStyleTableRecord
  2
1-5LEADER
 70
     0
 40
5.0
 41
2.0
 42
4.5
 43
0.0
 44
1.5
 45
1.0
 73
     0
 74
     0
 78
    12
140
1.8
141
0.0
146
1.25
147
1.0
279
     2
284
    12
285
    12
286
    12
340
148
  0
ENDTAB
  0
TABLE
  2
BLOCK_RECORD
  5
1
330
0
100
AcDbSymbolTable
 70
     8
  0
BLOCK_RECORD
  5
1F
330
1
100
AcDbSymbolTableRecord
100
AcDbBlockTableRecord
  2
*Model_Space
340
22
  0
BLOCK_RECORD
  5
1B
330
1
100
AcDbSymbolTableRecord
100
AcDbBlockTableRecord
  2
*Paper_Space
340
1E
  0
BLOCK_RECORD
  5
2B
330
1
100
AcDbSymbolTableRecord
100
AcDbBlockTableRecord
  2
*X0
340
0
102
{BLKREFS
331
271
102
}
  0
BLOCK_RECORD
  5
B4
330
1
100
AcDbSymbolTableRecord
100
AcDbBlockTableRecord
  2
*X1
340
0
102
{BLKREFS
331
276
102
}
  0
BLOCK_RECORD
  5
11C
330
1
100
AcDbSymbolTableRecord
100
AcDbBlockTableRecord
  2
*X2
340
0
102
{BLKREFS
331
292
102
}
  0
BLOCK_RECORD
  5
241
330
1
100
AcDbSymbolTableRecord
100
AcDbBlockTableRecord
  2
A4 sheet
340
0
310
28000000200000002000000001000800000000000004000000000000000000000000000000000000000000004000000080000000FF000000002000004020000080200000FF200000004000004040000080400000FF400000006000004060000080600000FF600000008000004080000080800000FF80000000A0000040A000
310
0080A00000FFA0000000C0000040C0000080C00000FFC0000000FF000040FF000080FF0000FFFF0000000020004000200080002000FF002000002020004020200080202000FF202000004020004040200080402000FF402000006020004060200080602000FF602000008020004080200080802000FF80200000A0200040A0
310
200080A02000FFA0200000C0200040C0200080C02000FFC0200000FF200040FF200080FF2000FFFF2000000040004000400080004000FF004000002040004020400080204000FF204000004040004040400080404000FF404000006040004060400080604000FF604000008040004080400080804000FF80400000A0400040
310
A0400080A04000FFA0400000C0400040C0400080C04000FFC0400000FF400040FF400080FF4000FFFF4000000060004000600080006000FF006000002060004020600080206000FF206000004060004040600080406000FF406000006060004060600080606000FF606000008060004080600080806000FF80600000A06000
310
40A0600080A06000FFA0600000C0600040C0600080C06000FFC0600000FF600040FF600080FF6000FFFF6000000080004000800080008000FF008000002080004020800080208000FF208000004080004040800080408000FF408000006080004060800080608000FF608000008080004080800080808000FF80800000A080
310
0040A0800080A08000FFA0800000C0800040C0800080C08000FFC0800000FF800040FF800080FF8000FFFF80000000A0004000A0008000A000FF00A0000020A0004020A0008020A000FF20A0000040A0004040A0008040A000FF40A0000060A0004060A0008060A000FF60A0000080A0004080A0008080A000FF80A00000A0
310
A00040A0A00080A0A000FFA0A00000C0A00040C0A00080C0A000FFC0A00000FFA00040FFA00080FFA000FFFFA0000000C0004000C0008000C000FF00C0000020C0004020C0008020C000FF20C0000040C0004040C0008040C000FF40C0000060C0004060C0008060C000FF60C0000080C0004080C0008080C000FF80C00000
310
A0C00040A0C00080A0C000FFA0C00000C0C00040C0C00080C0C000FFC0C00000FFC00040FFC00080FFC000FFFFC0000000FF004000FF008000FF00FF00FF000020FF004020FF008020FF00FF20FF000040FF004040FF008040FF00FF40FF000060FF004060FF008060FF00FF60FF000080FF004080FF008080FF00FF80FF00
310
00A0FF0040A0FF0080A0FF00FFA0FF0000C0FF0040C0FF0080C0FF00FFC0FF0000FFFF0040FFFF0080FFFF00FFFFFF0000000000000000000000000000000000000000000000000000000000000000000000000000000000000000000000000000000000000000E0E0E00000000000000000000000001C1C1C1C1C031C1C1C
310
1C1C1C1C1C031C1CE0E0E00000000000000000000000001C1C1C1C1C031C1C00000000000003E0E0E0E01C000000000000000000000000E0E01C1C1C031C1C00000000000003E0E0E0E01C000000000000000000000000E0E01C1C1C03E0E003030303030303DBDBDBDBDB000000000000000000000000E0E01CE0E003E000
310
00000000000003DBDBDBDBDB000000000000000000000000E0E01CE0E0031C1C1C1C1C1C1C1C03DB1C1C1C1C0000000000000000000000001C0000000000000000000000000000000000001C0000000000000000000000001C0000000000000000000000000000000000001C0000000000000000000000001C000000000000
310
0000000000000000000000001C0000000000000000000000001C0000000000000000000000000000000000001C0000000000000000000000001C0000000000000000000000000000000000001C0000000000000000000000001C0000000000000000000000000000000000001C0000000000000000000000001C0000000000
310
000000000000000000000000001C0000000000000000000000001C0000000000000000000000000000000000001C0000000000000000000000001C0000000000000000000000000000000000001C0000000000000000000000001C0000000000000000000000000000000000001C0000000000000000000000001C00000000
310
00000000000000000000000000001C0000000000000000000000001C0000000000000000000000000000000000001C0000000000000000000000001C0000000000000000000000000000000000001C0000000000000000000000001C0000000000000000000000000000000000001C0000000000000000000000001C000000
310
0000000000000000000000000000001C0000000000000000000000001C0000000000000000000000000000000000001C0000000000000000000000001C0000000000000000000000000000000000001C0000000000000000000000001C0000000000000000000000000000000000001C0000000000000000000000001C0000
310
000000000000000000000000000000001C0000000000000000000000001C0000000000000000000000000000000000001C0000000000000000000000001C0000000000000000000000000000000000001C0000000000000000000000001C0000000000000000000000000000000000001C0000000000000000000000001C1C
310
1C1C1C1C1C1C1C1C1C1C1C1C1C1C1C1C1C1C0000000000000000000000000000000000000000000000000000000000000000000000000000
102
{BLKREFS
331
2E8
102
}
1001
ACAD
1000
DesignCenter Data
1002
{
1070
     1
1070
     4
1002
}
  0
BLOCK_RECORD
  5
2C4
330
1
100
AcDbSymbolTableRecord
100
AcDbBlockTableRecord
  2
A4REV
340
0
  0
BLOCK_RECORD
  5
513
330
1
100
AcDbSymbolTableRecord
100
AcDbBlockTableRecord
  2
OR
340
0
102
{BLKREFS
331
51A
331
52B
102
}
  0
BLOCK_RECORD
  5
517
330
1
100
AcDbSymbolTableRecord
100
AcDbBlockTableRecord
  2
tieheads
340
0
102
{BLKREFS
331
523
331
522
331
527
331
528
102
}
  0
ENDTAB
  0
ENDSEC
  0
SECTION
  2
BLOCKS
  0
BLOCK
  5
20
330
1F
100
AcDbEntity
  8
0
100
AcDbBlockBegin
  2
*Model_Space
 70
     0
 10
0.0
 20
0.0
 30
0.0
  3
*Model_Space
  1

  0
ENDBLK
  5
21
330
1F
100
AcDbEntity
  8
0
100
AcDbBlockEnd
  0
BLOCK
  5
1C
330
1B
100
AcDbEntity
 67
     1
  8
0
100
AcDbBlockBegin
  2
*Paper_Space
 70
     0
 10
0.0
 20
0.0
 30
0.0
  3
*Paper_Space
  1

  0
ENDBLK
  5
1D
330
1B
100
AcDbEntity
 67
     1
  8
0
100
AcDbBlockEnd
  0
BLOCK
  5
B2
330
2B
100
AcDbEntity
  8
0
100
AcDbBlockBegin
  2
*X0
 70
     1
 10
0.0
 20
0.0
 30
0.0
  3
*X0
  1

  0
LINE
  5
2C
330
2B
100
AcDbEntity
  8
0
 62
     0
100
AcDbLine
 10
7547.21943271598
 20
38315.91035587681
 30
0.0
 11
7549.738071004629
 21
38318.42899416546
 31
0.0
  0
LINE
  5
2D
330
2B
100
AcDbEntity
  8
0
 62
     0
100
AcDbLine
 10
7547.173355329421
 20
38316.21783188084
 30
0.0
 11
7549.798565413277
 21
38318.8430419647
 31
0.0
  0
LINE
  5
2E
330
2B
100
AcDbEntity
  8
0
 62
     0
100
AcDbLine
 10
7547.136024763074
 20
38316.53405470509
 30
0.0
 11
7549.890522769034
 21
38319.28855271105
 31
0.0
  0
LINE
  5
2F
330
2B
100
AcDbEntity
  8
0
 62
     0
100
AcDbLine
 10
7547.108122062801
 20
38316.85970539541
 30
0.0
 11
7550.024248042608
 21
38319.77583137522
 31
0.0
  0
LINE
  5
30
330
2B
100
AcDbEntity
  8
0
 62
     0
100
AcDbLine
 10
7547.090454843284
 20
38317.19559156649
 30
0.0
 11
7550.21831465404
 21
38320.32345137724
 31
0.0
  0
LINE
  5
31
330
2B
100
AcDbEntity
  8
0
 62
     0
100
AcDbLine
 10
7554.38928408664
 20
38324.49442080984
 30
0.0
 11
7554.75146670083
 21
38324.85660342403
 31
0.0
  0
LINE
  5
32
330
2B
100
AcDbEntity
  8
0
 62
     0
100
AcDbLine
 10
7547.08399180954
 20
38317.54268192334
 30
0.0
 11
7550.513812938348
 21
38320.97250305214
 31
0.0
  0
LINE
  5
33
330
2B
100
AcDbEntity
  8
0
 62
     0
100
AcDbLine
 10
7553.74023241174
 20
38324.19892252553
 30
0.0
 11
7554.75146670083
 21
38325.21015681462
 31
0.0
  0
LINE
  5
34
330
2B
100
AcDbEntity
  8
0
 62
     0
100
AcDbLine
 10
7547.089910657139
 20
38317.90215416153
 30
0.0
 11
7551.059659211197
 21
38321.87190271559
 31
0.0
  0
LINE
  5
35
330
2B
100
AcDbEntity
  8
0
 62
     0
100
AcDbLine
 10
7552.840832748299
 20
38323.65307625268
 30
0.0
 11
7554.75146670083
 21
38325.56371020522
 31
0.0
  0
LINE
  5
36
330
2B
100
AcDbEntity
  8
0
 62
     0
100
AcDbLine
 10
7547.109666264566
 20
38318.27546315955
 30
0.0
 11
7554.75146670083
 21
38325.91726359581
 31
0.0
  0
LINE
  5
37
330
2B
100
AcDbEntity
  8
0
 62
     0
100
AcDbLine
 10
7547.145090882634
 20
38318.66444116821
 30
0.0
 11
7554.75146670083
 21
38326.2708169864
 31
0.0
  0
LINE
  5
38
330
2B
100
AcDbEntity
  8
0
 62
     0
100
AcDbLine
 10
7547.198546814266
 20
38319.07145049044
 30
0.0
 11
7554.75146670083
 21
38326.624370377
 31
0.0
  0
LINE
  5
39
330
2B
100
AcDbEntity
  8
0
 62
     0
100
AcDbLine
 10
7547.273169922693
 20
38319.49962698945
 30
0.0
 11
7554.75146670083
 21
38326.97792376759
 31
0.0
  0
LINE
  5
3A
330
2B
100
AcDbEntity
  8
0
 62
     0
100
AcDbLine
 10
7547.373280428434
 20
38319.95329088579
 30
0.0
 11
7554.75146670083
 21
38327.33147715818
 31
0.0
  0
LINE
  5
3B
330
2B
100
AcDbEntity
  8
0
 62
     0
100
AcDbLine
 10
7547.505128042818
 20
38320.43869189077
 30
0.0
 11
7554.274043573119
 21
38327.20760742107
 31
0.0
  0
LINE
  5
3C
330
2B
100
AcDbEntity
  8
0
 62
     0
100
AcDbLine
 10
7547.678381076075
 20
38320.96549831462
 30
0.0
 11
7553.747237149268
 21
38327.03435438781
 31
0.0
  0
LINE
  5
3D
330
2B
100
AcDbEntity
  8
0
 62
     0
100
AcDbLine
 10
7547.909541857345
 20
38321.55021248648
 30
0.0
 11
7553.162522977406
 21
38326.80319360654
 31
0.0
  0
LINE
  5
3E
330
2B
100
AcDbEntity
  8
0
 62
     0
100
AcDbLine
 10
7548.23166276121
 20
38322.22588678094
 30
0.0
 11
7552.486848682945
 21
38326.48107270268
 31
0.0
  0
LINE
  5
3F
330
2B
100
AcDbEntity
  8
0
 62
     0
100
AcDbLine
 10
7548.735982929388
 20
38323.0837603397
 30
0.0
 11
7551.628975124177
 21
38325.9767525345
 31
0.0
  0
LINE
  5
40
330
2B
100
AcDbEntity
  8
0
 62
     0
100
AcDbLine
 10
7547.273676977964
 20
38315.6110467482
 30
0.0
 11
7549.702607415643
 21
38318.03997718587
 31
0.0
  0
LINE
  5
41
330
2B
100
AcDbEntity
  8
0
 62
     0
100
AcDbLine
 10
7547.335590140914
 20
38315.31940652056
 30
0.0
 11
7549.687837233406
 21
38317.67165361305
 31
0.0
  0
LINE
  5
42
330
2B
100
AcDbEntity
  8
0
 62
     0
100
AcDbLine
 10
7547.404741544875
 20
38315.03500453393
 30
0.0
 11
7549.690671024915
 21
38317.32093401396
 31
0.0
  0
LINE
  5
43
330
2B
100
AcDbEntity
  8
0
 62
     0
100
AcDbLine
 10
7559.551466700829
 20
38327.18172968988
 30
0.0
 11
7559.677730929961
 21
38327.30799391901
 31
0.0
  0
LINE
  5
44
330
2B
100
AcDbEntity
  8
0
 62
     0
100
AcDbLine
 10
7547.48075648845
 20
38314.7574660869
 30
0.0
 11
7549.70881684177
 21
38316.98552644023
 31
0.0
  0
LINE
  5
45
330
2B
100
AcDbEntity
  8
0
 62
     0
100
AcDbLine
 10
7559.55146670083
 20
38326.82817629929
 30
0.0
 11
7559.955269376978
 21
38327.23197897544
 31
0.0
  0
LINE
  5
46
330
2B
100
AcDbEntity
  8
0
 62
     0
100
AcDbLine
 10
7547.563307273434
 20
38314.4864634813
 30
0.0
 11
7549.740520239726
 21
38316.66367644759
 31
0.0
  0
LINE
  5
47
330
2B
100
AcDbEntity
  8
0
 62
     0
100
AcDbLine
 10
7559.55146670083
 20
38326.47462290869
 30
0.0
 11
7560.226271982587
 21
38327.14942819045
 31
0.0
  0
LINE
  5
48
330
2B
100
AcDbEntity
  8
0
 62
     0
100
AcDbLine
 10
7547.652106092018
 20
38314.22170890928
 30
0.0
 11
7549.78440467424
 21
38316.35400749151
 31
0.0
  0
LINE
  5
49
330
2B
100
AcDbEntity
  8
0
 62
     0
100
AcDbLine
 10
7559.55146670083
 20
38326.12106951811
 30
0.0
 11
7560.491026554598
 21
38327.06062937187
 31
0.0
  0
LINE
  5
4A
330
2B
100
AcDbEntity
  8
0
 62
     0
100
AcDbLine
 10
7547.746899294245
 20
38313.96294872092
 30
0.0
 11
7549.83936855223
 21
38316.05541797891
 31
0.0
  0
LINE
  5
4B
330
2B
100
AcDbEntity
  8
0
 62
     0
100
AcDbLine
 10
7559.55146670083
 20
38325.76751612751
 30
0.0
 11
7560.749786742964
 21
38326.96583616964
 31
0.0
  0
LINE
  5
4C
330
2B
100
AcDbEntity
  8
0
 62
     0
100
AcDbLine
 10
7547.847462732629
 20
38313.70995876872
 30
0.0
 11
7549.904516136125
 21
38315.76701217221
 31
0.0
  0
LINE
  5
4D
330
2B
100
AcDbEntity
  8
0
 62
     0
100
AcDbLine
 10
7559.55146670083
 20
38325.41396273691
 30
0.0
 11
7561.002776695173
 21
38326.86527273125
 31
0.0
  0
LINE
  5
4E
330
2B
100
AcDbEntity
  8
0
 62
     0
100
AcDbLine
 10
7547.953597964995
 20
38313.46254061049
 30
0.0
 11
7549.979109636341
 21
38315.48805228183
 31
0.0
  0
LINE
  5
4F
330
2B
100
AcDbEntity
  8
0
 62
     0
100
AcDbLine
 10
7559.55146670083
 20
38325.06040934632
 30
0.0
 11
7561.250194853399
 21
38326.75913749889
 31
0.0
  0
LINE
  5
50
330
2B
100
AcDbEntity
  8
0
 62
     0
100
AcDbLine
 10
7548.06512910315
 20
38313.22051835805
 30
0.0
 11
7550.062535023172
 21
38315.21792427807
 31
0.0
  0
LINE
  5
51
330
2B
100
AcDbEntity
  8
0
 62
     0
100
AcDbLine
 10
7559.55146670083
 20
38324.70685595573
 30
0.0
 11
7561.492217105838
 21
38326.64760636074
 31
0.0
  0
LINE
  5
52
330
2B
100
AcDbEntity
  8
0
 62
     0
100
AcDbLine
 10
7548.181900220336
 20
38312.98373608464
 30
0.0
 11
7550.154277104557
 21
38314.95611296886
 31
0.0
  0
LINE
  5
53
330
2B
100
AcDbEntity
  8
0
 62
     0
100
AcDbLine
 10
7559.756622495022
 20
38324.55845835933
 30
0.0
 11
7561.728999379245
 21
38326.53083524355
 31
0.0
  0
LINE
  5
54
330
2B
100
AcDbEntity
  8
0
 62
     0
100
AcDbLine
 10
7548.303773173865
 20
38312.75205564758
 30
0.0
 11
7550.253900952009
 21
38314.70218342572
 31
0.0
  0
LINE
  5
55
330
2B
100
AcDbEntity
  8
0
 62
     0
100
AcDbLine
 10
7560.010552038166
 20
38324.45883451187
 30
0.0
 11
7561.960679816312
 21
38326.40896229002
 31
0.0
  0
LINE
  5
56
330
2B
100
AcDbEntity
  8
0
 62
     0
100
AcDbLine
 10
7548.430625794513
 20
38312.52535487763
 30
0.0
 11
7550.361037856617
 21
38314.45576693974
 31
0.0
  0
LINE
  5
57
330
2B
100
AcDbEntity
  8
0
 62
     0
100
AcDbLine
 10
7560.25696852415
 20
38324.35169760727
 30
0.0
 11
7562.187380586255
 21
38326.28210966937
 31
0.0
  0
LINE
  5
58
330
2B
100
AcDbEntity
  8
0
 62
     0
100
AcDbLine
 10
7548.56235035529
 20
38312.30352604781
 30
0.0
 11
7550.475374532179
 21
38314.21655022471
 31
0.0
  0
LINE
  5
59
330
2B
100
AcDbEntity
  8
0
 62
     0
100
AcDbLine
 10
7560.496185239184
 20
38324.2373609317
 30
0.0
 11
7562.409209416071
 21
38326.15038510859
 31
0.0
  0
LINE
  5
5A
330
2B
100
AcDbEntity
  8
0
 62
     0
100
AcDbLine
 10
7548.698852300235
 20
38312.08647460217
 30
0.0
 11
7550.596644752514
 21
38313.98426705444
 31
0.0
  0
LINE
  5
5B
330
2B
100
AcDbEntity
  8
0
 62
     0
100
AcDbLine
 10
7560.72846840944
 20
38324.11609071137
 30
0.0
 11
7562.626260861719
 21
38326.01388316365
 31
0.0
  0
LINE
  5
5C
330
2B
100
AcDbEntity
  8
0
 62
     0
100
AcDbLine
 10
7548.840049158278
 20
38311.87411806961
 30
0.0
 11
7550.724622775321
 21
38313.75869168666
 31
0.0
  0
LINE
  5
5D
330
2B
100
AcDbEntity
  8
0
 62
     0
100
AcDbLine
 10
7560.954043777228
 20
38323.98811268856
 30
0.0
 11
7562.838617394271
 21
38325.87268630561
 31
0.0
  0
LINE
  5
5E
330
2B
100
AcDbEntity
  8
0
 62
     0
100
AcDbLine
 10
7548.98586964767
 20
38311.66638516842
 30
0.0
 11
7550.859118178296
 21
38313.53963369904
 31
0.0
  0
LINE
  5
5F
330
2B
100
AcDbEntity
  8
0
 62
     0
100
AcDbLine
 10
7561.173101764847
 20
38323.8536172856
 30
0.0
 11
7563.046350295469
 21
38325.72686581621
 31
0.0
  0
LINE
  5
60
330
2B
100
AcDbEntity
  8
0
 62
     0
100
AcDbLine
 10
7549.136252917934
 20
38311.46321504809
 30
0.0
 11
7550.999971761855
 21
38313.326933892
 31
0.0
  0
LINE
  5
61
330
2B
100
AcDbEntity
  8
0
 62
     0
100
AcDbLine
 10
7561.385801571882
 20
38323.71276370204
 30
0.0
 11
7563.249520415801
 21
38325.57648254595
 31
0.0
  0
LINE
  5
62
330
2B
100
AcDbEntity
  8
0
 62
     0
100
AcDbLine
 10
7549.291147931192
 20
38311.26455667075
 30
0.0
 11
7551.147052324511
 21
38313.12046106407
 31
0.0
  0
LINE
  5
63
330
2B
100
AcDbEntity
  8
0
 62
     0
100
AcDbLine
 10
7561.592274399817
 20
38323.56568313938
 30
0.0
 11
7563.448178793135
 21
38325.42158753269
 31
0.0
  0
LINE
  5
64
330
2B
100
AcDbEntity
  8
0
 62
     0
100
AcDbLine
 10
7549.45051294722
 20
38311.07036829619
 30
0.0
 11
7551.300254119279
 21
38312.92010946824
 31
0.0
  0
LINE
  5
65
330
2B
100
AcDbEntity
  8
0
 62
     0
100
AcDbLine
 10
7561.79262599564
 20
38323.41248134461
 30
0.0
 11
7563.642367167701
 21
38325.26222251667
 31
0.0
  0
LINE
  5
66
330
2B
100
AcDbEntity
  8
0
 62
     0
100
AcDbLine
 10
7549.614315121096
 20
38310.88061707946
 30
0.0
 11
7551.45949489909
 21
38312.72579685746
 31
0.0
  0
LINE
  5
67
330
2B
100
AcDbEntity
  8
0
 62
     0
100
AcDbLine
 10
7561.986938606423
 20
38323.25324056479
 30
0.0
 11
7563.83211838442
 21
38325.09842034279
 31
0.0
  0
LINE
  5
68
330
2B
100
AcDbEntity
  8
0
 62
     0
100
AcDbLine
 10
7549.782530188679
 20
38310.69527875646
 30
0.0
 11
7551.624714441908
 21
38312.53746300969
 31
0.0
  0
LINE
  5
69
330
2B
100
AcDbEntity
  8
0
 62
     0
100
AcDbLine
 10
7562.175272454197
 20
38323.08802102197
 30
0.0
 11
7564.017456707427
 21
38324.93020527521
 31
0.0
  0
LINE
  5
6A
330
2B
100
AcDbEntity
  8
0
 62
     0
100
AcDbLine
 10
7549.955142232308
 20
38310.51433740949
 30
0.0
 11
7551.795873491506
 21
38312.35506866869
 31
0.0
  0
LINE
  5
6B
330
2B
100
AcDbEntity
  8
0
 62
     0
100
AcDbLine
 10
7562.357666795195
 20
38322.91686197238
 30
0.0
 11
7564.198398054394
 21
38324.75759323158
 31
0.0
  0
LINE
  5
6C
330
2B
100
AcDbEntity
  8
0
 62
     0
100
AcDbLine
 10
7550.132143538864
 20
38310.33778532545
 30
0.0
 11
7551.972953093407
 21
38312.17859488
 31
0.0
  0
LINE
  5
6D
330
2B
100
AcDbEntity
  8
0
 62
     0
100
AcDbLine
 10
7562.534140583887
 20
38322.73978237048
 30
0.0
 11
7564.374950138429
 21
38324.58059192502
 31
0.0
  0
LINE
  5
6E
330
2B
100
AcDbEntity
  8
0
 62
     0
100
AcDbLine
 10
7550.313534523938
 20
38310.16562291993
 30
0.0
 11
7552.155954267665
 21
38312.00804266366
 31
0.0
  0
LINE
  5
6F
330
2B
100
AcDbEntity
  8
0
 62
     0
100
AcDbLine
 10
7562.704692800224
 20
38322.55678119622
 30
0.0
 11
7564.547112543952
 21
38324.39920093995
 31
0.0
  0
LINE
  5
70
330
2B
100
AcDbEntity
  8
0
 62
     0
100
AcDbLine
 10
7550.499323737759
 20
38309.99785874316
 30
0.0
 11
7552.344898028927
 21
38311.84343303434
 31
0.0
  0
LINE
  5
71
330
2B
100
AcDbEntity
  8
0
 62
     0
100
AcDbLine
 10
7562.869302429553
 20
38322.36783743496
 30
0.0
 11
7564.714876720721
 21
38324.21341172613
 31
0.0
  0
LINE
  5
72
330
2B
100
AcDbEntity
  8
0
 62
     0
100
AcDbLine
 10
7550.689527939951
 20
38309.83450955476
 30
0.0
 11
7552.539825736836
 21
38311.68480735165
 31
0.0
  0
LINE
  5
73
330
2B
100
AcDbEntity
  8
0
 62
     0
100
AcDbLine
 10
7563.027928112238
 20
38322.17290972705
 30
0.0
 11
7564.878225909125
 21
38324.02320752393
 31
0.0
  0
LINE
  5
74
330
2B
100
AcDbEntity
  8
0
 62
     0
100
AcDbLine
 10
7550.884172265728
 20
38309.67560048995
 30
0.0
 11
7552.740799819282
 21
38311.5322280435
 31
0.0
  0
LINE
  5
75
330
2B
100
AcDbEntity
  8
0
 62
     0
100
AcDbLine
 10
7563.180507420385
 20
38321.9719356446
 30
0.0
 11
7565.037134973938
 21
38323.82856319815
 31
0.0
  0
LINE
  5
76
330
2B
100
AcDbEntity
  8
0
 62
     0
100
AcDbLine
 10
7551.083290451916
 20
38309.52116528554
 30
0.0
 11
7552.947904849934
 21
38311.38577968355
 31
0.0
  0
LINE
  5
77
330
2B
100
AcDbEntity
  8
0
 62
     0
100
AcDbLine
 10
7563.326955780327
 20
38321.76483061395
 30
0.0
 11
7565.191570178346
 21
38323.62944501197
 31
0.0
  0
LINE
  5
78
330
2B
100
AcDbEntity
  8
0
 62
     0
100
AcDbLine
 10
7551.286925170543
 20
38309.37124661357
 30
0.0
 11
7553.161249083053
 21
38311.24557052608
 31
0.0
  0
LINE
  5
79
330
2B
100
AcDbEntity
  8
0
 62
     0
100
AcDbLine
 10
7563.467164937801
 20
38321.55148638083
 30
0.0
 11
7565.341488850311
 21
38323.42581029334
 31
0.0
  0
LINE
  5
7A
330
2B
100
AcDbEntity
  8
0
 62
     0
100
AcDbLine
 10
7551.495128439071
 20
38309.2258964915
 30
0.0
 11
7553.380966459561
 21
38311.111734512
 31
0.0
  0
LINE
  5
7B
330
2B
100
AcDbEntity
  8
0
 62
     0
100
AcDbLine
 10
7563.601000951887
 20
38321.33176900432
 30
0.0
 11
7565.486838972377
 21
38323.21760702481
 31
0.0
  0
LINE
  5
7C
330
2B
100
AcDbEntity
  8
0
 62
     0
100
AcDbLine
 10
7551.707962145908
 20
38309.08517680775
 30
0.0
 11
7553.607219214942
 21
38310.98443387678
 31
0.0
  0
LINE
  5
7D
330
2B
100
AcDbEntity
  8
0
 62
     0
100
AcDbLine
 10
7563.728301587097
 20
38321.10551624894
 30
0.0
 11
7565.627558656132
 21
38323.00477331798
 31
0.0
  0
LINE
  5
7E
330
2B
100
AcDbEntity
  8
0
 62
     0
100
AcDbLine
 10
7551.925498678911
 20
38308.94915995016
 30
0.0
 11
7553.840201179766
 21
38310.86386245102
 31
0.0
  0
LINE
  5
7F
330
2B
100
AcDbEntity
  8
0
 62
     0
100
AcDbLine
 10
7563.848873012869
 20
38320.87253428412
 30
0.0
 11
7565.763575513725
 21
38322.78723678498
 31
0.0
  0
LINE
  5
80
330
2B
100
AcDbEntity
  8
0
 62
     0
100
AcDbLine
 10
7552.147821705237
 20
38308.8179295859
 30
0.0
 11
7554.080141986708
 21
38310.75024986737
 31
0.0
  0
LINE
  5
81
330
2B
100
AcDbEntity
  8
0
 62
     0
100
AcDbLine
 10
7563.962485596518
 20
38320.63259347718
 30
0.0
 11
7565.894805877988
 21
38322.56491375865
 31
0.0
  0
LINE
  5
82
330
2B
100
AcDbEntity
  8
0
 62
     0
100
AcDbLine
 10
7552.37502707658
 20
38308.69158156665
 30
0.0
 11
7554.327312351387
 21
38310.64386684145
 31
0.0
  0
LINE
  5
83
330
2B
100
AcDbEntity
  8
0
 62
     0
100
AcDbLine
 10
7564.068868622434
 20
38320.3854231125
 30
0.0
 11
7566.021153897238
 21
38322.3377083873
 31
0.0
  0
LINE
  5
84
330
2B
100
AcDbEntity
  8
0
 62
     0
100
AcDbLine
 10
7552.607223931885
 20
38308.57022503136
 30
0.0
 11
7554.582030808226
 21
38310.54503190769
 31
0.0
  0
LINE
  5
85
330
2B
100
AcDbEntity
  8
0
 62
     0
100
AcDbLine
 10
7564.167703556186
 20
38320.13070465566
 30
0.0
 11
7566.142510432529
 21
38322.105511532
 31
0.0
  0
LINE
  5
86
330
2B
100
AcDbEntity
  8
0
 62
     0
100
AcDbLine
 10
7552.844536005736
 20
38308.45398371461
 30
0.0
 11
7554.844672308899
 21
38310.45412001778
 31
0.0
  0
LINE
  5
87
330
2B
100
AcDbEntity
  8
0
 62
     0
100
AcDbLine
 10
7564.258615446107
 20
38319.86806315498
 30
0.0
 11
7566.258751749271
 21
38321.86819945815
 31
0.0
  0
LINE
  5
88
330
2B
100
AcDbEntity
  8
0
 62
     0
100
AcDbLine
 10
7553.087103168977
 20
38308.34299748726
 30
0.0
 11
7555.115679283453
 21
38310.37157360174
 31
0.0
  0
LINE
  5
89
330
2B
100
AcDbEntity
  8
0
 62
     0
100
AcDbLine
 10
7564.341161862147
 20
38319.59705618043
 30
0.0
 11
7566.369737976623
 21
38321.62563229491
 31
0.0
  0
LINE
  5
8A
330
2B
100
AcDbEntity
  8
0
 62
     0
100
AcDbLine
 10
7553.335083289008
 20
38308.23742421669
 30
0.0
 11
7555.395576104146
 21
38310.29791703184
 31
0.0
  0
LINE
  5
8B
330
2B
100
AcDbEntity
  8
0
 62
     0
100
AcDbLine
 10
7564.414818432047
 20
38319.31715935974
 30
0.0
 11
7566.475311247185
 21
38321.37765217488
 31
0.0
  0
LINE
  5
8C
330
2B
100
AcDbEntity
  8
0
 62
     0
100
AcDbLine
 10
7553.588654430176
 20
38308.13744196728
 30
0.0
 11
7555.684988188501
 21
38310.2337757256
 31
0.0
  0
LINE
  5
8D
330
2B
100
AcDbEntity
  8
0
 62
     0
100
AcDbLine
 10
7564.478959738285
 20
38319.02774727538
 30
0.0
 11
7566.575293496612
 21
38321.12408103371
 31
0.0
  0
LINE
  5
8E
330
2B
100
AcDbEntity
  8
0
 62
     0
100
AcDbLine
 10
7553.84801751806
 20
38308.04325166456
 30
0.0
 11
7555.984667746004
 21
38310.17990189251
 31
0.0
  0
LINE
  5
8F
330
2B
100
AcDbEntity
  8
0
 62
     0
100
AcDbLine
 10
7564.532833571374
 20
38318.72806771788
 30
0.0
 11
7566.66948379932
 21
38320.86471794582
 31
0.0
  0
LINE
  5
90
330
2B
100
AcDbEntity
  8
0
 62
     0
100
AcDbLine
 10
7554.113399526852
 20
38307.95508028276
 30
0.0
 11
7556.295529092301
 21
38310.13720984822
 31
0.0
  0
LINE
  5
91
330
2B
100
AcDbEntity
  8
0
 62
     0
100
AcDbLine
 10
7564.575525615672
 20
38318.41720637159
 30
0.0
 11
7566.757655181122
 21
38320.59933593703
 31
0.0
  0
LINE
  5
92
330
2B
100
AcDbEntity
  8
0
 62
     0
100
AcDbLine
 10
7554.3850573776
 20
38307.87318474292
 30
0.0
 11
7556.61869835341
 21
38310.10682571873
 31
0.0
  0
LINE
  5
93
330
2B
100
AcDbEntity
  8
0
 62
     0
100
AcDbLine
 10
7564.605909745155
 20
38318.09403711047
 30
0.0
 11
7566.839550720965
 21
38320.32767808629
 31
0.0
  0
LINE
  5
94
330
2B
100
AcDbEntity
  8
0
 62
     0
100
AcDbLine
 10
7554.663282676997
 20
38307.79785665173
 30
0.0
 11
7556.955585301918
 21
38310.09015927664
 31
0.0
  0
LINE
  5
95
330
2B
100
AcDbEntity
  8
0
 62
     0
100
AcDbLine
 10
7564.622576187241
 20
38317.75715016196
 30
0.0
 11
7566.914878812162
 21
38320.04945278688
 31
0.0
  0
LINE
  5
96
330
2B
100
AcDbEntity
  8
0
 62
     0
100
AcDbLine
 10
7554.94840758095
 20
38307.72942816508
 30
0.0
 11
7557.307990828201
 21
38310.08901141233
 31
0.0
  0
LINE
  5
97
330
2B
100
AcDbEntity
  8
0
 62
     0
100
AcDbLine
 10
7564.623724051552
 20
38317.40474463568
 30
0.0
 11
7566.983307298802
 21
38319.76432788293
 31
0.0
  0
LINE
  5
98
330
2B
100
AcDbEntity
  8
0
 62
     0
100
AcDbLine
 10
7555.240812071867
 20
38307.66827926541
 30
0.0
 11
7557.678274308155
 21
38310.1057415017
 31
0.0
  0
LINE
  5
99
330
2B
100
AcDbEntity
  8
0
 62
     0
100
AcDbLine
 10
7564.606993962192
 20
38317.03446115573
 30
0.0
 11
7567.04445619848
 21
38319.47192339202
 31
0.0
  0
LINE
  5
9A
330
2B
100
AcDbEntity
  8
0
 62
     0
100
AcDbLine
 10
7555.540933132421
 20
38307.61484693537
 30
0.0
 11
7558.069627783718
 21
38310.14354158666
 31
0.0
  0
LINE
  5
9B
330
2B
100
AcDbEntity
  8
0
 62
     0
100
AcDbLine
 10
7564.569193877223
 20
38316.64310768017
 30
0.0
 11
7567.097888528518
 21
38319.17180233146
 31
0.0
  0
LINE
  5
9C
330
2B
100
AcDbEntity
  8
0
 62
     0
100
AcDbLine
 10
7555.849276391206
 20
38307.56963680356
 30
0.0
 11
7558.48655454054
 21
38310.2069149529
 31
0.0
  0
LINE
  5
9D
330
2B
100
AcDbEntity
  8
0
 62
     0
100
AcDbLine
 10
7564.505820510993
 20
38316.22618092334
 30
0.0
 11
7567.14309866033
 21
38318.86345907268
 31
0.0
  0
LINE
  5
9E
330
2B
100
AcDbEntity
  8
0
 62
     0
100
AcDbLine
 10
7556.166431173038
 20
38307.5332381948
 30
0.0
 11
7558.935777425626
 21
38310.30258444739
 31
0.0
  0
LINE
  5
9F
330
2B
100
AcDbEntity
  8
0
 62
     0
100
AcDbLine
 10
7564.4101510165
 20
38315.77695803825
 30
0.0
 11
7567.179497269087
 21
38318.54630429085
 31
0.0
  0
LINE
  5
A0
330
2B
100
AcDbEntity
  8
0
 62
     0
100
AcDbLine
 10
7556.493090184438
 20
38307.5063438156
 30
0.0
 11
7559.428172745128
 21
38310.44142637629
 31
0.0
  0
LINE
  5
A1
330
2B
100
AcDbEntity
  8
0
 62
     0
100
AcDbLine
 10
7564.27130908759
 20
38315.28456271875
 30
0.0
 11
7567.206391648281
 21
38318.21964527945
 31
0.0
  0
LINE
  5
A2
330
2B
100
AcDbEntity
  8
0
 62
     0
100
AcDbLine
 10
7556.830075760625
 20
38307.4897760012
 30
0.0
 11
7559.98365362811
 21
38310.64335386868
 31
0.0
  0
LINE
  5
A3
330
2B
100
AcDbEntity
  8
0
 62
     0
100
AcDbLine
 10
7564.069381595202
 20
38314.72908183578
 30
0.0
 11
7567.222959462687
 21
38317.88265970326
 31
0.0
  0
LINE
  5
A4
330
2B
100
AcDbEntity
  8
0
 62
     0
100
AcDbLine
 10
7557.178375525669
 20
38307.48452237564
 30
0.0
 11
7560.647629142907
 21
38310.95377599289
 31
0.0
  0
LINE
  5
A5
330
2B
100
AcDbEntity
  8
0
 62
     0
100
AcDbLine
 10
7563.758959470998
 20
38314.06510632098
 30
0.0
 11
7567.228213088236
 21
38317.53435993821
 31
0.0
  0
LINE
  5
A6
330
2B
100
AcDbEntity
  8
0
 62
     0
100
AcDbLine
 10
7557.539191989786
 20
38307.49178544917
 30
0.0
 11
7561.602642576334
 21
38311.55523603572
 31
0.0
  0
LINE
  5
A7
330
2B
100
AcDbEntity
  8
0
 62
     0
100
AcDbLine
 10
7563.157499428166
 20
38313.11009288755
 30
0.0
 11
7567.220950014712
 21
38317.17354347409
 31
0.0
  0
LINE
  5
A8
330
2B
100
AcDbEntity
  8
0
 62
     0
100
AcDbLine
 10
7557.91401338506
 20
38307.51305345385
 30
0.0
 11
7567.199682010032
 21
38316.79872207883
 31
0.0
  0
LINE
  5
A9
330
2B
100
AcDbEntity
  8
0
 62
     0
100
AcDbLine
 10
7558.304718058831
 20
38307.55020473703
 30
0.0
 11
7567.162530726855
 21
38316.40801740505
 31
0.0
  0
LINE
  5
AA
330
2B
100
AcDbEntity
  8
0
 62
     0
100
AcDbLine
 10
7558.713734297059
 20
38307.60566758467
 30
0.0
 11
7567.107067879219
 21
38315.99900116682
 31
0.0
  0
LINE
  5
AB
330
2B
100
AcDbEntity
  8
0
 62
     0
100
AcDbLine
 10
7559.144296475287
 20
38307.6826763723
 30
0.0
 11
7567.030059091585
 21
38315.5684389886
 31
0.0
  0
LINE
  5
AC
330
2B
100
AcDbEntity
  8
0
 62
     0
100
AcDbLine
 10
7559.600880107381
 20
38307.7857066138
 30
0.0
 11
7566.927028850085
 21
38315.11185535651
 31
0.0
  0
LINE
  5
AD
330
2B
100
AcDbEntity
  8
0
 62
     0
100
AcDbLine
 10
7560.089997715171
 20
38307.921270831
 30
0.0
 11
7566.791464632887
 21
38314.62273774871
 31
0.0
  0
LINE
  5
AE
330
2B
100
AcDbEntity
  8
0
 62
     0
100
AcDbLine
 10
7560.621808358416
 20
38308.09952808365
 30
0.0
 11
7566.613207380235
 21
38314.09092710547
 31
0.0
  0
LINE
  5
AF
330
2B
100
AcDbEntity
  8
0
 62
     0
100
AcDbLine
 10
7561.213874439379
 20
38308.33804077402
 30
0.0
 11
7566.374694689867
 21
38313.49886102451
 31
0.0
  0
LINE
  5
B0
330
2B
100
AcDbEntity
  8
0
 62
     0
100
AcDbLine
 10
7561.902168497638
 20
38308.67278144168
 30
0.0
 11
7566.039954022198
 21
38312.81056696624
 31
0.0
  0
LINE
  5
B1
330
2B
100
AcDbEntity
  8
0
 62
     0
100
AcDbLine
 10
7562.791512729979
 20
38309.20857228344
 30
0.0
 11
7565.504163180455
 21
38311.92122273391
 31
0.0
  0
ENDBLK
  5
B3
330
2B
100
AcDbEntity
  8
0
100
AcDbBlockEnd
  0
BLOCK
  5
11A
330
B4
100
AcDbEntity
  8
0
100
AcDbBlockBegin
  2
*X1
 70
     1
 10
0.0
 20
0.0
 30
0.0
  3
*X1
  1

  0
LINE
  5
B5
330
B4
100
AcDbEntity
  8
0
 62
     0
100
AcDbLine
 10
7553.289389401773
 20
38313.49503118836
 30
0.0
 11
7555.458345098933
 21
38315.66398688552
 31
0.0
  0
LINE
  5
B6
330
B4
100
AcDbEntity
  8
0
 62
     0
100
AcDbLine
 10
7560.794536128462
 20
38321.00017791505
 30
0.0
 11
7561.354568330577
 21
38321.56021011717
 31
0.0
  0
LINE
  5
B7
330
B4
100
AcDbEntity
  8
0
 62
     0
100
AcDbLine
 10
7559.019054803965
 20
38319.22469659056
 30
0.0
 11
7559.357830739061
 21
38319.56347252565
 31
0.0
  0
LINE
  5
B8
330
B4
100
AcDbEntity
  8
0
 62
     0
100
AcDbLine
 10
7553.109989373834
 20
38313.66918455102
 30
0.0
 11
7555.332128576691
 21
38315.89132375388
 31
0.0
  0
LINE
  5
B9
330
B4
100
AcDbEntity
  8
0
 62
     0
100
AcDbLine
 10
7560.607236613868
 20
38321.16643179105
 30
0.0
 11
7561.180414967921
 21
38321.73961014511
 31
0.0
  0
LINE
  5
BA
330
B4
100
AcDbEntity
  8
0
 62
     0
100
AcDbLine
 10
7558.665501413371
 20
38319.22469659056
 30
0.0
 11
7559.004277348468
 21
38319.56347252565
 31
0.0
  0
LINE
  5
BB
330
B4
100
AcDbEntity
  8
0
 62
     0
100
AcDbLine
 10
7552.938337776616
 20
38313.85108634439
 30
0.0
 11
7555.20591205445
 21
38316.11866062223
 31
0.0
  0
LINE
  5
BC
330
B4
100
AcDbEntity
  8
0
 62
     0
100
AcDbLine
 10
7560.398645619021
 20
38321.3113941868
 30
0.0
 11
7560.998513174547
 21
38321.91126174233
 31
0.0
  0
LINE
  5
BD
330
B4
100
AcDbEntity
  8
0
 62
     0
100
AcDbLine
 10
7558.311948022776
 20
38319.22469659056
 30
0.0
 11
7558.650723957874
 21
38319.56347252565
 31
0.0
  0
LINE
  5
BE
330
B4
100
AcDbEntity
  8
0
 62
     0
100
AcDbLine
 10
7552.774464269912
 20
38314.04076622829
 30
0.0
 11
7555.079695532207
 21
38316.34599749058
 31
0.0
  0
LINE
  5
BF
330
B4
100
AcDbEntity
  8
0
 62
     0
100
AcDbLine
 10
7560.167320354981
 20
38321.43362231335
 30
0.0
 11
7560.808833290657
 21
38322.07513524903
 31
0.0
  0
LINE
  5
C0
330
B4
100
AcDbEntity
  8
0
 62
     0
100
AcDbLine
 10
7557.958394632183
 20
38319.22469659056
 30
0.0
 11
7558.29717056728
 21
38319.56347252565
 31
0.0
  0
LINE
  5
C1
330
B4
100
AcDbEntity
  8
0
 62
     0
100
AcDbLine
 10
7552.61844418819
 20
38314.23829953715
 30
0.0
 11
7554.953479009966
 21
38316.57333435893
 31
0.0
  0
LINE
  5
C2
330
B4
100
AcDbEntity
  8
0
 62
     0
100
AcDbLine
 10
7559.910461533106
 20
38321.53031688207
 30
0.0
 11
7560.611299981786
 21
38322.23115533075
 31
0.0
  0
LINE
  5
C3
330
B4
100
AcDbEntity
  8
0
 62
     0
100
AcDbLine
 10
7557.60484124159
 20
38319.22469659056
 30
0.0
 11
7557.943617176687
 21
38319.56347252565
 31
0.0
  0
LINE
  5
C4
330
B4
100
AcDbEntity
  8
0
 62
     0
100
AcDbLine
 10
7552.470400785671
 20
38314.44380952523
 30
0.0
 11
7554.827262487724
 21
38316.80067122728
 31
0.0
  0
LINE
  5
C5
330
B4
100
AcDbEntity
  8
0
 62
     0
100
AcDbLine
 10
7559.623039029709
 20
38321.59644776926
 30
0.0
 11
7560.405789993715
 21
38322.37919873327
 31
0.0
  0
LINE
  5
C6
330
B4
100
AcDbEntity
  8
0
 62
     0
100
AcDbLine
 10
7557.251287850997
 20
38319.22469659056
 30
0.0
 11
7557.590063786093
 21
38319.56347252565
 31
0.0
  0
LINE
  5
C7
330
B4
100
AcDbEntity
  8
0
 62
     0
100
AcDbLine
 10
7552.330508981397
 20
38314.65747111155
 30
0.0
 11
7554.701045965481
 21
38317.02800809564
 31
0.0
  0
LINE
  5
C8
330
B4
100
AcDbEntity
  8
0
 62
     0
100
AcDbLine
 10
7559.295580661149
 20
38321.6225427913
 30
0.0
 11
7560.192128407393
 21
38322.51909053755
 31
0.0
  0
LINE
  5
C9
330
B4
100
AcDbEntity
  8
0
 62
     0
100
AcDbLine
 10
7556.897734460403
 20
38319.22469659056
 30
0.0
 11
7557.236510395501
 21
38319.56347252565
 31
0.0
  0
LINE
  5
CA
330
B4
100
AcDbEntity
  8
0
 62
     0
100
AcDbLine
 10
7552.199000911461
 20
38314.8795164322
 30
0.0
 11
7554.574829443239
 21
38317.25534496399
 31
0.0
  0
LINE
  5
CB
330
B4
100
AcDbEntity
  8
0
 62
     0
100
AcDbLine
 10
7558.90716733662
 20
38321.58768285736
 30
0.0
 11
7559.970083086739
 21
38322.65059860748
 31
0.0
  0
LINE
  5
CC
330
B4
100
AcDbEntity
  8
0
 62
     0
100
AcDbLine
 10
7556.54418106981
 20
38319.22469659056
 30
0.0
 11
7556.882957004908
 21
38319.56347252565
 31
0.0
  0
LINE
  5
CD
330
B4
100
AcDbEntity
  8
0
 62
     0
100
AcDbLine
 10
7557.184403641975
 20
38319.86491916272
 30
0.0
 11
7557.197799616639
 21
38319.87831513739
 31
0.0
  0
LINE
  5
CE
330
B4
100
AcDbEntity
  8
0
 62
     0
100
AcDbLine
 10
7552.076173718996
 20
38315.11024263033
 30
0.0
 11
7554.448612920997
 21
38317.48268183233
 31
0.0
  0
LINE
  5
CF
330
B4
100
AcDbEntity
  8
0
 62
     0
100
AcDbLine
 10
7558.387008671385
 20
38321.42107758272
 30
0.0
 11
7559.739356888609
 21
38322.77342579994
 31
0.0
  0
LINE
  5
D0
330
B4
100
AcDbEntity
  8
0
 62
     0
100
AcDbLine
 10
7556.190627679217
 20
38319.22469659056
 30
0.0
 11
7556.529403614314
 21
38319.56347252565
 31
0.0
  0
LINE
  5
D1
330
B4
100
AcDbEntity
  8
0
 62
     0
100
AcDbLine
 10
7557.129727291645
 20
38320.16379620298
 30
0.0
 11
7557.364404891282
 21
38320.39847380262
 31
0.0
  0
LINE
  5
D2
330
B4
100
AcDbEntity
  8
0
 62
     0
100
AcDbLine
 10
7551.962400197808
 20
38315.35002249974
 30
0.0
 11
7554.322396398756
 21
38317.71001870068
 31
0.0
  0
LINE
  5
D3
330
B4
100
AcDbEntity
  8
0
 62
     0
100
AcDbLine
 10
7557.039438403371
 20
38320.4270607053
 30
0.0
 11
7559.499577019201
 21
38322.88719932113
 31
0.0
  0
LINE
  5
D4
330
B4
100
AcDbEntity
  8
0
 62
     0
100
AcDbLine
 10
7555.837074288624
 20
38319.22469659056
 30
0.0
 11
7556.175850223721
 21
38319.56347252565
 31
0.0
  0
LINE
  5
D5
330
B4
100
AcDbEntity
  8
0
 62
     0
100
AcDbLine
 10
7551.85814330748
 20
38315.59931900001
 30
0.0
 11
7554.196179876512
 21
38317.93735556903
 31
0.0
  0
LINE
  5
D6
330
B4
100
AcDbEntity
  8
0
 62
     0
100
AcDbLine
 10
7556.920470549373
 20
38320.6616462419
 30
0.0
 11
7559.250280518938
 21
38322.99145621146
 31
0.0
  0
LINE
  5
D7
330
B4
100
AcDbEntity
  8
0
 62
     0
100
AcDbLine
 10
7555.483520898031
 20
38319.22469659056
 30
0.0
 11
7555.822296833127
 21
38319.56347252565
 31
0.0
  0
LINE
  5
D8
330
B4
100
AcDbEntity
  8
0
 62
     0
100
AcDbLine
 10
7551.763975977491
 20
38315.8587050606
 30
0.0
 11
7554.069963354272
 21
38318.16469243739
 31
0.0
  0
LINE
  5
D9
330
B4
100
AcDbEntity
  8
0
 62
     0
100
AcDbLine
 10
7556.776461923317
 20
38320.87119100643
 30
0.0
 11
7558.990894458334
 21
38323.08562354145
 31
0.0
  0
LINE
  5
DA
330
B4
100
AcDbEntity
  8
0
 62
     0
100
AcDbLine
 10
7555.129967507437
 20
38319.22469659056
 30
0.0
 11
7555.468743442535
 21
38319.56347252565
 31
0.0
  0
LINE
  5
DB
330
B4
100
AcDbEntity
  8
0
 62
     0
100
AcDbLine
 10
7551.680608492969
 20
38316.12889096668
 30
0.0
 11
7553.94374683203
 21
38318.39202930574
 31
0.0
  0
LINE
  5
DC
330
B4
100
AcDbEntity
  8
0
 62
     0
100
AcDbLine
 10
7556.60919950137
 20
38321.05748197508
 30
0.0
 11
7558.720708552262
 21
38323.16899102597
 31
0.0
  0
LINE
  5
DD
330
B4
100
AcDbEntity
  8
0
 62
     0
100
AcDbLine
 10
7554.776414116844
 20
38319.22469659056
 30
0.0
 11
7555.115190051941
 21
38319.56347252565
 31
0.0
  0
LINE
  5
DE
330
B4
100
AcDbEntity
  8
0
 62
     0
100
AcDbLine
 10
7551.608926958635
 20
38316.41076282294
 30
0.0
 11
7553.817530309787
 21
38318.61936617409
 31
0.0
  0
LINE
  5
DF
330
B4
100
AcDbEntity
  8
0
 62
     0
100
AcDbLine
 10
7556.419169571674
 20
38321.22100543598
 30
0.0
 11
7558.438836696002
 21
38323.2406725603
 31
0.0
  0
LINE
  5
E0
330
B4
100
AcDbEntity
  8
0
 62
     0
100
AcDbLine
 10
7554.422860726251
 20
38319.22469659056
 30
0.0
 11
7554.761636661348
 21
38319.56347252565
 31
0.0
  0
LINE
  5
E1
330
B4
100
AcDbEntity
  8
0
 62
     0
100
AcDbLine
 10
7551.550048674489
 20
38316.70543792938
 30
0.0
 11
7553.691313787545
 21
38318.84670304244
 31
0.0
  0
LINE
  5
E2
330
B4
100
AcDbEntity
  8
0
 62
     0
100
AcDbLine
 10
7556.205690885071
 20
38321.36108013997
 30
0.0
 11
7558.144161589556
 21
38323.29955084445
 31
0.0
  0
LINE
  5
E3
330
B4
100
AcDbEntity
  8
0
 62
     0
100
AcDbLine
 10
7554.069307335658
 20
38319.22469659056
 30
0.0
 11
7554.408083270755
 21
38319.56347252565
 31
0.0
  0
LINE
  5
E4
330
B4
100
AcDbEntity
  8
0
 62
     0
100
AcDbLine
 10
7551.505404137372
 20
38317.01434678286
 30
0.0
 11
7553.565097265305
 21
38319.07403991079
 31
0.0
  0
LINE
  5
E5
330
B4
100
AcDbEntity
  8
0
 62
     0
100
AcDbLine
 10
7555.966726155499
 20
38321.47566880099
 30
0.0
 11
7557.835252736079
 21
38323.34419538157
 31
0.0
  0
LINE
  5
E6
330
B4
100
AcDbEntity
  8
0
 62
     0
100
AcDbLine
 10
7553.715753945065
 20
38319.22469659056
 30
0.0
 11
7554.054529880161
 21
38319.56347252565
 31
0.0
  0
LINE
  5
E7
330
B4
100
AcDbEntity
  8
0
 62
     0
100
AcDbLine
 10
7551.476863101601
 20
38317.33935913769
 30
0.0
 11
7553.700976489569
 21
38319.56347252565
 31
0.0
  0
LINE
  5
E8
330
B4
100
AcDbEntity
  8
0
 62
     0
100
AcDbLine
 10
7555.698234172867
 20
38321.56073020895
 30
0.0
 11
7557.510240381256
 21
38323.37273641734
 31
0.0
  0
LINE
  5
E9
330
B4
100
AcDbEntity
  8
0
 62
     0
100
AcDbLine
 10
7551.466937350124
 20
38317.6829867768
 30
0.0
 11
7553.347423098975
 21
38319.56347252565
 31
0.0
  0
LINE
  5
EA
330
B4
100
AcDbEntity
  8
0
 62
     0
100
AcDbLine
 10
7555.392473416825
 20
38321.6085228435
 30
0.0
 11
7557.166612742141
 21
38323.38266216882
 31
0.0
  0
LINE
  5
EB
330
B4
100
AcDbEntity
  8
0
 62
     0
100
AcDbLine
 10
7551.479126421821
 20
38318.04872923909
 30
0.0
 11
7553.30736082011
 21
38319.87696363738
 31
0.0
  0
LINE
  5
EC
330
B4
100
AcDbEntity
  8
0
 62
     0
100
AcDbLine
 10
7555.032887560784
 20
38321.60249037805
 30
0.0
 11
7556.800870279849
 21
38323.37047309712
 31
0.0
  0
LINE
  5
ED
330
B4
100
AcDbEntity
  8
0
 62
     0
100
AcDbLine
 10
7551.518553177699
 20
38318.44170938556
 30
0.0
 11
7553.416286524766
 21
38320.33944273263
 31
0.0
  0
LINE
  5
EE
330
B4
100
AcDbEntity
  8
0
 62
     0
100
AcDbLine
 10
7554.570408465536
 20
38321.4935646734
 30
0.0
 11
7556.40789013338
 21
38323.33104634125
 31
0.0
  0
LINE
  5
EF
330
B4
100
AcDbEntity
  8
0
 62
     0
100
AcDbLine
 10
7551.593258123007
 20
38318.86996772146
 30
0.0
 11
7555.979631797479
 21
38323.25634139593
 31
0.0
  0
LINE
  5
F0
330
B4
100
AcDbEntity
  8
0
 62
     0
100
AcDbLine
 10
7551.717253661312
 20
38319.34751665036
 30
0.0
 11
7555.50208286858
 21
38323.13234585763
 31
0.0
  0
LINE
  5
F1
330
B4
100
AcDbEntity
  8
0
 62
     0
100
AcDbLine
 10
7551.919650816836
 20
38319.90346719648
 30
0.0
 11
7554.946132322462
 21
38322.9299487021
 31
0.0
  0
LINE
  5
F2
330
B4
100
AcDbEntity
  8
0
 62
     0
100
AcDbLine
 10
7552.288611848517
 20
38320.62598161876
 30
0.0
 11
7554.223617900188
 21
38322.56098767042
 31
0.0
  0
LINE
  5
F3
330
B4
100
AcDbEntity
  8
0
 62
     0
100
AcDbLine
 10
7553.476553024063
 20
38313.32864142006
 30
0.0
 11
7555.584561621175
 21
38315.43665001717
 31
0.0
  0
LINE
  5
F4
330
B4
100
AcDbEntity
  8
0
 62
     0
100
AcDbLine
 10
7560.960994048435
 20
38320.81308244443
 30
0.0
 11
7561.520958098879
 21
38321.37304649488
 31
0.0
  0
LINE
  5
F5
330
B4
100
AcDbEntity
  8
0
 62
     0
100
AcDbLine
 10
7559.372608194557
 20
38319.22469659056
 30
0.0
 11
7559.711384129655
 21
38319.56347252565
 31
0.0
  0
LINE
  5
F6
330
B4
100
AcDbEntity
  8
0
 62
     0
100
AcDbLine
 10
7553.671540658013
 20
38313.17007566342
 30
0.0
 11
7555.710778143417
 21
38315.20931314882
 31
0.0
  0
LINE
  5
F7
330
B4
100
AcDbEntity
  8
0
 62
     0
100
AcDbLine
 10
7561.106169335818
 20
38320.60470434122
 30
0.0
 11
7561.679523855524
 21
38321.17805886093
 31
0.0
  0
LINE
  5
F8
330
B4
100
AcDbEntity
  8
0
 62
     0
100
AcDbLine
 10
7559.72616158515
 20
38319.22469659056
 30
0.0
 11
7560.064937520246
 21
38319.56347252565
 31
0.0
  0
LINE
  5
F9
330
B4
100
AcDbEntity
  8
0
 62
     0
100
AcDbLine
 10
7553.874459761992
 20
38313.0194413768
 30
0.0
 11
7555.83699466566
 21
38314.98197628047
 31
0.0
  0
LINE
  5
FA
330
B4
100
AcDbEntity
  8
0
 62
     0
100
AcDbLine
 10
7561.228630106872
 20
38320.37361172168
 30
0.0
 11
7561.830158142139
 21
38320.97513975695
 31
0.0
  0
LINE
  5
FB
330
B4
100
AcDbEntity
  8
0
 62
     0
100
AcDbLine
 10
7560.079714975744
 20
38319.22469659056
 30
0.0
 11
7560.41849091084
 21
38319.56347252565
 31
0.0
  0
LINE
  5
FC
330
B4
100
AcDbEntity
  8
0
 62
     0
100
AcDbLine
 10
7554.08546806322
 20
38312.87689628743
 30
0.0
 11
7555.963211187901
 21
38314.75463941212
 31
0.0
  0
LINE
  5
FD
330
B4
100
AcDbEntity
  8
0
 62
     0
100
AcDbLine
 10
7561.325593339152
 20
38320.11702156337
 30
0.0
 11
7561.972703231503
 21
38320.76413145572
 31
0.0
  0
LINE
  5
FE
330
B4
100
AcDbEntity
  8
0
 62
     0
100
AcDbLine
 10
7560.433268366337
 20
38319.22469659056
 30
0.0
 11
7560.772044301433
 21
38319.56347252565
 31
0.0
  0
LINE
  5
FF
330
B4
100
AcDbEntity
  8
0
 62
     0
100
AcDbLine
 10
7554.304778505309
 20
38312.74265333894
 30
0.0
 11
7556.089427710144
 21
38314.52730254377
 31
0.0
  0
LINE
  5
100
330
B4
100
AcDbEntity
  8
0
 62
     0
100
AcDbLine
 10
7561.392057933985
 20
38319.82993276761
 30
0.0
 11
7562.106946180006
 21
38320.54482101363
 31
0.0
  0
LINE
  5
101
330
B4
100
AcDbEntity
  8
0
 62
     0
100
AcDbLine
 10
7560.786821756931
 20
38319.22469659056
 30
0.0
 11
7561.125597692026
 21
38319.56347252565
 31
0.0
  0
LINE
  5
102
330
B4
100
AcDbEntity
  8
0
 62
     0
100
AcDbLine
 10
7554.532666234876
 20
38312.61698767791
 30
0.0
 11
7556.215644232385
 21
38314.29996567541
 31
0.0
  0
LINE
  5
103
330
B4
100
AcDbEntity
  8
0
 62
     0
100
AcDbLine
 10
7561.140375147522
 20
38319.22469659056
 30
0.0
 11
7562.232611841034
 21
38320.31693328407
 31
0.0
  0
LINE
  5
104
330
B4
100
AcDbEntity
  8
0
 62
     0
100
AcDbLine
 10
7554.769478260421
 20
38312.50024631286
 30
0.0
 11
7556.341860754627
 21
38314.07262880706
 31
0.0
  0
LINE
  5
105
330
B4
100
AcDbEntity
  8
0
 62
     0
100
AcDbLine
 10
7560.80343762587
 20
38318.53420567831
 30
0.0
 11
7562.349353206084
 21
38320.08012125852
 31
0.0
  0
LINE
  5
106
330
B4
100
AcDbEntity
  8
0
 62
     0
100
AcDbLine
 10
7555.015646565514
 20
38312.39286122736
 30
0.0
 11
7556.468077276869
 21
38313.84529193871
 31
0.0
  0
LINE
  5
107
330
B4
100
AcDbEntity
  8
0
 62
     0
100
AcDbLine
 10
7560.266912057572
 20
38317.64412671941
 30
0.0
 11
7562.456738291583
 21
38319.83395295342
 31
0.0
  0
LINE
  5
108
330
B4
100
AcDbEntity
  8
0
 62
     0
100
AcDbLine
 10
7555.271706022252
 20
38312.2953672935
 30
0.0
 11
7556.594293799111
 21
38313.61795507037
 31
0.0
  0
LINE
  5
109
330
B4
100
AcDbEntity
  8
0
 62
     0
100
AcDbLine
 10
7559.730386489274
 20
38316.75404776053
 30
0.0
 11
7562.554232225437
 21
38319.57789349669
 31
0.0
  0
LINE
  5
10A
330
B4
100
AcDbEntity
  8
0
 62
     0
100
AcDbLine
 10
7555.538319000807
 20
38312.20842688146
 30
0.0
 11
7556.720510321352
 21
38313.39061820201
 31
0.0
  0
LINE
  5
10B
330
B4
100
AcDbEntity
  8
0
 62
     0
100
AcDbLine
 10
7559.193860920975
 20
38315.86396880163
 30
0.0
 11
7562.641172637476
 21
38319.31128051813
 31
0.0
  0
LINE
  5
10C
330
B4
100
AcDbEntity
  8
0
 62
     0
100
AcDbLine
 10
7555.816309780488
 20
38312.13286427055
 30
0.0
 11
7556.846726843595
 21
38313.16328133366
 31
0.0
  0
LINE
  5
10D
330
B4
100
AcDbEntity
  8
0
 62
     0
100
AcDbLine
 10
7558.657335352676
 20
38314.97388984274
 30
0.0
 11
7562.716735248388
 21
38319.03328973846
 31
0.0
  0
LINE
  5
10E
330
B4
100
AcDbEntity
  8
0
 62
     0
100
AcDbLine
 10
7556.106713624799
 20
38312.06971472427
 30
0.0
 11
7556.972943365837
 21
38312.93594446531
 31
0.0
  0
LINE
  5
10F
330
B4
100
AcDbEntity
  8
0
 62
     0
100
AcDbLine
 10
7558.120809784377
 20
38314.08381088385
 30
0.0
 11
7562.779884794668
 21
38318.74288589414
 31
0.0
  0
LINE
  5
110
330
B4
100
AcDbEntity
  8
0
 62
     0
100
AcDbLine
 10
7556.410848764961
 20
38312.02029647384
 30
0.0
 11
7557.099159888079
 21
38312.70860759696
 31
0.0
  0
LINE
  5
111
330
B4
100
AcDbEntity
  8
0
 62
     0
100
AcDbLine
 10
7557.58428421608
 20
38313.19373192496
 30
0.0
 11
7562.829303045102
 21
38318.43875075398
 31
0.0
  0
LINE
  5
112
330
B4
100
AcDbEntity
  8
0
 62
     0
100
AcDbLine
 10
7556.730425641693
 20
38311.98631995997
 30
0.0
 11
7562.86327955896
 21
38318.11917387724
 31
0.0
  0
LINE
  5
113
330
B4
100
AcDbEntity
  8
0
 62
     0
100
AcDbLine
 10
7557.067719840117
 20
38311.97006076781
 30
0.0
 11
7562.879538751133
 21
38317.78187967882
 31
0.0
  0
LINE
  5
114
330
B4
100
AcDbEntity
  8
0
 62
     0
100
AcDbLine
 10
7557.425861033109
 20
38311.97464857021
 30
0.0
 11
7562.874950948732
 21
38317.42373848583
 31
0.0
  0
LINE
  5
115
330
B4
100
AcDbEntity
  8
0
 62
     0
100
AcDbLine
 10
7557.809350146492
 20
38312.00458429299
 30
0.0
 11
7562.845015225946
 21
38317.04024937245
 31
0.0
  0
LINE
  5
116
330
B4
100
AcDbEntity
  8
0
 62
     0
100
AcDbLine
 10
7558.225074532694
 20
38312.06675528861
 30
0.0
 11
7562.782844230333
 21
38316.62452498624
 31
0.0
  0
LINE
  5
117
330
B4
100
AcDbEntity
  8
0
 62
     0
100
AcDbLine
 10
7558.684576858424
 20
38312.17270422374
 30
0.0
 11
7562.676895295201
 21
38316.16502266052
 31
0.0
  0
LINE
  5
118
330
B4
100
AcDbEntity
  8
0
 62
     0
100
AcDbLine
 10
7559.210246223783
 20
38312.3448201985
 30
0.0
 11
7562.504779320431
 21
38315.63935329516
 31
0.0
  0
LINE
  5
119
330
B4
100
AcDbEntity
  8
0
 62
     0
100
AcDbLine
 10
7559.859630984184
 20
38312.64065156831
 30
0.0
 11
7562.208947950627
 21
38314.98996853476
 31
0.0
  0
ENDBLK
  5
11B
330
B4
100
AcDbEntity
  8
0
100
AcDbBlockEnd
  0
BLOCK
  5
144
330
11C
100
AcDbEntity
  8
0
100
AcDbBlockBegin
  2
*X2
 70
     1
 10
0.0
 20
0.0
 30
0.0
  3
*X2
  1

  0
LINE
  5
11D
330
11C
100
AcDbEntity
  8
0
 62
     0
100
AcDbLine
 10
372.1063978046203
 20
83.03195326740427
 30
0.0
 11
372.281241084674
 21
83.20679654745799
 31
0.0
  0
LINE
  5
11E
330
11C
100
AcDbEntity
  8
0
 62
     0
100
AcDbLine
 10
373.7443314109918
 20
84.66988687377579
 30
0.0
 11
373.8663713641465
 21
84.79192682693053
 31
0.0
  0
LINE
  5
11F
330
11C
100
AcDbEntity
  8
0
 62
     0
100
AcDbLine
 10
372.6061865363405
 20
83.53174199912446
 30
0.0
 11
372.790097737395
 21
83.715653200179
 31
0.0
  0
LINE
  5
120
330
11C
100
AcDbEntity
  8
0
 62
     0
100
AcDbLine
 10
373.3027425985079
 20
84.22829806129195
 30
0.0
 11
373.4439621650471
 21
84.36951762783113
 31
0.0
  0
LINE
  5
121
330
11C
100
AcDbEntity
  8
0
 62
     0
100
AcDbLine
 10
372.1063971660783
 20
83.30136031249441
 30
0.0
 11
372.2743895677848
 21
83.46935271420091
 31
0.0
  0
LINE
  5
122
330
11C
100
AcDbEntity
  8
0
 62
     0
100
AcDbLine
 10
373.6049177113484
 20
84.79988085776453
 30
0.0
 11
373.7239491952925
 21
84.91891234170857
 31
0.0
  0
LINE
  5
123
330
11C
100
AcDbEntity
  8
0
 62
     0
100
AcDbLine
 10
372.581938027227
 20
83.77690117364313
 30
0.0
 11
372.7039839498887
 21
83.89894709630475
 31
0.0
  0
LINE
  5
124
330
11C
100
AcDbEntity
  8
0
 62
     0
100
AcDbLine
 10
373.2196998339351
 20
84.41466298035129
 30
0.0
 11
373.3619119567568
 21
84.55687510317289
 31
0.0
  0
LINE
  5
125
330
11C
100
AcDbEntity
  8
0
 62
     0
100
AcDbLine
 10
372.1063965275364
 20
83.57076735758449
 30
0.0
 11
372.2743895677848
 21
83.73876039783297
 31
0.0
  0
LINE
  5
126
330
11C
100
AcDbEntity
  8
0
 62
     0
100
AcDbLine
 10
373.1685793667897
 20
84.63295019683789
 30
0.0
 11
373.4976976893316
 21
84.9620685193798
 31
0.0
  0
LINE
  5
127
330
11C
100
AcDbEntity
  8
0
 62
     0
100
AcDbLine
 10
372.4427685189385
 20
83.90713934898663
 30
0.0
 11
372.7919712130442
 21
84.25634204309236
 31
0.0
  0
LINE
  5
128
330
11C
100
AcDbEntity
  8
0
 62
     0
100
AcDbLine
 10
372.1063958889944
 20
83.84017440267461
 30
0.0
 11
372.31383999307
 21
84.04761850675022
 31
0.0
  0
LINE
  5
129
330
11C
100
AcDbEntity
  8
0
 62
     0
100
AcDbLine
 10
372.6061865363405
 20
84.3399650500207
 30
0.0
 11
372.7962188269013
 21
84.52999734058158
 31
0.0
  0
LINE
  5
12A
330
11C
100
AcDbEntity
  8
0
 62
     0
100
AcDbLine
 10
372.1063952504524
 20
84.1095814477647
 30
0.0
 11
372.2743895677848
 21
84.27757576509712
 31
0.0
  0
LINE
  5
12B
330
11C
100
AcDbEntity
  8
0
 62
     0
100
AcDbLine
 10
372.6021530828691
 20
84.60533928018138
 30
0.0
 11
372.750110373326
 21
84.75329657063836
 31
0.0
  0
LINE
  5
12C
330
11C
100
AcDbEntity
  8
0
 62
     0
100
AcDbLine
 10
372.1063946119105
 20
84.37898849285483
 30
0.0
 11
372.2743895677848
 21
84.54698344872921
 31
0.0
  0
LINE
  5
12D
330
11C
100
AcDbEntity
  8
0
 62
     0
100
AcDbLine
 10
372.4976223608855
 20
84.7702162418299
 30
0.0
 11
372.622535713327
 21
84.89512959427141
 31
0.0
  0
LINE
  5
12E
330
11C
100
AcDbEntity
  8
0
 62
     0
100
AcDbLine
 10
372.1063939733685
 20
84.6483955379449
 30
0.0
 11
372.4215237301031
 21
84.96352529467955
 31
0.0
  0
LINE
  5
12F
330
11C
100
AcDbEntity
  8
0
 62
     0
100
AcDbLine
 10
372.1063933348265
 20
84.91780258303505
 30
0.0
 11
372.1527195716129
 21
84.9641288198215
 31
0.0
  0
LINE
  5
130
330
11C
100
AcDbEntity
  8
0
 62
     0
100
AcDbLine
 10
372.3572930280192
 20
83.01344080717113
 30
0.0
 11
372.5004134710124
 21
83.15656125016435
 31
0.0
  0
LINE
  5
131
330
11C
100
AcDbEntity
  8
0
 62
     0
100
AcDbLine
 10
373.7517460783588
 20
84.40789385751076
 30
0.0
 11
373.9331567479223
 21
84.58930452707424
 31
0.0
  0
LINE
  5
132
330
11C
100
AcDbEntity
  8
0
 62
     0
100
AcDbLine
 10
372.556488182118
 20
83.21263596126996
 30
0.0
 11
372.7962188269013
 21
83.45236660605328
 31
0.0
  0
LINE
  5
133
330
11C
100
AcDbEntity
  8
0
 62
     0
100
AcDbLine
 10
373.3857853630807
 20
84.04193314223267
 30
0.0
 11
373.5264795758177
 21
84.18262735496961
 31
0.0
  0
LINE
  5
134
330
11C
100
AcDbEntity
  8
0
 62
     0
100
AcDbLine
 10
373.1373996744719
 20
83.52413976999171
 30
0.0
 11
373.2242727706726
 21
83.61101286619247
 31
0.0
  0
LINE
  5
135
330
11C
100
AcDbEntity
  8
0
 62
     0
100
AcDbLine
 10
374.3420248344022
 20
84.72876492992201
 30
0.0
 11
374.5478243803602
 21
84.93456447588002
 31
0.0
  0
LINE
  5
136
330
11C
100
AcDbEntity
  8
0
 62
     0
100
AcDbLine
 10
373.4688281276535
 20
83.85556822317333
 30
0.0
 11
373.6089969865882
 21
83.99573708210807
 31
0.0
  0
LINE
  5
137
330
11C
100
AcDbEntity
  8
0
 62
     0
100
AcDbLine
 10
373.8973152481491
 20
84.284055343669
 30
0.0
 11
373.9334883188031
 21
84.32022841432297
 31
0.0
  0
LINE
  5
138
330
11C
100
AcDbEntity
  8
0
 62
     0
100
AcDbLine
 10
373.1615109641626
 20
83.27884337605038
 30
0.0
 11
373.3137987987465
 21
83.43113121063426
 31
0.0
  0
LINE
  5
139
330
11C
100
AcDbEntity
  8
0
 62
     0
100
AcDbLine
 10
374.3420248344021
 20
84.45935724628993
 30
0.0
 11
374.5478243803602
 21
84.66515679224798
 31
0.0
  0
LINE
  5
13A
330
11C
100
AcDbEntity
  8
0
 62
     0
100
AcDbLine
 10
373.5518708922262
 20
83.66920330411403
 30
0.0
 11
373.6915143973587
 21
83.80884680924657
 31
0.0
  0
LINE
  5
13B
330
11C
100
AcDbEntity
  8
0
 62
     0
100
AcDbLine
 10
373.2714257053096
 20
83.11935043356532
 30
0.0
 11
373.3698987443307
 21
83.21782347258643
 31
0.0
  0
LINE
  5
13C
330
11C
100
AcDbEntity
  8
0
 62
     0
100
AcDbLine
 10
374.3420248344021
 20
84.18994956265782
 30
0.0
 11
374.5478243803602
 21
84.39574910861592
 31
0.0
  0
LINE
  5
13D
330
11C
100
AcDbEntity
  8
0
 62
     0
100
AcDbLine
 10
373.634913656799
 20
83.48283838505471
 30
0.0
 11
373.7740318081293
 21
83.62195653638501
 31
0.0
  0
LINE
  5
13E
330
11C
100
AcDbEntity
  8
0
 62
     0
100
AcDbLine
 10
373.4520792419187
 20
83.0305962865424
 30
0.0
 11
373.8565492188998
 21
83.43506626352349
 31
0.0
  0
LINE
  5
13F
330
11C
100
AcDbEntity
  8
0
 62
     0
100
AcDbLine
 10
374.3420248344021
 20
83.92054187902575
 30
0.0
 11
374.5478243803602
 21
84.12634142498388
 31
0.0
  0
LINE
  5
140
330
11C
100
AcDbEntity
  8
0
 62
     0
100
AcDbLine
 10
374.342024834402
 20
83.65113419539364
 30
0.0
 11
374.5478243803602
 21
83.85693374135181
 31
0.0
  0
LINE
  5
141
330
11C
100
AcDbEntity
  8
0
 62
     0
100
AcDbLine
 10
374.342024834402
 20
83.38172651176156
 30
0.0
 11
374.5478243803603
 21
83.58752605771979
 31
0.0
  0
LINE
  5
142
330
11C
100
AcDbEntity
  8
0
 62
     0
100
AcDbLine
 10
374.342024834402
 20
83.1123188281295
 30
0.0
 11
374.5478243803603
 21
83.31811837408775
 31
0.0
  0
LINE
  5
143
330
11C
100
AcDbEntity
  8
0
 62
     0
100
AcDbLine
 10
374.5125544970758
 20
83.01344080717113
 30
0.0
 11
374.5478243803603
 21
83.04871069045567
 31
0.0
  0
ENDBLK
  5
145
330
11C
100
AcDbEntity
  8
0
100
AcDbBlockEnd
  0
BLOCK
  5
242
330
241
100
AcDbEntity
  8
0
100
AcDbBlockBegin
  2
A4 sheet
 70
     2
 10
0.0
 20
0.0
 30
0.0
  3
A4 sheet
  1

  0
LINE
  5
244
330
241
100
AcDbEntity
  8
A4 SHEET
 62
     5
100
AcDbLine
 10
55.05837208140106
 20
52.24001759701833
 30
0.0
 11
147.85007084421
 21
52.24001759701832
 31
0.0
  0
LINE
  5
245
330
241
100
AcDbEntity
  8
A4 SHEET
 62
     5
100
AcDbLine
 10
55.05837208140105
 20
38.50796517014735
 30
0.0
 11
147.85007084421
 21
38.50796517014734
 31
0.0
  0
LINE
  5
246
330
241
100
AcDbEntity
  8
A4 SHEET
 62
     5
100
AcDbLine
 10
55.05837208140105
 20
37.50796517014735
 30
0.0
 11
147.85007084421
 21
37.50796517014734
 31
0.0
  0
LINE
  5
247
330
241
100
AcDbEntity
  8
A4 SHEET
 62
     5
100
AcDbLine
 10
55.05837208140105
 20
3.570207746060006
 30
0.0
 11
147.85007084421
 21
3.570207746060006
 31
0.0
  0
LINE
  5
248
330
241
100
AcDbEntity
  8
A4 SHEET
 62
     5
100
AcDbLine
 10
55.30837208140106
 20
51.99001759701832
 30
0.0
 11
147.60007084421
 21
51.99001759701832
 31
0.0
  0
LINE
  5
249
330
241
100
AcDbEntity
  8
A4 SHEET
 62
     5
100
AcDbLine
 10
55.30837208140106
 20
38.75796517014736
 30
0.0
 11
147.60007084421
 21
38.75796517014734
 31
0.0
  0
LINE
  5
24A
330
241
100
AcDbEntity
  8
A4 SHEET
 62
     5
100
AcDbLine
 10
55.30837208140106
 20
37.25796517014735
 30
0.0
 11
147.60007084421
 21
37.25796517014734
 31
0.0
  0
LINE
  5
24B
330
241
100
AcDbEntity
  8
A4 SHEET
 62
     5
100
AcDbLine
 10
55.30837208140106
 20
3.820207746060006
 30
0.0
 11
147.60007084421
 21
3.820207746060006
 31
0.0
  0
LINE
  5
24C
330
241
100
AcDbEntity
  8
A4 SHEET
100
AcDbLine
 10
7.777105839157954
 20
283.6213344614824
 30
0.0
 11
197.6550712950588
 21
283.6213344614824
 31
0.0
  0
LINE
  5
24D
330
241
100
AcDbEntity
  8
A4 SHEET
100
AcDbLine
 10
7.777105839157954
 20
53.24001759701832
 30
0.0
 11
197.6550712950588
 21
53.24001759701832
 31
0.0
  0
LINE
  5
24E
330
241
100
AcDbEntity
  8
A4 SHEET
100
AcDbLine
 10
7.777105839157954
 20
2.570207746060006
 30
0.0
 11
197.6550712950588
 21
2.570207746060006
 31
0.0
  0
LINE
  5
24F
330
241
100
AcDbEntity
  8
A4 SHEET
100
AcDbLine
 10
7.777105839157954
 20
2.570207746060006
 30
0.0
 11
7.777105839157954
 21
283.6213344614824
 31
0.0
  0
TEXT
  5
250
330
241
100
AcDbEntity
  8
A4 SHEET
 62
     1
100
AcDbText
 10
32.19316668439653
 20
12.54028119748846
 30
0.0
 40
2.0
  1
Delivery
  7
ROMANS
100
AcDbText
  0
TEXT
  5
251
330
241
100
AcDbEntity
  8
A4 SHEET
 62
     1
100
AcDbText
 10
32.19316668439653
 20
25.07004395954692
 30
0.0
 40
2.0
  1
Office Ref.
  7
ROMANS
100
AcDbText
  0
TEXT
  5
252
330
241
100
AcDbEntity
  8
A4 SHEET
 62
     1
100
AcDbText
 10
32.19316668439653
 20
37.87518612296762
 30
0.0
 40
2.0
  1
Project No.
  7
ROMANS
100
AcDbText
  0
TEXT
  5
253
330
241
100
AcDbEntity
  8
A4 SHEET
 62
     1
100
AcDbText
 10
32.19316668439653
 20
50.68032828638832
 30
0.0
 40
2.0
  1
Location
  7
ROMANS
100
AcDbText
  0
ATTDEF
  5
254
330
241
100
AcDbEntity
  8
A4 SHEET
100
AcDbText
 10
31.93067360090936
 20
6.831721821908999
 30
0.0
 40
3.0
  1

  7
ROMANS
100
AcDbAttributeDefinition
  3
DELIVERY DATE?
  2
DELIVERY
 70
     0
  0
LINE
  5
255
330
241
100
AcDbEntity
  8
A4 SHEET
100
AcDbLine
 10
7.777105839157954
 20
40.71025483495986
 30
0.0
 11
54.05837208140106
 21
40.71025483495986
 31
0.0
  0
LINE
  5
256
330
241
100
AcDbEntity
  8
A4 SHEET
100
AcDbLine
 10
7.777105839157954
 20
15.09997050811846
 30
0.0
 11
54.05837208140106
 21
15.09997050811846
 31
0.0
  0
LINE
  5
257
330
241
100
AcDbEntity
  8
A4 SHEET
100
AcDbLine
 10
7.777105839157954
 20
27.90511267153916
 30
0.0
 11
54.05837208140106
 21
27.90511267153916
 31
0.0
  0
ATTDEF
  5
258
330
241
100
AcDbEntity
  8
A4 SHEET
100
AcDbText
 10
31.93067360090936
 20
31.99588333299775
 30
0.0
 40
3.0
  1

  7
ROMANS
100
AcDbAttributeDefinition
  3
PROJECT No. ?
  2
PROJECT_NO
 70
     0
  0
LINE
  5
259
330
241
100
AcDbEntity
  8
A4 SHEET
100
AcDbLine
 10
31.4177389602795
 20
53.24001759701832
 30
0.0
 11
31.41773896027951
 21
2.570207746060006
 31
0.0
  0
ATTDEF
  5
25A
330
241
100
AcDbEntity
  8
A4 SHEET
100
AcDbText
 10
8.290040479787815
 20
6.831721821908995
 30
0.0
 40
3.0
  1
04/01/00
  7
ROMANS
100
AcDbAttributeDefinition
  3
DATE DRAWN?
  2
DATE
 70
     0
  0
ATTDEF
  5
25B
330
241
100
AcDbEntity
  8
A4 SHEET
100
AcDbText
 10
8.290040479787815
 20
44.8504035457095
 30
0.0
 40
3.0
  1
CK
  7
ROMANS
100
AcDbAttributeDefinition
  3
DRAWN BY?
  2
DRAWN
 70
     0
  0
ATTDEF
  5
25C
330
241
100
AcDbEntity
  8
A4 SHEET
100
AcDbText
 10
8.290040479787815
 20
31.99588333299775
 30
0.0
 40
3.0
  1

  7
ROMANS
100
AcDbAttributeDefinition
  3
CHECKED BY?
  2
CHECKED
 70
     0
  0
TEXT
  5
25D
330
241
100
AcDbEntity
  8
A4 SHEET
 62
     1
100
AcDbText
 10
8.55253356327498
 20
12.54028119748846
 30
0.0
 40
2.0
  1
Date
  7
ROMANS
100
AcDbText
  0
ATTDEF
  5
25E
330
241
100
AcDbEntity
  8
A4 SHEET
100
AcDbText
 10
8.290040479787815
 20
19.2098972668673
 30
0.0
 40
3.0
  1
1:5
  7
ROMANS
100
AcDbAttributeDefinition
  3
SCALE?
  2
SCALE
 70
     0
  0
TEXT
  5
25F
330
241
100
AcDbEntity
  8
A4 SHEET
 62
     1
100
AcDbText
 10
8.55253356327498
 20
25.07004395954692
 30
0.0
 40
2.0
  1
Scale
  7
ROMANS
100
AcDbText
  0
TEXT
  5
260
330
241
100
AcDbEntity
  8
A4 SHEET
 62
     1
100
AcDbText
 10
8.55253356327498
 20
50.68032828638832
 30
0.0
 40
2.0
  1
Drawn
  7
ROMANS
100
AcDbText
  0
TEXT
  5
261
330
241
100
AcDbEntity
  8
A4 SHEET
 62
     1
100
AcDbText
 10
8.55253356327498
 20
37.87518612296762
 30
0.0
 40
2.0
  1
Checked
  7
ROMANS
100
AcDbText
  0
LINE
  5
262
330
241
100
AcDbEntity
  8
A4 SHEET
100
AcDbLine
 10
54.05837208140106
 20
53.24001759701832
 30
0.0
 11
54.05837208140106
 21
2.570207746060006
 31
0.0
  0
ATTDEF
  5
263
330
241
100
AcDbEntity
  8
A4 SHEET
100
AcDbText
 10
55.92636162597326
 20
42.81743759049767
 30
0.0
 40
3.0
  1

  7
ROMANS
100
AcDbAttributeDefinition
  3
CLIENT ?
  2
CLIENT
 70
     0
  0
ATTDEF
  5
264
330
241
100
AcDbEntity
  8
A4 SHEET
100
AcDbText
 10
55.92636162597326
 20
28.03537398364564
 30
0.0
 40
3.0
  1

  7
ROMANS
100
AcDbAttributeDefinition
  3
TITLE LINE 1?
  2
TITLE_1
 70
     0
  0
TEXT
  5
265
330
241
100
AcDbEntity
  8
A4 SHEET
 62
     1
100
AcDbText
 10
55.99741658205537
 20
34.42192815674928
 30
0.0
 40
2.0
  1
PROJECT TITLE
  7
ROMANS
100
AcDbText
  0
ATTDEF
  5
266
330
241
100
AcDbEntity
  8
A4 SHEET
100
AcDbText
 10
55.92636162597326
 20
23.14725924241181
 30
0.0
 40
3.0
  1

  7
ROMANS
100
AcDbAttributeDefinition
  3
TITLE LINE 2?
  2
TITLE_2
 70
     0
  0
ATTDEF
  5
267
330
241
100
AcDbEntity
  8
A4 SHEET
100
AcDbText
 10
55.92636162597326
 20
18.16265549404075
 30
0.0
 40
3.0
  1

  7
ROMANS
100
AcDbAttributeDefinition
  3
TITLE LINE 3?
  2
TITLE_3
 70
     0
  0
ATTDEF
  5
268
330
241
100
AcDbEntity
  8
A4 SHEET
100
AcDbText
 10
55.92636162597326
 20
13.17805174566969
 30
0.0
 40
3.0
  1

  7
ROMANS
100
AcDbAttributeDefinition
  3
TITLE LINE 4
  2
TITLE_4
 70
     0
  0
LINE
  5
269
330
241
100
AcDbEntity
  8
A4 SHEET
 62
     5
100
AcDbLine
 10
55.05837208140105
 20
37.50796517014735
 30
0.0
 11
55.05837208140105
 21
3.570207746060006
 31
0.0
  0
LINE
  5
26A
330
241
100
AcDbEntity
  8
A4 SHEET
 62
     5
100
AcDbLine
 10
55.30837208140106
 20
37.25796517014735
 30
0.0
 11
55.30837208140106
 21
3.820207746060006
 31
0.0
  0
TEXT
  5
26B
330
241
100
AcDbEntity
  8
A4 SHEET
 62
     1
100
AcDbText
 10
55.99741658205538
 20
49.15398058362026
 30
0.0
 40
2.0
  1
CLIENT
  7
ROMANS
100
AcDbText
  0
LINE
  5
26C
330
241
100
AcDbEntity
  8
A4 SHEET
 62
     5
100
AcDbLine
 10
55.05837208140106
 20
52.24001759701833
 30
0.0
 11
55.05837208140105
 21
38.50796517014735
 31
0.0
  0
LINE
  5
26D
330
241
100
AcDbEntity
  8
A4 SHEET
 62
     5
100
AcDbLine
 10
55.30837208140106
 20
51.99001759701832
 30
0.0
 11
55.30837208140106
 21
38.75796517014736
 31
0.0
  0
LINE
  5
26E
330
241
100
AcDbEntity
  8
A4 SHEET
100
AcDbLine
 10
197.6550712950588
 20
2.570207746060006
 30
0.0
 11
197.6550712950588
 21
283.6213344614824
 31
0.0
  0
ARC
  5
26F
330
241
100
AcDbEntity
  8
A4 SHEET
 62
     1
100
AcDbCircle
 10
160.7727155468503
 20
22.25169240520659
 30
0.0
 40
0.9474475545165793
100
AcDbArc
 50
4.643322781834799
 51
182.973792569371
  0
LINE
  5
270
330
241
100
AcDbEntity
  8
A4 SHEET
 62
     1
100
AcDbLine
 10
159.9155145993804
 20
22.03789450639698
 30
0.0
 11
161.7186215254158
 21
18.79020019042187
 31
0.0
  0
INSERT
  5
271
330
241
100
AcDbEntity
  8
A4 SHEET
 62
     1
100
AcDbBlockReference
  2
*X0
 10
-3511.076471693637
 20
-18601.10530803662
 30
0.0
 41
0.4860000000000001
 42
0.4860000000000001
 43
0.4860000000000001
  0
ARC
  5
272
330
241
100
AcDbEntity
  8
A4 SHEET
 62
     1
100
AcDbCircle
 10
161.7013977315609
 20
21.22721197363563
 30
0.0
 40
4.895054091578685
100
AcDbArc
 50
103.8123234335968
 51
76.24206974303135
  0
ARC
  5
273
330
241
100
AcDbEntity
  8
A4 SHEET
 62
     1
100
AcDbCircle
 10
161.7013977315609
 20
21.22721197363563
 30
0.0
 40
3.630011018367773
100
AcDbArc
 50
108.7804696073731
 51
71.29475581501342
  0
LINE
  5
274
330
241
100
AcDbEntity
  8
A4 SHEET
 62
     1
100
AcDbLine
 10
159.8265438545204
 20
22.2025396108533
 30
0.0
 11
163.7724427211825
 21
22.2025396108533
 31
0.0
  0
LINE
  5
275
330
241
100
AcDbEntity
  8
A4 SHEET
 62
     1
100
AcDbLine
 10
159.9155145993804
 20
22.03789450639698
 30
0.0
 11
163.6762804736826
 21
22.03789450639698
 31
0.0
  0
INSERT
  5
276
330
241
100
AcDbEntity
  8
A4 SHEET
 62
     1
100
AcDbBlockReference
  2
*X1
 10
-3511.076471693637
 20
-18601.10530803662
 30
0.0
 41
0.4860000000000001
 42
0.4860000000000001
 43
0.4860000000000001
  0
CIRCLE
  5
277
330
241
100
AcDbEntity
  8
A4 SHEET
 62
     1
100
AcDbCircle
 10
161.7099601984508
 20
21.28516543750313
 30
0.0
 40
2.773502486435614
  0
TEXT
  5
278
330
241
100
AcDbEntity
  8
A4 SHEET
 62
     1
100
AcDbText
 10
149.625498568327
 20
12.54028119748846
 30
0.0
 40
2.0
  1
DWG No.
  7
ROMANS
100
AcDbText
  0
ATTDEF
  5
279
330
241
100
AcDbEntity
  8
A4 SHEET
100
AcDbText
 10
149.8320303694279
 20
6.270319131677899
 30
0.0
 40
3.0
  1

  7
ROMANS
100
AcDbAttributeDefinition
  3
DRAWING No. ?
  2
DWG_NO
 70
     0
  0
MTEXT
  5
27A
330
241
100
AcDbEntity
  8
A4 SHEET
 62
     1
100
AcDbMText
 10
173.2525710696344
 20
31.27262520063152
 30
0.0
 40
1.5
 41
35.14716411550482
 71
     5
 72
     5
  1
Tel: 0114 275 5224\PFax: 0114 276 8543\PEmail: info@anconbp.co.uk
  7
ROMANS
 73
     1
 44
1.0
  0
MTEXT
  5
27B
330
241
100
AcDbEntity
  8
A4 SHEET
 62
     9
100
AcDbMText
 10
173.2525710696344
 20
44.7292356153589
 30
0.0
 40
15.0
 41
45.04
 71
     5
 72
     5
  1
\fAncon Building Products|b0|i0|c2|p2;abc
  7
ROMANS
 73
     1
 44
1.0
  0
LINE
  5
27C
330
241
100
AcDbEntity
  8
A4 SHEET
100
AcDbLine
 10
148.85007084421
 20
15.09997050811846
 30
0.0
 11
197.6550712950588
 21
15.09997050811846
 31
0.0
  0
LINE
  5
27D
330
241
100
AcDbEntity
  8
A4 SHEET
100
AcDbLine
 10
148.85007084421
 20
53.24001759701832
 30
0.0
 11
148.85007084421
 21
2.570207746060006
 31
0.0
  0
LINE
  5
27E
330
241
100
AcDbEntity
  8
A4 SHEET
 62
     5
100
AcDbLine
 10
147.85007084421
 20
37.50796517014734
 30
0.0
 11
147.85007084421
 21
3.570207746060006
 31
0.0
  0
LINE
  5
27F
330
241
100
AcDbEntity
  8
A4 SHEET
 62
     5
100
AcDbLine
 10
147.60007084421
 20
37.25796517014734
 30
0.0
 11
147.60007084421
 21
3.820207746060006
 31
0.0
  0
LINE
  5
280
330
241
100
AcDbEntity
  8
A4 SHEET
 62
     1
100
AcDbLine
 10
160.5327411229668
 20
25.98071555065188
 30
0.0
 11
160.5327411229668
 21
24.66395778141719
 31
0.0
  0
LINE
  5
281
330
241
100
AcDbEntity
  8
A4 SHEET
 62
     5
100
AcDbLine
 10
147.85007084421
 20
52.24001759701832
 30
0.0
 11
147.85007084421
 21
38.50796517014734
 31
0.0
  0
LINE
  5
282
330
241
100
AcDbEntity
  8
A4 SHEET
 62
     5
100
AcDbLine
 10
147.60007084421
 20
51.99001759701832
 30
0.0
 11
147.60007084421
 21
38.75796517014734
 31
0.0
  0
MTEXT
  5
283
330
241
100
AcDbEntity
  8
A4 SHEET
 62
     1
100
AcDbMText
 10
181.9733151526893
 20
19.81049211008792
 30
0.0
 40
1.2
 41
28.10999999999999
 71
     5
 72
     5
  1
BS EN ISO 9001:1994\PFM 12226
  7
ROMANS
 73
     1
 44
1.0
  0
TEXT
  5
284
330
241
100
AcDbEntity
  8
A4 SHEET
 62
     1
100
AcDbText
 10
176.7270957331506
 20
0.9126015990444971
 30
0.0
 40
1.0
  1
C Ancon Building Products
  7
ROMANS
100
AcDbText
  0
CIRCLE
  5
285
330
241
100
AcDbEntity
  8
A4 SHEET
 62
     1
100
AcDbCircle
 10
177.252921773497
 20
1.410307015393169
 30
0.0
 40
0.6287171708504502
  0
LINE
  5
286
330
241
100
AcDbEntity
  8
A4 SHEET
 62
     1
100
AcDbLine
 10
161.7186215254158
 20
18.79020019042187
 30
0.0
 11
163.6762804736826
 21
22.03789450639698
 31
0.0
  0
LINE
  5
287
330
241
100
AcDbEntity
  8
A4 SHEET
 62
     1
100
AcDbLine
 10
163.5415337275233
 20
19.20246179803282
 30
0.0
 11
163.7926638379215
 21
19.45359190843194
 31
0.0
  0
LINE
  5
288
330
241
100
AcDbEntity
  8
A4 SHEET
 62
     1
100
AcDbLine
 10
163.5415337275233
 20
19.20246179803282
 30
0.0
 11
163.7926638379215
 21
19.45359190843194
 31
0.0
  0
LINE
  5
289
330
241
100
AcDbEntity
  8
A4 SHEET
 62
     1
100
AcDbLine
 10
162.865541122966
 20
25.98182286073731
 30
0.0
 11
162.8655411229664
 21
24.66548917624901
 31
0.0
  0
LINE
  5
28A
330
241
100
AcDbEntity
  8
A4 SHEET
 62
     1
100
AcDbLine
 10
162.5592736540985
 20
24.66411566208854
 30
0.0
 11
162.5592736540984
 21
25.98171898295149
 31
0.0
  0
LINE
  5
28B
330
241
100
AcDbEntity
  8
A4 SHEET
 62
     1
100
AcDbLine
 10
162.4203589605767
 20
25.98163135608876
 30
0.0
 11
162.4203589605767
 21
24.66411566208853
 31
0.0
  0
LINE
  5
28C
330
241
100
AcDbEntity
  8
A4 SHEET
 62
     1
100
AcDbLine
 10
161.775011519628
 20
25.66814837221178
 30
0.0
 11
162.100608947029
 21
24.93071621720658
 31
0.0
  0
LINE
  5
28D
330
241
100
AcDbEntity
  8
A4 SHEET
 62
     1
100
AcDbLine
 10
160.9113076242473
 20
25.98083007062752
 30
0.0
 11
160.9113107450915
 21
24.66411566208854
 31
0.0
  0
ARC
  5
28E
330
241
100
AcDbEntity
  8
A4 SHEET
 62
     1
100
AcDbCircle
 10
161.0745135513535
 20
25.50356174195375
 30
0.0
 40
0.1741545580303916
100
AcDbArc
 50
295.3405620328688
 51
0.0
  0
ARC
  5
28F
330
241
100
AcDbEntity
  8
A4 SHEET
 62
     1
100
AcDbCircle
 10
161.1130693630429
 20
25.54186686614201
 30
0.0
 40
0.2638705424702903
100
AcDbArc
 50
301.4382078386724
 51
0.0
  0
LINE
  5
290
330
241
100
AcDbEntity
  8
A4 SHEET
 62
     1
100
AcDbLine
 10
161.6578814470682
 20
25.62095549321598
 30
0.0
 11
161.9562263413173
 21
24.95140863558751
 31
0.0
  0
LINE
  5
291
330
241
100
AcDbEntity
  8
A4 SHEET
 62
     1
100
AcDbLine
 10
161.02470515561
 20
25.78667192792001
 30
0.0
 11
161.02470515561
 21
25.42486305797895
 31
0.0
  0
INSERT
  5
292
330
241
100
AcDbEntity
  8
A4 SHEET
 62
     1
100
AcDbBlockReference
  2
*X2
 10
-90.26050780264473
 20
-31.36995688275197
 30
0.0
 41
0.675
 42
0.675
 43
0.675
1001
ACAD
1000
HATCH
1002
{
1070
    16
1000
ANSI31
1040
0.06
1040
0.0
1002
}
  0
LINE
  5
293
330
241
100
AcDbEntity
  8
A4 SHEET
 62
     1
100
AcDbLine
 10
162.4203589605767
 20
24.66411566208853
 30
0.0
 11
162.5592736540985
 21
24.66411566208854
 31
0.0
  0
ARC
  5
294
330
241
100
AcDbEntity
  8
A4 SHEET
 62
     1
100
AcDbCircle
 10
162.7388486880107
 20
22.16911606410376
 30
0.0
 40
1.034134304084788
100
AcDbArc
 50
1.852140212144534
 51
170.0842572743103
  0
ARC
  5
295
330
241
100
AcDbEntity
  8
A4 SHEET
 62
     1
100
AcDbCircle
 10
161.1117824346256
 20
25.42486305797895
 30
0.0
 40
0.0870772790151958
100
AcDbArc
 50
180.0
 51
295.3405620328691
  0
ARC
  5
296
330
241
100
AcDbEntity
  8
A4 SHEET
 62
     1
100
AcDbCircle
 10
161.8465515712484
 20
24.8942940409961
 30
0.0
 40
0.1236552955000738
100
AcDbArc
 50
168.243546944009
 51
27.50884589908865
  0
ARC
  5
297
330
241
100
AcDbEntity
  8
A4 SHEET
 62
     1
100
AcDbCircle
 10
161.8862340881343
 20
24.89155707689975
 30
0.0
 40
0.2209969777818821
100
AcDbArc
 50
268.5718926548889
 51
357.325016657011
  0
ARC
  5
298
330
241
100
AcDbEntity
  8
A4 SHEET
 62
     1
100
AcDbCircle
 10
162.0201461300425
 20
24.89518957786307
 30
0.0
 40
0.0879568474900968
100
AcDbArc
 50
350.8766369145476
 51
23.82283237200431
  0
LINE
  5
299
330
241
100
AcDbEntity
  8
A4 SHEET
 62
     1
100
AcDbLine
 10
161.7263063865092
 20
25.06747680192793
 30
0.0
 11
161.7263063865092
 21
24.91948905685153
 31
0.0
  0
LINE
  5
29A
330
241
100
AcDbEntity
  8
A4 SHEET
 62
     1
100
AcDbLine
 10
161.6072369776238
 20
25.06747680192793
 30
0.0
 11
161.7263063865092
 21
25.06747680192793
 31
0.0
  0
LINE
  5
29B
330
241
100
AcDbEntity
  8
A4 SHEET
 62
     1
100
AcDbLine
 10
160.9113107450915
 20
24.66411566208854
 30
0.0
 11
161.1130693630429
 21
24.66411566208853
 31
0.0
  0
ARC
  5
29C
330
241
100
AcDbEntity
  8
A4 SHEET
 62
     1
100
AcDbCircle
 10
161.1117824346256
 20
25.18444031600675
 30
0.0
 40
0.0870772790151958
100
AcDbArc
 50
64.65943796713133
 51
180.0
  0
ARC
  5
29D
330
241
100
AcDbEntity
  8
A4 SHEET
 62
     1
100
AcDbCircle
 10
161.1117824346256
 20
24.82263144606569
 30
0.0
 40
0.0870772790151958
100
AcDbArc
 50
180.0
 51
295.3405620328691
  0
ARC
  5
29E
330
241
100
AcDbEntity
  8
A4 SHEET
 62
     1
100
AcDbCircle
 10
161.0745135513535
 20
25.1057416320226
 30
0.0
 40
0.1741545580303916
100
AcDbArc
 50
0.0
 51
64.65943796713162
  0
ARC
  5
29F
330
241
100
AcDbEntity
  8
A4 SHEET
 62
     1
100
AcDbCircle
 10
161.0745135513535
 20
24.90133013004049
 30
0.0
 40
0.1741545580303916
100
AcDbArc
 50
295.3405620328688
 51
0.0
  0
LINE
  5
2A0
330
241
100
AcDbEntity
  8
A4 SHEET
 62
     1
100
AcDbLine
 10
161.2486681093851
 20
25.1057416320226
 30
0.0
 11
161.2486681093851
 21
24.90133013004049
 31
0.0
  0
LINE
  5
2A1
330
241
100
AcDbEntity
  8
A4 SHEET
 62
     1
100
AcDbLine
 10
161.02470515561
 20
25.18444031600675
 30
0.0
 11
161.02470515561
 21
24.82263144606569
 31
0.0
  0
LINE
  5
2A2
330
241
100
AcDbEntity
  8
A4 SHEET
 62
     1
100
AcDbLine
 10
161.3769399055137
 20
24.92798620456159
 30
0.0
 11
161.3769399055137
 21
25.09159649905789
 31
0.0
  0
LINE
  5
2A3
330
241
100
AcDbEntity
  8
A4 SHEET
 62
     1
100
AcDbLine
 10
161.8711075200942
 20
24.67062874433418
 30
0.0
 11
161.8807262700778
 21
24.67062874433418
 31
0.0
  0
ARC
  5
2A4
330
241
100
AcDbEntity
  8
A4 SHEET
 62
     1
100
AcDbCircle
 10
161.1130693630429
 20
25.09159649905789
 30
0.0
 40
0.2638705424702903
100
AcDbArc
 50
0.0
 51
58.56179216132764
  0
ARC
  5
2A5
330
241
100
AcDbEntity
  8
A4 SHEET
 62
     1
100
AcDbCircle
 10
161.1130693630429
 20
24.92798620456159
 30
0.0
 40
0.2638705424702903
100
AcDbArc
 50
270.0
 51
0.0
  0
ARC
  5
2A6
330
241
100
AcDbEntity
  8
A4 SHEET
 62
     1
100
AcDbCircle
 10
161.8711075200942
 20
24.93449928680723
 30
0.0
 40
0.2638705424702903
100
AcDbArc
 50
180.0
 51
270.000000000001
  0
LINE
  5
2A7
330
241
100
AcDbEntity
  8
A4 SHEET
 62
     1
100
AcDbLine
 10
161.6072369776238
 20
25.06747680192793
 30
0.0
 11
161.6072369776238
 21
24.93449928680723
 31
0.0
  0
LINE
  5
2A8
330
241
100
AcDbEntity
  8
A4 SHEET
 62
     1
100
AcDbLine
 10
162.4203589605767
 20
25.98163135608876
 30
0.0
 11
162.5592736540984
 21
25.98171898295149
 31
0.0
  0
ARC
  5
2A9
330
241
100
AcDbEntity
  8
A4 SHEET
 62
     1
100
AcDbCircle
 10
161.8891829330033
 20
25.7395625314019
 30
0.0
 40
0.1346666022624764
100
AcDbArc
 50
350.2912421491238
 51
212.0259577106255
  0
LINE
  5
2AA
330
241
100
AcDbEntity
  8
A4 SHEET
 62
     1
100
AcDbLine
 10
162.0219208002475
 20
25.71685234944788
 30
0.0
 11
162.0219208002475
 21
25.52178047422176
 31
0.0
  0
LINE
  5
2AB
330
241
100
AcDbEntity
  8
A4 SHEET
 62
     1
100
AcDbLine
 10
162.0219208002475
 20
25.52178047422176
 30
0.0
 11
162.1445968125474
 21
25.52178047422529
 31
0.0
  0
LINE
  5
2AC
330
241
100
AcDbEntity
  8
A4 SHEET
 62
     1
100
AcDbLine
 10
161.113824888166
 20
25.98083007062752
 30
0.0
 11
160.9113076242473
 21
25.98083007062752
 31
0.0
  0
LINE
  5
2AD
330
241
100
AcDbEntity
  8
A4 SHEET
 62
     1
100
AcDbLine
 10
161.2486681093851
 20
25.70797324393586
 30
0.0
 11
161.2486681093851
 21
25.50356174195375
 31
0.0
  0
ARC
  5
2AE
330
241
100
AcDbEntity
  8
A4 SHEET
 62
     1
100
AcDbCircle
 10
161.0745135513535
 20
25.70797324393586
 30
0.0
 40
0.1741545580303916
100
AcDbArc
 50
0.0
 51
64.65943796713162
  0
ARC
  5
2AF
330
241
100
AcDbEntity
  8
A4 SHEET
 62
     1
100
AcDbCircle
 10
161.1117824346256
 20
25.78667192792001
 30
0.0
 40
0.0870772790151958
100
AcDbArc
 50
64.65943796713133
 51
180.0
  0
LINE
  5
2B0
330
241
100
AcDbEntity
  8
A4 SHEET
 62
     1
100
AcDbLine
 10
161.8718661559288
 20
25.98017596468255
 30
0.0
 11
161.8814849059124
 21
25.98017596468255
 31
0.0
  0
ARC
  5
2B1
330
241
100
AcDbEntity
  8
A4 SHEET
 62
     1
100
AcDbCircle
 10
161.1081638536928
 20
25.71135317463959
 30
0.0
 40
0.2695363515008502
100
AcDbArc
 50
0.0
 51
88.7965362282742
  0
ARC
  5
2B2
330
241
100
AcDbEntity
  8
A4 SHEET
 62
     1
100
AcDbCircle
 10
161.8813736696708
 20
25.71695205106321
 30
0.0
 40
0.2632239371237583
100
AcDbArc
 50
359.859248586224
 51
89.97578728046486
  0
LINE
  5
2B3
330
241
100
AcDbEntity
  8
A4 SHEET
 62
     1
100
AcDbLine
 10
162.1445968125474
 20
25.52178047422529
 30
0.0
 11
162.1445968125478
 21
25.71630542221303
 31
0.0
  0
LINE
  5
2B4
330
241
100
AcDbEntity
  8
A4 SHEET
 62
     1
100
AcDbLine
 10
161.3769399055137
 20
25.71135317463959
 30
0.0
 11
161.3769399055137
 21
25.54186686614201
 31
0.0
  0
ARC
  5
2B5
330
241
100
AcDbEntity
  8
A4 SHEET
 62
     1
100
AcDbCircle
 10
161.8694551902315
 20
25.73826744753624
 30
0.0
 40
0.2419205312153546
100
AcDbArc
 50
89.42898419964381
 51
209.0071906269337
  0
ENDBLK
  5
243
330
241
100
AcDbEntity
  8
0
100
AcDbBlockEnd
  0
BLOCK
  5
2CF
330
2C4
100
AcDbEntity
  8
0
100
AcDbBlockBegin
  2
A4REV
 70
     2
 10
0.0
 20
0.0
 30
0.0
  3
A4REV
  1

  0
ATTDEF
  5
2C5
330
2C4
100
AcDbEntity
  8
A4 SHEET
 62
     6
100
AcDbText
 10
-102.7026410691673
 20
1.631585712301557
 30
0.0
 40
1.5
  1
CK
  7
ROMANS
 72
     1
 11
-101.2026410691673
 21
1.631585712301557
 31
0.0
100
AcDbAttributeDefinition
  3
INITIALS ?
  2
INITIALS
 70
     0
  0
LINE
  5
2C6
330
2C4
100
AcDbEntity
  8
A4 SHEET
 62
     2
100
AcDbLine
 10
-105.0
 20
0.0
 30
0.0
 11
-105.0
 21
4.893248268914362
 31
0.0
  0
LINE
  5
2C7
330
2C4
100
AcDbEntity
  8
A4 SHEET
 62
     2
100
AcDbLine
 10
-97.5
 20
0.0
 30
0.0
 11
-97.5
 21
4.893248268914362
 31
0.0
  0
ATTDEF
  5
2C8
330
2C4
100
AcDbEntity
  8
A4 SHEET
 62
     6
100
AcDbText
 10
-96.93640424986538
 20
1.631585712301557
 30
0.0
 40
1.5
  1
04/01/00
  7
ROMANS
 72
     1
 11
-91.07926139272251
 21
1.631585712301557
 31
0.0
100
AcDbAttributeDefinition
  3
DATE ?
  2
DATE
 70
     0
  0
ATTDEF
  5
2C9
330
2C4
100
AcDbEntity
  8
A4 SHEET
 62
     6
100
AcDbText
 10
-83.74184295500919
 20
1.631585712301557
 30
0.0
 40
1.5
  1
ISSUED FOR APPROVAL
  7
ROMANS
100
AcDbAttributeDefinition
  3
REV NOTE ?
  2
REV-NOTE
 70
     0
  0
LINE
  5
2CA
330
2C4
100
AcDbEntity
  8
A4 SHEET
 62
     2
100
AcDbLine
 10
-84.74999999999999
 20
0.0
 30
0.0
 11
-84.74999999999999
 21
4.893248268914362
 31
0.0
  0
ATTDEF
  5
2CB
330
2C4
100
AcDbEntity
  8
A4 SHEET
 62
     6
100
AcDbText
 10
-7.543075159400594
 20
1.631585712301557
 30
0.0
 40
1.5
  1
P1
  7
ROMANS
 72
     1
 11
-6.257360873686309
 21
1.631585712301557
 31
0.0
100
AcDbAttributeDefinition
  3
LETTER ?
  2
LETTER
 70
     0
  0
LINE
  5
2CC
330
2C4
100
AcDbEntity
  8
A4 SHEET
 62
     2
100
AcDbLine
 10
-9.75
 20
0.0
 30
0.0
 11
-9.75
 21
4.893248268914362
 31
0.0
  0
LINE
  5
2CD
330
2C4
100
AcDbEntity
  8
A4 SHEET
 62
     2
100
AcDbLine
 10
-105.0
 20
0.0
 30
0.0
 11
0.0
 21
0.0
 31
0.0
  0
LINE
  5
2CE
330
2C4
100
AcDbEntity
  8
A4 SHEET
 62
     2
100
AcDbLine
 10
0.0
 20
0.0
 30
0.0
 11
0.0
 21
4.893248268914362
 31
0.0
  0
ENDBLK
  5
2D0
330
2C4
100
AcDbEntity
  8
0
100
AcDbBlockEnd
  0
BLOCK
  5
515
330
513
100
AcDbEntity
  8
0
100
AcDbBlockBegin
  2
OR
 70
     0
 10
0.0
 20
0.0
 30
0.0
  3
OR
  1

  0
LWPOLYLINE
  5
514
330
513
100
AcDbEntity
  8
ANCON-ORIGIN
100
AcDbPolyline
 90
        5
 70
     0
 43
0.0
 10
-10.17326135673704
 20
-6.213917405744268
 10
-10.17326135673704
 20
6.213917405744268
 10
10.17326135673704
 20
-6.213917405744268
 10
10.17326135673704
 20
6.213917405744268
 10
-10.17326135673704
 20
-6.213917405744268
  0
ENDBLK
  5
516
330
513
100
AcDbEntity
  8
0
100
AcDbBlockEnd
  0
BLOCK
  5
51D
330
517
100
AcDbEntity
  8
0
100
AcDbBlockBegin
  2
tieheads
 70
     0
 10
0.0
 20
0.0
 30
0.0
  3
tieheads
  1

  0
LWPOLYLINE
  5
518
330
517
100
AcDbEntity
  8
DANGLE
 62
     1
100
AcDbPolyline
 90
       12
 70
     0
 43
0.0
 10
0.0
 20
10.0
 10
35.99999999999977
 20
10.0
 42
0.9999999999999998
 10
40.99999999999977
 20
10.0
 10
52.99999999999977
 20
10.0
 42
0.9999999999999998
 10
57.99999999999977
 20
10.0
 10
71.99999999999954
 20
10.0
 42
-0.2999999999999987
 10
71.99999999999977
 20
-10.0
 10
57.99999999999977
 20
-10.0
 42
0.9999999999999998
 10
52.99999999999977
 20
-10.0
 10
40.99999999999977
 20
-10.0
 42
0.9999999999999998
 10
35.99999999999977
 20
-10.0
 10
0.0000000000001421
 20
-10.0
  0
CIRCLE
  5
519
330
517
100
AcDbEntity
  8
DANGLE
 62
     1
100
AcDbCircle
 10
63.99999999999977
 20
0.0
 30
0.0
 40
6.0
  0
INSERT
  5
51A
330
517
100
AcDbEntity
  8
ANCON-ORIGIN
100
AcDbBlockReference
  2
OR
 10
0.0
 20
0.0
 30
0.0
 41
0.9600000000000079
 42
0.9600000000000079
 43
0.9599999999999999
  0
CIRCLE
  5
51B
330
517
100
AcDbEntity
  8
DANGLE
 62
     1
100
AcDbCircle
 10
29.99999999999977
 20
0.0
 30
0.0
 40
6.0
  0
CIRCLE
  5
51C
330
517
100
AcDbEntity
  8
DANGLE
 62
     1
100
AcDbCircle
 10
46.99999999999977
 20
0.0
 30
0.0
 40
6.0
  0
ENDBLK
  5
51E
330
517
100
AcDbEntity
  8
0
100
AcDbBlockEnd
  0
ENDSEC
  0
SECTION
  2
ENTITIES
  0
LWPOLYLINE
  5
50B
330
1F
100
AcDbEntity
  8
Defpoints
100
AcDbPolyline
 90
        4
 70
     1
 43
0.0
 10
437.6573408561102
 20
1127.900305217309
 10
1361.023770336868
 20
1127.900305217309
 10
1361.023770336868
 20
2.055159988865852
 10
437.6573408561102
 20
2.055159988865852
  0
LWPOLYLINE
  5
529
330
1F
100
AcDbEntity
  8
DANGLE
 62
     1
100
AcDbPolyline
 90
       12
 70
     0
 43
0.0
 10
887.3784102010441
 20
517.2956974314622
 10
851.3784102010443
 20
517.2956974314622
 42
0.9999999999999998
 10
846.3784102010443
 20
517.2956974314622
 10
834.3784102010442
 20
517.2956974314622
 42
0.9999999999999998
 10
829.3784102010443
 20
517.2956974314622
 10
815.3784102010444
 20
517.2956974314622
 42
-0.2999999999999987
 10
815.3784102010442
 20
537.2956974314623
 10
829.3784102010443
 20
537.2956974314623
 42
0.9999999999999998
 10
834.3784102010442
 20
537.2956974314623
 10
846.3784102010443
 20
537.2956974314623
 42
0.9999999999999998
 10
851.3784102010443
 20
537.2956974314623
 10
887.3784102010439
 20
537.2956974314623
  0
CIRCLE
  5
52A
330
1F
100
AcDbEntity
  8
DANGLE
 62
     1
100
AcDbCircle
 10
823.3784102010442
 20
527.2956974314622
 30
0.0
 40
6.0
  0
INSERT
  5
52B
330
1F
100
AcDbEntity
  8
ANCON-ORIGIN
100
AcDbBlockReference
  2
OR
 10
887.3784102010441
 20
527.2956974314622
 30
0.0
 41
0.9600000000000363
 42
0.9600000000000363
 43
0.9599999999999999
 50
180.0
  0
CIRCLE
  5
52C
330
1F
100
AcDbEntity
  8
DANGLE
 62
     1
100
AcDbCircle
 10
857.3784102010442
 20
527.2956974314622
 30
0.0
 40
6.0
  0
CIRCLE
  5
52D
330
1F
100
AcDbEntity
  8
DANGLE
 62
     1
100
AcDbCircle
 10
840.3784102010442
 20
527.2956974314622
 30
0.0
 40
6.0
  0
VIEWPORT
  5
2E5
330
1B
100
AcDbEntity
 67
     1
  8
0
100
AcDbViewport
 10
102.7159103540546
 20
142.1038421011116
 30
0.0
 40
398.9583059879147
 41
286.1638111012791
 68
     1
 69
     1
 12
102.7159103540546
 22
142.1038421011116
 13
0.0
 23
0.0
 14
0.5
 24
0.5
 15
0.5
 25
0.5
 16
0.0
 26
0.0
 36
1.0
 17
0.0
 27
0.0
 37
0.0
 42
50.0
 43
0.0
 44
0.0
 45
286.1638111012791
 50
0.0
 51
0.0
 72
   100
 90
    32800
  1

281
     0
 71
     1
 74
     0
110
0.0
120
0.0
130
0.0
111
1.0
121
0.0
131
0.0
112
0.0
122
1.0
132
0.0
 79
     0
146
0.0
  0
INSERT
  5
2E8
330
1B
100
AcDbEntity
 67
     1
  8
0
100
AcDbBlockReference
 66
     1
  2
A4 sheet
 10
0.0
 20
0.0
 30
0.0
  0
ATTRIB
  5
2EA
330
2E8
100
AcDbEntity
 67
     1
  8
A4 SHEET
100
AcDbText
 10
31.93067360090936
 20
6.831721821908999
 30
0.0
 40
3.0
  1

  7
ROMANS
100
AcDbAttribute
  2
DELIVERY
 70
     0
  0
ATTRIB
  5
2EB
330
2E8
100
AcDbEntity
 67
     1
  8
A4 SHEET
100
AcDbText
 10
31.93067360090936
 20
31.99588333299775
 30
0.0
 40
3.0
  1

  7
ROMANS
100
AcDbAttribute
  2
PROJECT_NO
 70
     0
  0
ATTRIB
  5
2EC
330
2E8
100
AcDbEntity
 67
     1
  8
A4 SHEET
100
AcDbText
 10
8.290040479787815
 20
6.831721821908995
 30
0.0
 40
3.0
  1

  7
ROMANS
100
AcDbAttribute
  2
DATE
 70
     0
  0
ATTRIB
  5
2ED
330
2E8
100
AcDbEntity
 67
     1
  8
A4 SHEET
100
AcDbText
 10
8.290040479787815
 20
44.8504035457095
 30
0.0
 40
3.0
  1

  7
ROMANS
100
AcDbAttribute
  2
DRAWN
 70
     0
  0
ATTRIB
  5
2EE
330
2E8
100
AcDbEntity
 67
     1
  8
A4 SHEET
100
AcDbText
 10
8.290040479787815
 20
31.99588333299775
 30
0.0
 40
3.0
  1

  7
ROMANS
100
AcDbAttribute
  2
CHECKED
 70
     0
  0
ATTRIB
  5
2EF
330
2E8
100
AcDbEntity
 67
     1
  8
A4 SHEET
100
AcDbText
 10
8.290040479787815
 20
19.2098972668673
 30
0.0
 40
3.0
  1
NTS
  7
ROMANS
100
AcDbAttribute
  2
SCALE
 70
     0
  0
ATTRIB
  5
2F0
330
2E8
100
AcDbEntity
 67
     1
  8
A4 SHEET
100
AcDbText
 10
55.92636162597326
 20
42.81743759049767
 30
0.0
 40
3.0
  1

  7
ROMANS
100
AcDbAttribute
  2
CLIENT
 70
     0
  0
ATTRIB
  5
2F1
330
2E8
100
AcDbEntity
 67
     1
  8
A4 SHEET
100
AcDbText
 10
55.92636162597326
 20
28.03537398364564
 30
0.0
 40
3.0
  1

  7
ROMANS
100
AcDbAttribute
  2
TITLE_1
 70
     0
  0
ATTRIB
  5
2F2
330
2E8
100
AcDbEntity
 67
     1
  8
A4 SHEET
100
AcDbText
 10
55.92636162597326
 20
23.14725924241181
 30
0.0
 40
3.0
  1

  7
ROMANS
100
AcDbAttribute
  2
TITLE_2
 70
     0
  0
ATTRIB
  5
2F3
330
2E8
100
AcDbEntity
 67
     1
  8
A4 SHEET
100
AcDbText
 10
55.92636162597326
 20
18.16265549404075
 30
0.0
 40
3.0
  1

  7
ROMANS
100
AcDbAttribute
  2
TITLE_3
 70
     0
  0
ATTRIB
  5
2F4
330
2E8
100
AcDbEntity
 67
     1
  8
A4 SHEET
100
AcDbText
 10
55.92636162597326
 20
13.17805174566969
 30
0.0
 40
3.0
  1

  7
ROMANS
100
AcDbAttribute
  2
TITLE_4
 70
     0
  0
ATTRIB
  5
2F5
330
2E8
100
AcDbEntity
 67
     1
  8
A4 SHEET
100
AcDbText
 10
149.8320303694279
 20
6.270319131677899
 30
0.0
 40
3.0
  1

  7
ROMANS
100
AcDbAttribute
  2
DWG_NO
 70
     0
  0
SEQEND
  5
2E9
330
2E8
100
AcDbEntity
 67
     1
  8
0
  0
VIEWPORT
  5
508
330
1B
100
AcDbEntity
 67
     1
  8
Defpoints
100
AcDbViewport
 10
102.7160885671083
 20
168.4306760292504
 30
0.0
 40
189.8779654559008
 41
230.3813168644641
 68
     2
 69
     2
 12
900.6410710534288
 22
566.2807942064721
 13
0.0
 23
0.0
 14
0.5
 24
0.5
 15
0.5
 25
0.5
 16
0.0
 26
0.0
 36
1.0
 17
0.0
 27
0.0
 37
0.0
 42
50.0
 43
0.0
 44
0.0
 45
1151.90658432232
 50
0.0
 51
0.0
 72
   100
 90
    49248
  1

281
     0
 71
     1
 74
     0
110
0.0
120
0.0
130
0.0
111
1.0
121
0.0
131
0.0
112
0.0
122
1.0
132
0.0
 79
     0
146
0.0
  0
ENDSEC
  0
SECTION
  2
OBJECTS
  0
DICTIONARY
  5
C
330
0
100
AcDbDictionary
281
     1
  3
ACAD_GROUP
350
D
  3
ACAD_LAYOUT
350
1A
  3
ACAD_MLINESTYLE
350
17
  3
ACAD_PLOTSETTINGS
350
19
  3
ACAD_PLOTSTYLENAME
350
E
  0
DICTIONARY
  5
D
102
{ACAD_REACTORS
330
C
102
}
330
C
100
AcDbDictionary
281
     1
  0
DICTIONARY
  5
1A
102
{ACAD_REACTORS
330
C
102
}
330
C
100
AcDbDictionary
281
     1
  3
Layout1
350
1E
  3
Model
350
22
  0
DICTIONARY
  5
17
102
{ACAD_REACTORS
330
C
102
}
330
C
100
AcDbDictionary
281
     1
  3
Standard
350
18
  0
DICTIONARY
  5
19
102
{ACAD_REACTORS
330
C
102
}
330
C
100
AcDbDictionary
281
     1
  0
ACDBDICTIONARYWDFLT
  5
E
102
{ACAD_REACTORS
330
C
102
}
330
C
100
AcDbDictionary
281
     1
  3
Normal
350
F
100
AcDbDictionaryWithDefault
340
F
  0
LAYOUT
  5
1E
102
{ACAD_REACTORS
330
1A
102
}
330
1A
100
AcDbPlotSettings
  1

  2
A4.pc3
  4
A4
  6

 40
5.027083396911621
 41
5.027085304260253
 42
5.027069091796875
 43
5.027069091796875
 44
209.8886566162109
 45
297.0106506347656
 46
4.969999999999999
 47
1.939999999999999
 48
0.0
 49
0.0
140
0.0
141
0.0
142
1.0
143
1.0
 70
   692
 72
     1
 73
     0
 74
     1
  7
Std pen settings.ctb
 75
    16
147
1.0
148
-7.765441203257466
149
-0.5687679618303037
100
AcDbLayout
  1
Layout1
 70
     0
 71
     1
 10
-2.231642193654153
 20
-6.398317342429949
 11
207.6570144225567
 21
290.6123332923356
 12
0.0
 22
0.0
 32
0.0
 14
7.777105839157954
 24
0.5792682657111623
 34
0.0
 15
197.6550712950588
 25
283.6213344614824
 35
0.0
146
0.0
 13
0.0
 23
0.0
 33
0.0
 16
1.0
 26
0.0
 36
0.0
 17
0.0
 27
1.0
 37
0.0
 76
     0
330
1B
331
2E5
  0
LAYOUT
  5
22
102
{ACAD_REACTORS
330
1A
102
}
330
1A
100
AcDbPlotSettings
  1

  2
Xerox 2 plain A3
  4

  6

 40
0.0
 41
0.0
 42
0.0
 43
0.0
 44
0.0
 45
0.0
 46
0.0
 47
0.0
 48
0.0
 49
0.0
140
0.0
141
0.0
142
1.0
143
1.0
 70
  1712
 72
     0
 73
     0
 74
     0
  7
Std pen settings.ctb
 75
     0
147
1.0
148
0.0
149
0.0
100
AcDbLayout
  1
Model
 70
     1
 71
     0
 10
0.0
 20
0.0
 11
12.0
 21
9.0
 12
0.0
 22
0.0
 32
0.0
 14
0.0
 24
0.0
 34
0.0
 15
0.0
 25
0.0
 35
0.0
146
0.0
 13
0.0
 23
0.0
 33
0.0
 16
1.0
 26
0.0
 36
0.0
 17
0.0
 27
1.0
 37
0.0
 76
     0
330
1F
  0
MLINESTYLE
  5
18
102
{ACAD_REACTORS
330
17
102
}
330
17
100
AcDbMlineStyle
  2
STANDARD
 70
     0
  3

 62
   256
 51
90.0
 52
90.0
 71
     2
 49
0.5
 62
   256
  6
BYLAYER
 49
-0.5
 62
   256
  6
BYLAYER
  0
ACDBPLACEHOLDER
  5
F
102
{ACAD_REACTORS
330
E
102
}
330
E
  0
ENDSEC
  0
EOF
