  0
SECTION
  2
HEADER
  9
$ACADVER
  1
AC1015
  9
$ACADMAINTVER
 70
    20
  9
$DWGCODEPAGE
  3
ANSI_1252
  9
$INSBASE
 10
450.6661677952869
 20
440.5334409617798
 30
0.0
  9
$EXTMIN
 10
429.0202693421603
 20
311.3932510598953
 30
0.0
  9
$EXTMAX
 10
735.4488407707316
 20
500.9748405103062
 30
0.0
  9
$LIMMIN
 10
0.0
 20
0.0
  9
$LIMMAX
 10
12.0
 20
9.0
  9
$ORTHOMODE
 70
     0
  9
$REGENMODE
 70
     1
  9
$FILLMODE
 70
     1
  9
$QTEXTMODE
 70
     0
  9
$MIRRTEXT
 70
     1
  9
$LTSCALE
 40
1.0
  9
$ATTMODE
 70
     1
  9
$TEXTSIZE
 40
9.0
  9
$TRACEWID
 40
0.05
  9
$TEXTSTYLE
  7
Standard
  9
$CLAYER
  8
DDIMS
  9
$CELTYPE
  6
ByLayer
  9
$CECOLOR
 62
   256
  9
$CELTSCALE
 40
1.0
  9
$DISPSILH
 70
     0
  9
$DIMSCALE
 40
10.0
  9
$DIMASZ
 40
2.0
  9
$DIMEXO
 40
4.5
  9
$DIMDLI
 40
0.0
  9
$DIMRND
 40
1.0
  9
$DIMDLE
 40
1.25
  9
$DIMEXE
 40
1.5
  9
$DIMTP
 40
0.0
  9
$DIMTM
 40
0.0
  9
$DIMTXT
 40
1.8
  9
$DIMCEN
 40
0.0
  9
$DIMTSZ
 40
0.0
  9
$DIMTOL
 70
     0
  9
$DIMLIM
 70
     0
  9
$DIMTIH
 70
     0
  9
$DIMTOH
 70
     0
  9
$DIMSE1
 70
     0
  9
$DIMSE2
 70
     0
  9
$DIMTAD
 70
     1
  9
$DIMZIN
 70
    12
  9
$DIMBLK
  1

  9
$DIMASO
 70
     1
  9
$DIMSHO
 70
     1
  9
$DIMPOST
  1

  9
$DIMAPOST
  1

  9
$DIMALT
 70
     0
  9
$DIMALTD
 70
     2
  9
$DIMALTF
 40
0.04
  9
$DIMLFAC
 40
1.0
  9
$DIMTOFL
 70
     0
  9
$DIMTVP
 40
0.0
  9
$DIMTIX
 70
     0
  9
$DIMSOXD
 70
     0
  9
$DIMSAH
 70
     0
  9
$DIMBLK1
  1

  9
$DIMBLK2
  1

  9
$DIMSTYLE
  2
1-10
  9
$DIMCLRD
 70
     0
  9
$DIMCLRE
 70
     0
  9
$DIMCLRT
 70
     0
  9
$DIMTFAC
 40
1.25
  9
$DIMGAP
 40
1.0
  9
$DIMJUST
 70
     0
  9
$DIMSD1
 70
     0
  9
$DIMSD2
 70
     0
  9
$DIMTOLJ
 70
     1
  9
$DIMTZIN
 70
    12
  9
$DIMALTZ
 70
    12
  9
$DIMALTTZ
 70
    12
  9
$DIMUPT
 70
     0
  9
$DIMDEC
 70
     2
  9
$DIMTDEC
 70
     2
  9
$DIMALTU
 70
     2
  9
$DIMALTTD
 70
     2
  9
$DIMTXSTY
  7
ROMANS
  9
$DIMAUNIT
 70
     0
  9
$DIMADEC
 70
     0
  9
$DIMALTRND
 40
0.0
  9
$DIMAZIN
 70
     0
  9
$DIMDSEP
 70
    46
  9
$DIMATFIT
 70
     3
  9
$DIMFRAC
 70
     0
  9
$DIMLDRBLK
  1

  9
$DIMLUNIT
 70
     2
  9
$DIMLWD
 70
    -2
  9
$DIMLWE
 70
    -2
  9
$DIMTMOVE
 70
     2
  9
$LUNITS
 70
     2
  9
$LUPREC
 70
     4
  9
$SKETCHINC
 40
0.1
  9
$FILLETRAD
 40
0.0
  9
$AUNITS
 70
     0
  9
$AUPREC
 70
     0
  9
$MENU
  1
.
  9
$ELEVATION
 40
0.0
  9
$PELEVATION
 40
0.0
  9
$THICKNESS
 40
0.0
  9
$LIMCHECK
 70
     0
  9
$CHAMFERA
 40
0.0
  9
$CHAMFERB
 40
0.0
  9
$CHAMFERC
 40
1.0
  9
$CHAMFERD
 40
0.0
  9
$SKPOLY
 70
     0
  9
$TDCREATE
 40
2452599.789446991
  9
$TDUCREATE
 40
2452599.372780324
  9
$TDUPDATE
 40
2455064.358307350
  9
$TDUUPDATE
 40
2455063.941640683
  9
$TDINDWG
 40
0.0171721991
  9
$TDUSRTIMER
 40
0.0171707523
  9
$USRTIMER
 70
     1
  9
$ANGBASE
 50
0.0
  9
$ANGDIR
 70
     0
  9
$PDMODE
 70
     0
  9
$PDSIZE
 40
0.0
  9
$PLINEWID
 40
0.0
  9
$SPLFRAME
 70
     0
  9
$SPLINETYPE
 70
     6
  9
$SPLINESEGS
 70
     8
  9
$HANDSEED
  5
19A
  9
$SURFTAB1
 70
     6
  9
$SURFTAB2
 70
     6
  9
$SURFTYPE
 70
     6
  9
$SURFU
 70
     6
  9
$SURFV
 70
     6
  9
$UCSBASE
  2

  9
$UCSNAME
  2

  9
$UCSORG
 10
0.0
 20
0.0
 30
0.0
  9
$UCSXDIR
 10
1.0
 20
0.0
 30
0.0
  9
$UCSYDIR
 10
0.0
 20
1.0
 30
0.0
  9
$UCSORTHOREF
  2

  9
$UCSORTHOVIEW
 70
     0
  9
$UCSORGTOP
 10
0.0
 20
0.0
 30
0.0
  9
$UCSORGBOTTOM
 10
0.0
 20
0.0
 30
0.0
  9
$UCSORGLEFT
 10
0.0
 20
0.0
 30
0.0
  9
$UCSORGRIGHT
 10
0.0
 20
0.0
 30
0.0
  9
$UCSORGFRONT
 10
0.0
 20
0.0
 30
0.0
  9
$UCSORGBACK
 10
0.0
 20
0.0
 30
0.0
  9
$PUCSBASE
  2

  9
$PUCSNAME
  2

  9
$PUCSORG
 10
0.0
 20
0.0
 30
0.0
  9
$PUCSXDIR
 10
1.0
 20
0.0
 30
0.0
  9
$PUCSYDIR
 10
0.0
 20
1.0
 30
0.0
  9
$PUCSORTHOREF
  2

  9
$PUCSORTHOVIEW
 70
     0
  9
$PUCSORGTOP
 10
0.0
 20
0.0
 30
0.0
  9
$PUCSORGBOTTOM
 10
0.0
 20
0.0
 30
0.0
  9
$PUCSORGLEFT
 10
0.0
 20
0.0
 30
0.0
  9
$PUCSORGRIGHT
 10
0.0
 20
0.0
 30
0.0
  9
$PUCSORGFRONT
 10
0.0
 20
0.0
 30
0.0
  9
$PUCSORGBACK
 10
0.0
 20
0.0
 30
0.0
  9
$USERI1
 70
     0
  9
$USERI2
 70
     0
  9
$USERI3
 70
     0
  9
$USERI4
 70
     0
  9
$USERI5
 70
     0
  9
$USERR1
 40
0.0
  9
$USERR2
 40
0.0
  9
$USERR3
 40
0.0
  9
$USERR4
 40
0.0
  9
$USERR5
 40
0.0
  9
$WORLDVIEW
 70
     1
  9
$SHADEDGE
 70
     3
  9
$SHADEDIF
 70
    70
  9
$TILEMODE
 70
     1
  9
$MAXACTVP
 70
    64
  9
$PINSBASE
 10
0.0
 20
0.0
 30
0.0
  9
$PLIMCHECK
 70
     0
  9
$PEXTMIN
 10
7.777105839157954
 20
0.5792682657111623
 30
0.0
  9
$PEXTMAX
 10
197.6550712950588
 20
283.6213344614825
 30
0.0
  9
$PLIMMIN
 10
-1.784982416891718
 20
-7.730023936247521
  9
$PLIMMAX
 10
208.188345219827
 20
289.2382988176588
  9
$UNITMODE
 70
     0
  9
$VISRETAIN
 70
     1
  9
$PLINEGEN
 70
     0
  9
$PSLTSCALE
 70
     0
  9
$TREEDEPTH
 70
  3020
  9
$CMLSTYLE
  2
Standard
  9
$CMLJUST
 70
     0
  9
$CMLSCALE
 40
1.0
  9
$PROXYGRAPHICS
 70
     1
  9
$MEASUREMENT
 70
     1
  9
$CELWEIGHT
370
    -1
  9
$ENDCAPS
280
     0
  9
$JOINSTYLE
280
     0
  9
$LWDISPLAY
290
     0
  9
$INSUNITS
 70
     1
  9
$HYPERLINKBASE
  1

  9
$STYLESHEET
  1

  9
$XEDIT
290
     1
  9
$CEPSNTYPE
380
     0
  9
$PSTYLEMODE
290
     1
  9
$FINGERPRINTGUID
  2
{0F8F7604-0E20-11D5-8D50-00105A3DEFE9}
  9
$VERSIONGUID
  2
{27FBDD38-7BEA-4386-B660-C40F38361B39}
  9
$EXTNAMES
290
     1
  9
$PSVPSCALE
 40
0.0
  9
$OLESTARTUP
290
     0
  0
ENDSEC
  0
SECTION
  2
CLASSES
  0
CLASS
  1
ACDBDICTIONARYWDFLT
  2
AcDbDictionaryWithDefault
  3
ObjectDBX Classes
 90
        0
280
     0
281
     0
  0
CLASS
  1
ACDBPLACEHOLDER
  2
AcDbPlaceHolder
  3
ObjectDBX Classes
 90
        0
280
     0
281
     0
  0
CLASS
  1
LAYOUT
  2
AcDbLayout
  3
ObjectDBX Classes
 90
        0
280
     0
281
     0
  0
CLASS
  1
DICTIONARYVAR
  2
AcDbDictionaryVar
  3
ObjectDBX Classes
 90
        0
280
     0
281
     0
  0
CLASS
  1
PLOTSETTINGS
  2
AcDbPlotSettings
  3
ObjectDBX Classes
 90
    32768
280
     0
281
     0
  0
CLASS
  1
MATERIAL
  2
AcDbMaterial
  3
ObjectDBX Classes
 90
     1153
280
     0
281
     0
  0
CLASS
  1
VISUALSTYLE
  2
AcDbVisualStyle
  3
ObjectDBX Classes
 90
     4095
280
     0
281
     0
  0
CLASS
  1
TABLESTYLE
  2
AcDbTableStyle
  3
ObjectDBX Classes
 90
     4095
280
     0
281
     0
  0
CLASS
  1
SCALE
  2
AcDbScale
  3
ObjectDBX Classes
 90
     1153
280
     0
281
     0
  0
CLASS
  1
MLEADERSTYLE
  2
AcDbMLeaderStyle
  3
ACDB_MLEADERSTYLE_CLASS
 90
     4095
280
     0
281
     0
  0
CLASS
  1
SORTENTSTABLE
  2
AcDbSortentsTable
  3
ObjectDBX Classes
 90
    32768
280
     0
281
     0
  0
CLASS
  1
CELLSTYLEMAP
  2
AcDbCellStyleMap
  3
ObjectDBX Classes
 90
     1152
280
     0
281
     0
  0
ENDSEC
  0
SECTION
  2
TABLES
  0
TABLE
  2
VPORT
  5
19
102
{ACAD_XDICTIONARY
360
10A
102
}
330
0
100
AcDbSymbolTable
 70
     1
  0
VPORT
  5
1A
330
19
100
AcDbSymbolTableRecord
100
AcDbViewportTableRecord
  2
*Active
 70
     0
 10
0.0
 20
0.0
 11
1.0
 21
1.0
 12
562.5641408166525
 22
405.2093687325595
 13
0.0
 23
0.0
 14
0.5
 24
0.5
 15
0.5
 25
0.5
 16
0.0
 26
0.0
 36
1.0
 17
0.0
 27
0.0
 37
0.0
 40
305.5978448617134
 41
1.932835820895522
 42
50.0
 43
0.0
 44
0.0
 50
0.0
 51
0.0
 71
     0
 72
   100
 73
     1
 74
     3
 75
     0
 76
     0
 77
     0
 78
     0
281
     0
 65
     1
110
0.0
120
0.0
130
0.0
111
1.0
121
0.0
131
0.0
112
0.0
122
1.0
132
0.0
 79
     0
146
0.0
  0
ENDTAB
  0
TABLE
  2
LTYPE
  5
14
330
0
100
AcDbSymbolTable
 70
     1
  0
LTYPE
  5
15
330
14
100
AcDbSymbolTableRecord
100
AcDbLinetypeTableRecord
  2
ByBlock
 70
     0
  3

 72
    65
 73
     0
 40
0.0
  0
LTYPE
  5
16
330
14
100
AcDbSymbolTableRecord
100
AcDbLinetypeTableRecord
  2
ByLayer
 70
     0
  3

 72
    65
 73
     0
 40
0.0
  0
LTYPE
  5
8
330
14
100
AcDbSymbolTableRecord
100
AcDbLinetypeTableRecord
  2
Continuous
 70
     0
  3
Solid line
 72
    65
 73
     0
 40
0.0
  0
ENDTAB
  0
TABLE
  2
LAYER
  5
10
330
0
100
AcDbSymbolTable
 70
     4
  0
LAYER
  5
4
102
{ACAD_XDICTIONARY
360
F2
102
}
330
10
100
AcDbSymbolTableRecord
100
AcDbLayerTableRecord
  2
0
 70
     0
 62
     7
  6
Continuous
370
    -3
390
5
  0
LAYER
  5
27
102
{ACAD_XDICTIONARY
360
F4
102
}
330
10
100
AcDbSymbolTableRecord
100
AcDbLayerTableRecord
  2
DDIMS
 70
     0
 62
     2
  6
Continuous
370
    -3
390
5
  0
LAYER
  5
30
102
{ACAD_XDICTIONARY
360
F6
102
}
330
10
100
AcDbSymbolTableRecord
100
AcDbLayerTableRecord
  2
ANCON-TIE
 70
     0
 62
     1
  6
Continuous
370
    -3
390
5
  0
LAYER
  5
2A
102
{ACAD_XDICTIONARY
360
F8
102
}
330
10
100
AcDbSymbolTableRecord
100
AcDbLayerTableRecord
  2
ANCON-TEXT
 70
     0
 62
     6
  6
Continuous
370
    -3
390
5
  0
ENDTAB
  0
TABLE
  2
STYLE
  5
11
330
0
100
AcDbSymbolTable
 70
     2
  0
STYLE
  5
12
330
11
100
AcDbSymbolTableRecord
100
AcDbTextStyleTableRecord
  2
Standard
 70
     0
 40
9.0
 41
1.0
 50
0.0
 71
     0
 42
9.0
  3
romans.shx
  4

  0
STYLE
  5
1F
330
11
100
AcDbSymbolTableRecord
100
AcDbTextStyleTableRecord
  2
ROMANS
 70
     0
 40
0.0
 41
1.0
 50
0.0
 71
     0
 42
18.0
  3
ROMANS.SHX
  4

  0
ENDTAB
  0
TABLE
  2
VIEW
  5
17
330
0
100
AcDbSymbolTable
 70
     0
  0
ENDTAB
  0
TABLE
  2
UCS
  5
18
330
0
100
AcDbSymbolTable
 70
     0
  0
ENDTAB
  0
TABLE
  2
APPID
  5
1B
330
0
100
AcDbSymbolTable
 70
     4
  0
APPID
  5
1C
330
1B
100
AcDbSymbolTableRecord
100
AcDbRegAppTableRecord
  2
ACAD
 70
     0
  0
APPID
  5
DC
330
1B
100
AcDbSymbolTableRecord
100
AcDbRegAppTableRecord
  2
ACAD_MLEADERVER
 70
     0
  0
APPID
  5
DF
330
1B
100
AcDbSymbolTableRecord
100
AcDbRegAppTableRecord
  2
ACAD_PSEXT
 70
     0
  0
APPID
  5
F0
330
1B
100
AcDbSymbolTableRecord
100
AcDbRegAppTableRecord
  2
ACAD_EXEMPT_FROM_CAD_STANDARDS
 70
     0
  0
ENDTAB
  0
TABLE
  2
DIMSTYLE
  5
1D
330
0
100
AcDbSymbolTable
 70
     4
100
AcDbDimStyleTable
 71
     4
340
1E
340
20
340
21
340
22
  0
DIMSTYLE
105
1E
330
1D
100
AcDbSymbolTableRecord
100
AcDbDimStyleTableRecord
  2
1-10
 70
     0
 40
10.0
 41
2.0
 42
4.5
 43
0.0
 44
1.5
 45
1.0
 46
1.25
 73
     0
 74
     0
 77
     1
 78
    12
140
1.8
141
0.0
143
0.04
146
1.25
147
1.0
271
     2
272
     2
279
     2
284
    12
285
    12
286
    12
340
1F
  0
DIMSTYLE
105
22
330
1D
100
AcDbSymbolTableRecord
100
AcDbDimStyleTableRecord
  2
1-1
 70
     0
 41
2.0
 42
4.5
 43
0.0
 44
1.5
 45
1.0
 73
     0
 74
     0
 77
     1
 78
    12
140
1.8
141
0.0
146
1.25
147
0.8
279
     2
284
    12
285
    12
286
    12
340
1F
  0
DIMSTYLE
105
21
330
1D
100
AcDbSymbolTableRecord
100
AcDbDimStyleTableRecord
  2
1-2
 70
     0
 40
2.0
 41
2.0
 42
4.5
 43
0.0
 44
1.5
 45
1.0
 73
     0
 74
     0
 77
     1
 78
    12
140
1.8
141
0.0
146
1.25
147
0.8
279
     2
284
    12
285
    12
286
    12
340
1F
  0
DIMSTYLE
105
20
330
1D
100
AcDbSymbolTableRecord
100
AcDbDimStyleTableRecord
  2
1-5
 70
     0
 40
5.0
 41
2.0
 42
4.5
 43
0.0
 44
1.5
 45
1.0
 73
     0
 74
     0
 77
     1
 78
    12
140
1.8
141
0.0
146
1.25
147
1.0
284
    12
285
    12
286
    12
340
1F
  0
ENDTAB
  0
TABLE
  2
BLOCK_RECORD
  5
1
330
0
100
AcDbSymbolTable
 70
     0
  0
BLOCK_RECORD
  5
2
330
1
100
AcDbSymbolTableRecord
100
AcDbBlockTableRecord
  2
*Model_Space
340
A
  0
BLOCK_RECORD
  5
C
330
1
100
AcDbSymbolTableRecord
100
AcDbBlockTableRecord
  2
*Paper_Space
340
F
  0
ENDTAB
  0
ENDSEC
  0
SECTION
  2
BLOCKS
  0
BLOCK
  5
3
330
2
100
AcDbEntity
  8
0
100
AcDbBlockBegin
  2
*Model_Space
 70
     0
 10
0.0
 20
0.0
 30
0.0
  3
*Model_Space
  1

  0
ENDBLK
  5
9
330
2
100
AcDbEntity
  8
0
100
AcDbBlockEnd
  0
BLOCK
  5
D
330
C
100
AcDbEntity
 67
     1
  8
0
100
AcDbBlockBegin
  2
*Paper_Space
 70
     0
 10
0.0
 20
0.0
 30
0.0
  3
*Paper_Space
  1

  0
ENDBLK
  5
E
330
C
100
AcDbEntity
 67
     1
  8
0
100
AcDbBlockEnd
  0
ENDSEC
  0
SECTION
  2
ENTITIES
  0
LINE
  5
2F
330
2
100
AcDbEntity
  8
ANCON-TIE
100
AcDbLine
 10
520.6288398286274
 20
461.0019977957914
 30
0.0
 11
503.1295540779024
 21
461.0019977957914
 31
0.0
  0
LINE
  5
31
330
2
100
AcDbEntity
  8
ANCON-TIE
100
AcDbLine
 10
536.1288398286275
 20
450.5334409617797
 30
0.0
 11
502.6288398286275
 21
450.5334409617797
 31
0.0
  0
LINE
  5
32
330
2
100
AcDbEntity
  8
ANCON-TIE
100
AcDbLine
 10
577.6288398286275
 20
459.9286477119335
 30
0.0
 11
503.1295540779025
 21
459.9286477119335
 31
0.0
  0
LINE
  5
33
330
2
100
AcDbEntity
  8
ANCON-TIE
100
AcDbLine
 10
577.6288398286275
 20
459.3286477119335
 30
0.0
 11
503.1295540779025
 21
459.3286477119335
 31
0.0
  0
LINE
  5
34
330
2
100
AcDbEntity
  8
ANCON-TIE
100
AcDbLine
 10
536.1288398286275
 20
430.5334409617797
 30
0.0
 11
502.6288398286275
 21
430.5334409617797
 31
0.0
  0
LINE
  5
35
330
2
100
AcDbEntity
  8
ANCON-TIE
100
AcDbLine
 10
487.6288398286275
 20
436.0605347464255
 30
0.0
 11
479.4857985189236
 21
436.0605347464255
 31
0.0
  0
LINE
  5
36
330
2
100
AcDbEntity
  8
ANCON-TIE
100
AcDbLine
 10
487.6288398286275
 20
445.006347177134
 30
0.0
 11
479.4857985189236
 21
445.006347177134
 31
0.0
  0
LWPOLYLINE
  5
37
330
2
100
AcDbEntity
  8
ANCON-TIE
100
AcDbPolyline
 90
        5
 70
     0
 43
0.0
 10
453.2288398286275
 20
430.5334409617797
 42
0.1393493377213908
 10
454.280738506745
 20
430.8324091657881
 10
458.5730304692575
 20
433.4867136015431
 42
-0.1393493377213893
 10
467.6288398286275
 20
436.0605347464256
 42
-0.0054055278794661
 10
468.074089858373
 20
436.0605347464256
  0
LWPOLYLINE
  5
38
330
2
100
AcDbEntity
  8
ANCON-TIE
100
AcDbPolyline
 90
        5
 70
     0
 43
0.0
 10
453.2288398286275
 20
450.5334409617797
 42
-0.1393493377213908
 10
454.280738506745
 20
450.2344727577714
 10
458.5730304692575
 20
447.5801683220163
 42
0.1393493377213893
 10
467.6288398286275
 20
445.006347177134
 42
0.0054055278794661
 10
468.074089858373
 20
445.006347177134
  0
LINE
  5
39
330
2
100
AcDbEntity
  8
ANCON-TIE
100
AcDbLine
 10
454.3021899124852
 20
444.5334409617798
 30
0.0
 11
454.3021899124852
 21
436.5334409617798
 31
0.0
  0
LINE
  5
3A
330
2
100
AcDbEntity
  8
ANCON-TIE
100
AcDbLine
 10
450.6661677952869
 20
450.5334409617797
 30
0.0
 11
450.6661677952869
 21
430.5334409617797
 31
0.0
  0
LINE
  5
3B
330
2
100
AcDbEntity
  8
ANCON-TIE
100
AcDbLine
 10
453.2288398286271
 20
450.5334409617797
 30
0.0
 11
453.2288398286276
 21
430.5334409617797
 31
0.0
  0
LINE
  5
3C
330
2
100
AcDbEntity
  8
ANCON-TIE
100
AcDbLine
 10
454.1285280682801
 20
435.9702666972067
 30
0.0
 11
453.5761635170373
 21
435.1597894909257
 31
0.0
  0
ARC
  5
3D
330
2
100
AcDbEntity
  8
ANCON-TIE
100
AcDbCircle
 10
453.3021899124852
 20
436.5334409617798
 30
0.0
 40
1.0
100
AcDbArc
 50
325.7243952002846
 51
0.0
  0
LINE
  5
3E
330
2
100
AcDbEntity
  8
ANCON-TIE
100
AcDbLine
 10
453.2288398286275
 20
430.5334409617797
 30
0.0
 11
450.6661677952869
 21
430.5334409617797
 31
0.0
  0
ARC
  5
3F
330
2
100
AcDbEntity
  8
ANCON-TIE
100
AcDbCircle
 10
455.2288398286274
 20
434.0334409617797
 30
0.0
 40
2.0
100
AcDbArc
 50
145.7243952002846
 51
180.0
  0
LINE
  5
40
330
2
100
AcDbEntity
  8
ANCON-TIE
100
AcDbLine
 10
453.2288398286275
 20
450.5334409617797
 30
0.0
 11
450.6661677952869
 21
450.5334409617797
 31
0.0
  0
LINE
  5
41
330
2
100
AcDbEntity
  8
ANCON-TIE
100
AcDbLine
 10
454.1285280682801
 20
445.0966152263528
 30
0.0
 11
453.5761635170373
 21
445.9070924326337
 31
0.0
  0
ARC
  5
42
330
2
100
AcDbEntity
  8
ANCON-TIE
100
AcDbCircle
 10
453.3021899124852
 20
444.5334409617798
 30
0.0
 40
1.0
100
AcDbArc
 50
0.0
 51
34.27560479971542
  0
ARC
  5
43
330
2
100
AcDbEntity
  8
ANCON-TIE
100
AcDbCircle
 10
455.2288398286274
 20
447.0334409617797
 30
0.0
 40
2.0
100
AcDbArc
 50
180.0
 51
214.2756047997155
  0
LINE
  5
44
330
2
100
AcDbEntity
  8
ANCON-TIE
100
AcDbLine
 10
475.7718811383315
 20
436.0605347464255
 30
0.0
 11
467.6288398286275
 21
436.0605347464255
 31
0.0
  0
ARC
  5
45
330
2
100
AcDbEntity
  8
ANCON-TIE
100
AcDbCircle
 10
477.6288398286275
 20
428.1975900227392
 30
0.0
 40
8.079244723686311
100
AcDbArc
 50
76.71216516022709
 51
103.2878348397792
  0
LINE
  5
46
330
2
100
AcDbEntity
  8
ANCON-TIE
100
AcDbLine
 10
475.7718811383315
 20
445.006347177134
 30
0.0
 11
467.6288398286275
 21
445.006347177134
 31
0.0
  0
ARC
  5
47
330
2
100
AcDbEntity
  8
ANCON-TIE
100
AcDbCircle
 10
477.6288398286275
 20
452.8692919008204
 30
0.0
 40
8.079244723686311
100
AcDbArc
 50
256.7121651602207
 51
283.2878348397729
  0
ARC
  5
48
330
2
100
AcDbEntity
  8
ANCON-TIE
100
AcDbCircle
 10
484.6083657342188
 20
476.3214471215362
 30
0.0
 40
31.46043147006881
100
AcDbArc
 50
275.5093775685939
 51
304.9455743368075
  0
ARC
  5
49
330
2
100
AcDbEntity
  8
ANCON-TIE
100
AcDbCircle
 10
484.6083657342188
 20
404.7454348020233
 30
0.0
 40
31.46043147006881
100
AcDbArc
 50
55.05442566319255
 51
84.49062243140611
  0
LINE
  5
4A
330
2
100
AcDbEntity
  8
ANCON-TIE
100
AcDbLine
 10
448.8279467255066
 20
489.7348674887897
 30
0.0
 11
458.667612528559
 21
489.7348674887897
 31
0.0
  0
LINE
  5
4B
330
2
100
AcDbEntity
  8
ANCON-TIE
100
AcDbLine
 10
470.2790837633058
 20
477.0043979214331
 30
0.0
 11
488.4352652102212
 21
469.7420758640016
 31
0.0
  0
LINE
  5
4C
330
2
100
AcDbEntity
  8
ANCON-TIE
100
AcDbLine
 10
479.4857985189236
 20
464.4961906920164
 30
0.0
 11
485.3920013499943
 21
462.1337585241534
 31
0.0
  0
ARC
  5
4D
330
2
100
AcDbEntity
  8
ANCON-TIE
100
AcDbCircle
 10
477.6288398286275
 20
465.2389587732732
 30
0.0
 40
2.0
100
AcDbArc
 50
338.1990000000001
 51
158.1990000000001
  0
ARC
  5
4E
330
2
100
AcDbEntity
  8
ANCON-TIE
100
AcDbCircle
 10
455.2288398286275
 20
481.0889334116435
 30
0.0
 40
2.600000000000008
100
AcDbArc
 50
180.0
 51
248.1985905136506
  0
ARC
  5
4F
330
2
100
AcDbEntity
  8
ANCON-TIE
100
AcDbCircle
 10
458.9853779557006
 20
450.277268187565
 30
0.0
 40
29.01491410285572
100
AcDbArc
 50
67.09321108813104
 51
95.18655948944484
  0
ARC
  5
50
330
2
100
AcDbEntity
  8
ANCON-TIE
100
AcDbCircle
 10
453.3387364148975
 20
476.5017085095735
 30
0.0
 40
2.96154191026667
100
AcDbArc
 50
40.18019042089892
 51
67.20674883660852
  0
ARC
  5
51
330
2
100
AcDbEntity
  8
ANCON-TIE
100
AcDbCircle
 10
455.6749493120816
 20
478.4389699007747
 30
0.0
 40
1.0
100
AcDbArc
 50
5.391395200286217
 51
39.66700000000095
  0
ARC
  5
52
330
2
100
AcDbEntity
  8
ANCON-TIE
100
AcDbCircle
 10
476.7710344146601
 20
493.6139961728362
 30
0.0
 40
25.99867568801522
100
AcDbArc
 50
225.0852331698917
 51
244.0817430109893
  0
ARC
  5
53
330
2
100
AcDbEntity
  8
ANCON-TIE
100
AcDbCircle
 10
477.4912302169673
 20
496.5388832419778
 30
0.0
 40
29.01560230233464
100
AcDbArc
 50
219.6986192613191
 51
249.3018474237803
  0
ARC
  5
54
330
2
100
AcDbEntity
  8
ANCON-TIE
100
AcDbCircle
 10
484.8393872434598
 20
501.2009690421753
 30
0.0
 40
37.06986171825403
100
AcDbArc
 50
217.9333558268341
 51
224.533664767949
  0
ARC
  5
55
330
2
100
AcDbEntity
  8
ANCON-TIE
100
AcDbCircle
 10
458.6540006979832
 20
477.7195620544472
 30
0.0
 40
1.898339505570094
100
AcDbArc
 50
184.9287720110948
 51
221.0030354092805
  0
LINE
  5
56
330
2
100
AcDbEntity
  8
ANCON-TIE
100
AcDbLine
 10
456.6705253988401
 20
478.5329286974595
 30
0.0
 11
456.7626807259403
 21
477.5564619570849
 31
0.0
  0
ARC
  5
57
330
2
100
AcDbEntity
  8
ANCON-TIE
100
AcDbCircle
 10
453.3483462079082
 20
476.4977677692999
 30
0.0
 40
2.36154191026667
100
AcDbArc
 50
39.6666938468273
 51
67.20674883660852
  0
LINE
  5
58
330
2
100
AcDbEntity
  8
ANCON-TIE
100
AcDbLine
 10
467.235819903079
 20
469.3960805815847
 30
0.0
 11
475.7718811383313
 21
465.98172685453
 31
0.0
  0
LINE
  5
59
330
2
100
AcDbEntity
  8
ANCON-TIE
100
AcDbLine
 10
453.2288398286275
 20
481.0889334116435
 30
0.0
 11
453.2288398286275
 21
497.1504373715107
 31
0.0
  0
LINE
  5
5A
330
2
100
AcDbEntity
  8
ANCON-TIE
100
AcDbLine
 10
452.6288398286275
 20
481.0889334116435
 30
0.0
 11
452.6288398286275
 21
497.1504373715107
 31
0.0
  0
LINE
  5
5B
330
2
100
AcDbEntity
  8
ANCON-TIE
100
AcDbLine
 10
454.3021899124853
 20
493.7348674887897
 30
0.0
 11
454.3021899124853
 21
481.0889334116435
 31
0.0
  0
ARC
  5
5C
330
2
100
AcDbEntity
  8
ANCON-TIE
100
AcDbCircle
 10
455.2288398286274
 20
481.0889334116435
 30
0.0
 40
1.999999999999977
100
AcDbArc
 50
180.0
 51
248.1985905136446
  0
ARC
  5
5D
330
2
100
AcDbEntity
  8
ANCON-TIE
100
AcDbCircle
 10
453.3387364148975
 20
476.5017085095735
 30
0.0
 40
4.03494191026667
100
AcDbArc
 50
39.6666938468273
 51
67.20674883660852
  0
ARC
  5
5E
330
2
100
AcDbEntity
  8
ANCON-TIE
100
AcDbCircle
 10
455.2288398286274
 20
481.0889334116435
 30
0.0
 40
0.9265999999999777
100
AcDbArc
 50
180.0
 51
248.1985905136446
  0
LINE
  5
5F
330
2
100
AcDbEntity
  8
ANCON-TIE
100
AcDbLine
 10
451.1612291491123
 20
500.9748405103062
 30
0.0
 11
450.6661677952869
 21
500.6358504574303
 31
0.0
  0
LINE
  5
60
330
2
100
AcDbEntity
  8
ANCON-TIE
100
AcDbLine
 10
454.1285280682804
 20
494.2980417533627
 30
0.0
 11
453.5761635170375
 21
495.1085189596438
 31
0.0
  0
ARC
  5
61
330
2
100
AcDbEntity
  8
ANCON-TIE
100
AcDbCircle
 10
455.2288398286275
 20
496.2348674887897
 30
0.0
 40
2.0
100
AcDbArc
 50
180.0
 51
214.2756047997155
  0
ARC
  5
62
330
2
100
AcDbEntity
  8
ANCON-TIE
100
AcDbCircle
 10
450.6288398286275
 20
497.1504373715107
 30
0.0
 40
2.599999999999994
100
AcDbArc
 50
0.0
 51
34.40114007407637
  0
ARC
  5
63
330
2
100
AcDbEntity
  8
ANCON-TIE
100
AcDbCircle
 10
450.6288398286275
 20
497.1504373715107
 30
0.0
 40
2.0
100
AcDbArc
 50
0.0
 51
34.40114007407637
  0
ARC
  5
64
330
2
100
AcDbEntity
  8
ANCON-TIE
100
AcDbCircle
 10
453.3021899124853
 20
493.7348674887897
 30
0.0
 40
1.0
100
AcDbArc
 50
0.0
 51
34.27560479971542
  0
LINE
  5
65
330
2
100
AcDbEntity
  8
ANCON-TIE
100
AcDbLine
 10
452.7741056952033
 20
498.619394267306
 30
0.0
 11
451.1612291491123
 21
500.9748405103062
 31
0.0
  0
LINE
  5
66
330
2
100
AcDbEntity
  8
ANCON-TIE
100
AcDbLine
 10
452.2790443413781
 20
498.2804042144302
 30
0.0
 11
450.6661677952869
 21
500.6358504574303
 31
0.0
  0
ARC
  5
67
330
2
100
AcDbEntity
  8
ANCON-TIE
100
AcDbCircle
 10
476.7109702950058
 20
438.7848655304975
 30
0.0
 40
33.10261087593279
100
AcDbArc
 50
39.89866811601562
 51
69.2570413871527
  0
ARC
  5
68
330
2
100
AcDbEntity
  8
ANCON-TIE
100
AcDbCircle
 10
498.2512179987804
 20
492.6366009160192
 30
0.0
 40
33.10261087593279
100
AcDbArc
 50
247.1409586128441
 51
274.8469536138677
  0
ARC
  5
69
330
2
100
AcDbEntity
  8
ANCON-TIE
100
AcDbCircle
 10
496.1579625524259
 20
485.858891625337
 30
0.0
 40
25.99867568801522
100
AcDbArc
 50
252.3162569890101
 51
271.312766830107
  0
ARC
  5
6A
330
2
100
AcDbEntity
  8
ANCON-TIE
100
AcDbCircle
 10
504.3656198174062
 20
503.0562893722956
 30
0.0
 40
43.09760040770425
100
AcDbArc
 50
264.5724680924662
 51
267.6758286402863
  0
ARC
  5
6B
330
2
100
AcDbEntity
  8
ANCON-TIE
100
AcDbCircle
 10
503.1872269415729
 20
482.9807935400264
 30
0.0
 40
21.97887141156262
100
AcDbArc
 50
264.7228922153778
 51
269.8496549067079
  0
ARC
  5
6C
330
2
100
AcDbEntity
  8
ANCON-TIE
100
AcDbCircle
 10
503.1295540779025
 20
461.9286477119335
 30
0.0
 40
2.600000000000022
100
AcDbArc
 50
248.1985905136446
 51
269.9999999999935
  0
ARC
  5
6D
330
2
100
AcDbEntity
  8
ANCON-TIE
100
AcDbCircle
 10
495.5475992443155
 20
496.9172789997331
 30
0.0
 40
37.06986171825403
100
AcDbArc
 50
271.8643352320487
 51
277.3487658664005
  0
ARC
  5
73
330
2
100
AcDbEntity
  8
ANCON-TIE
100
AcDbCircle
 10
501.3250087597823
 20
457.3071033781716
 30
0.0
 40
2.36154191026667
100
AcDbArc
 50
69.19125116338763
 51
96.73130615317129
  0
ARC
  5
74
330
2
100
AcDbEntity
  8
ANCON-TIE
100
AcDbCircle
 10
503.1262715795027
 20
461.9284447849327
 30
0.0
 40
2.000000000000028
100
AcDbArc
 50
255.2737395136471
 51
270.0
  0
LINE
  5
75
330
2
100
AcDbEntity
  8
ANCON-TIE
100
AcDbLine
 10
574.3124044310158
 20
450.5334409617797
 30
0.0
 11
561.1288398286275
 21
450.5334409617797
 31
0.0
  0
ARC
  5
76
330
2
100
AcDbEntity
  8
ANCON-TIE
100
AcDbCircle
 10
568.2134250509811
 20
440.5334409617798
 30
0.0
 40
3.895198253938674
100
AcDbArc
 50
83.87788160956539
 51
276.1221183904346
  0
ARC
  5
77
330
2
100
AcDbEntity
  8
ANCON-TIE
100
AcDbCircle
 10
567.6288398286275
 20
440.5334409617798
 30
0.0
 40
4.0
100
AcDbArc
 50
75.52248781406975
 51
284.4775121859303
  0
LINE
  5
78
330
2
100
AcDbEntity
  8
ANCON-TIE
100
AcDbLine
 10
574.3124044310158
 20
430.5334409617797
 30
0.0
 11
561.1288398286275
 21
430.5334409617797
 31
0.0
  0
ARC
  5
79
330
2
100
AcDbEntity
  8
ANCON-TIE
100
AcDbCircle
 10
539.1288398286275
 20
450.5334409617797
 30
0.0
 40
3.0
100
AcDbArc
 50
180.0
 51
0.0
  0
ARC
  5
7A
330
2
100
AcDbEntity
  8
ANCON-TIE
100
AcDbCircle
 10
539.1288398286275
 20
430.5334409617797
 30
0.0
 40
3.0
100
AcDbArc
 50
0.0
 51
180.0
  0
ARC
  5
7B
330
2
100
AcDbEntity
  8
ANCON-TIE
100
AcDbCircle
 10
529.6288398286275
 20
440.5334409617798
 30
0.0
 40
4.0
100
AcDbArc
 50
75.52248781406975
 51
284.4775121859303
  0
ARC
  5
7C
330
2
100
AcDbEntity
  8
ANCON-TIE
100
AcDbCircle
 10
530.2134250509811
 20
440.5334409617798
 30
0.0
 40
3.895198253938674
100
AcDbArc
 50
83.87788160956539
 51
276.1221183904346
  0
ARC
  5
7D
330
2
100
AcDbEntity
  8
ANCON-TIE
100
AcDbCircle
 10
558.1288398286274
 20
450.5334409617797
 30
0.0
 40
3.0
100
AcDbArc
 50
180.0
 51
0.0
  0
ARC
  5
7E
330
2
100
AcDbEntity
  8
ANCON-TIE
100
AcDbCircle
 10
558.1288398286274
 20
430.5334409617797
 30
0.0
 40
3.0
100
AcDbArc
 50
0.0
 51
180.0
  0
ARC
  5
7F
330
2
100
AcDbEntity
  8
ANCON-TIE
100
AcDbCircle
 10
549.2134250509812
 20
440.5334409617798
 30
0.0
 40
3.895198253938674
100
AcDbArc
 50
83.87788160956539
 51
276.1221183904346
  0
ARC
  5
80
330
2
100
AcDbEntity
  8
ANCON-TIE
100
AcDbCircle
 10
548.6288398286275
 20
440.5334409617798
 30
0.0
 40
4.0
100
AcDbArc
 50
75.52248781406975
 51
284.4775121859303
  0
LINE
  5
81
330
2
100
AcDbEntity
  8
ANCON-TIE
100
AcDbLine
 10
555.1288398286275
 20
430.5334409617797
 30
0.0
 11
542.1288398286275
 21
430.5334409617797
 31
0.0
  0
LINE
  5
82
330
2
100
AcDbEntity
  8
ANCON-TIE
100
AcDbLine
 10
555.1288398286275
 20
450.5334409617797
 30
0.0
 11
542.1288398286275
 21
450.5334409617797
 31
0.0
  0
ARC
  5
83
330
2
100
AcDbEntity
  8
ANCON-TIE
100
AcDbCircle
 10
562.6288398286275
 20
440.5334409617798
 30
0.0
 40
15.0
100
AcDbArc
 50
332.1818607153476
 51
27.81813928465235
  0
LINE
  5
84
330
2
100
AcDbEntity
  8
ANCON-TIE
100
AcDbLine
 10
574.3124044310158
 20
430.5334409617797
 30
0.0
 11
575.8953389900491
 21
433.5334409617797
 31
0.0
  0
LINE
  5
85
330
2
100
AcDbEntity
  8
ANCON-TIE
100
AcDbLine
 10
574.3124044310158
 20
450.5334409617797
 30
0.0
 11
575.8953389900491
 21
447.5334409617797
 31
0.0
  0
ARC
  5
86
330
2
100
AcDbEntity
  8
ANCON-TIE
100
AcDbCircle
 10
572.0091101136604
 20
465.4529152289608
 30
0.0
 40
5.613817583039826
100
AcDbArc
 50
229.4670754022191
 51
259.7721564096401
  0
LINE
  5
87
330
2
100
AcDbEntity
  8
ANCON-TIE
100
AcDbLine
 10
521.1920140932005
 20
460.8283359515864
 30
0.0
 11
522.0024912994814
 21
460.2759714003436
 31
0.0
  0
ARC
  5
88
330
2
100
AcDbEntity
  8
ANCON-TIE
100
AcDbCircle
 10
520.6288398286274
 20
460.0019977957914
 30
0.0
 40
1.0
100
AcDbArc
 50
55.72439520028638
 51
90.0
  0
ARC
  5
89
330
2
100
AcDbEntity
  8
ANCON-TIE
100
AcDbCircle
 10
523.1288398286275
 20
461.9286477119335
 30
0.0
 40
2.0
100
AcDbArc
 50
235.7243952002864
 51
270.0
  0
ARC
  5
8A
330
2
100
AcDbEntity
  8
ANCON-TIE
100
AcDbCircle
 10
534.0091101136604
 20
465.4529152289608
 30
0.0
 40
5.613817583039826
100
AcDbArc
 50
229.4670754022191
 51
259.7721564096401
  0
ARC
  5
8B
330
2
100
AcDbEntity
  8
ANCON-TIE
100
AcDbCircle
 10
525.9233419051638
 20
456.9442543086064
 30
0.0
 40
5.874123237195878
100
AcDbArc
 50
30.5345389414642
 51
85.67447142891497
  0
ARC
  5
8C
330
2
100
AcDbEntity
  8
ANCON-TIE
100
AcDbCircle
 10
525.731456586058
 20
455.4855645301294
 30
0.0
 40
7.343580960860967
100
AcDbArc
 50
50.92111588078712
 51
85.03998723348059
  0
ARC
  5
8D
330
2
100
AcDbEntity
  8
ANCON-TIE
100
AcDbCircle
 10
525.8807773108157
 20
456.9026778536374
 30
0.0
 40
5.331925302028337
100
AcDbArc
 50
34.57741095848419
 51
85.29396764409829
  0
LINE
  5
8E
330
2
100
AcDbEntity
  8
ANCON-TIE
100
AcDbLine
 10
526.3182267970424
 20
462.2166279261739
 30
0.0
 11
526.366386036029
 21
462.8016458529605
 31
0.0
  0
ARC
  5
8F
330
2
100
AcDbEntity
  8
ANCON-TIE
100
AcDbCircle
 10
544.7314565860579
 20
455.4855645301293
 30
0.0
 40
7.343580960860967
100
AcDbArc
 50
50.92111588078712
 51
85.03998723348059
  0
ARC
  5
90
330
2
100
AcDbEntity
  8
ANCON-TIE
100
AcDbCircle
 10
544.8807773108156
 20
456.9026778536374
 30
0.0
 40
5.331925302028337
100
AcDbArc
 50
34.57741095848419
 51
85.29396764409829
  0
ARC
  5
91
330
2
100
AcDbEntity
  8
ANCON-TIE
100
AcDbCircle
 10
544.9233419051638
 20
456.9442543086064
 30
0.0
 40
5.874123237195878
100
AcDbArc
 50
30.5345389414642
 51
85.67447142891497
  0
LINE
  5
92
330
2
100
AcDbEntity
  8
ANCON-TIE
100
AcDbLine
 10
545.3182267970425
 20
462.2166279261739
 30
0.0
 11
545.3663860360291
 21
462.8016458529605
 31
0.0
  0
ARC
  5
93
330
2
100
AcDbEntity
  8
ANCON-TIE
100
AcDbCircle
 10
553.0091101136604
 20
465.4529152289609
 30
0.0
 40
5.613817583039826
100
AcDbArc
 50
229.4670754022191
 51
259.7721564096401
  0
LINE
  5
94
330
2
100
AcDbEntity
  8
ANCON-TIE
100
AcDbLine
 10
564.3182267970424
 20
462.2166279261739
 30
0.0
 11
564.366386036029
 21
462.8016458529605
 31
0.0
  0
ARC
  5
95
330
2
100
AcDbEntity
  8
ANCON-TIE
100
AcDbCircle
 10
563.9233419051638
 20
456.9442543086063
 30
0.0
 40
5.874123237195878
100
AcDbArc
 50
30.5345389414642
 51
85.67447142891497
  0
ARC
  5
96
330
2
100
AcDbEntity
  8
ANCON-TIE
100
AcDbCircle
 10
563.8807773108156
 20
456.9026778536374
 30
0.0
 40
5.331925302028337
100
AcDbArc
 50
34.57741095848419
 51
85.29396764409829
  0
ARC
  5
97
330
2
100
AcDbEntity
  8
ANCON-TIE
100
AcDbCircle
 10
563.731456586058
 20
455.4855645301293
 30
0.0
 40
7.343580960860967
100
AcDbArc
 50
50.92111588078712
 51
85.03998723348059
  0
LINE
  5
98
330
2
100
AcDbEntity
  8
ANCON-TIE
100
AcDbLine
 10
577.6288398286275
 20
459.3286477119335
 30
0.0
 11
577.6288398286275
 21
459.9286477119335
 31
0.0
  0
TEXT
  5
EC
330
2
100
AcDbEntity
  8
ANCON-TEXT
100
AcDbText
 10
428.5916979135889
 20
311.3932510598953
 30
0.0
 40
9.0
  1
REF: AMD-VT 129
  7
ROMANS
100
AcDbText
  0
TEXT
  5
ED
330
2
100
AcDbEntity
  8
ANCON-TEXT
100
AcDbText
 10
428.5916979135889
 20
369.8204803641258
 30
0.0
 40
9.0
  1
DESIGNED TO SUIT 50mm CAVITY
  7
ROMANS
100
AcDbText
  0
TEXT
  5
EE
330
2
100
AcDbEntity
  8
ANCON-TEXT
100
AcDbText
 10
428.5916979135889
 20
384.3919089355544
 30
0.0
 40
9.0
  1
AMD VENEER TIE 129mm (MEDIUM DUTY)
  7
ROMANS
100
AcDbText
  0
TEXT
  5
EF
330
2
100
AcDbEntity
  8
ANCON-TEXT
100
AcDbText
 10
428.5916979135889
 20
355.185619683688
 30
0.0
 40
9.0
  1
FOR USE IN TIMBER FRAMED CONSTRUCTION
  7
ROMANS
100
AcDbText
  0
ENDSEC
  0
SECTION
  2
OBJECTS
  0
DICTIONARY
  5
7
330
0
100
AcDbDictionary
281
     1
  3
ACAD_COLOR
350
C5
  3
ACAD_GROUP
350
24
  3
ACAD_LAYOUT
350
B
  3
ACAD_MATERIAL
350
9B
  3
ACAD_MLEADERSTYLE
350
DA
  3
ACAD_MLINESTYLE
350
25
  3
ACAD_PLOTSETTINGS
350
26
  3
ACAD_PLOTSTYLENAME
350
6
  3
ACAD_SCALELIST
350
C8
  3
ACAD_TABLESTYLE
350
C6
  3
ACAD_VISUALSTYLE
350
B4
  3
ACDB_RECOMPOSE_DATA
350
109
  3
AcDbVariableDictionary
350
110
  3
DWGPROPS
350
191
  0
DICTIONARY
  5
10A
330
19
100
AcDbDictionary
280
     1
281
     1
  0
DICTIONARY
  5
F2
330
4
100
AcDbDictionary
280
     1
281
     1
  3
ADSK_XREC_LAYER_RECONCILED
360
F3
  0
DICTIONARY
  5
F4
330
27
100
AcDbDictionary
280
     1
281
     1
  3
ADSK_XREC_LAYER_RECONCILED
360
F5
  0
DICTIONARY
  5
F6
330
30
100
AcDbDictionary
280
     1
281
     1
  3
ADSK_XREC_LAYER_RECONCILED
360
F7
  0
DICTIONARY
  5
F8
330
2A
100
AcDbDictionary
280
     1
281
     1
  3
ADSK_XREC_LAYER_RECONCILED
360
F9
  0
DICTIONARY
  5
C5
102
{ACAD_REACTORS
330
7
102
}
330
7
100
AcDbDictionary
281
     1
  0
DICTIONARY
  5
24
102
{ACAD_REACTORS
330
7
102
}
330
7
100
AcDbDictionary
281
     1
  0
DICTIONARY
  5
B
102
{ACAD_REACTORS
330
7
102
}
330
7
100
AcDbDictionary
281
     1
  3
Layout1
350
F
  3
Model
350
A
  0
DICTIONARY
  5
9B
102
{ACAD_REACTORS
330
7
102
}
330
7
100
AcDbDictionary
281
     1
  3
ByBlock
350
A4
  3
ByLayer
350
9C
  3
Global
350
AC
  0
DICTIONARY
  5
DA
102
{ACAD_REACTORS
330
7
102
}
330
7
100
AcDbDictionary
281
     1
  3
Standard
350
DB
  0
DICTIONARY
  5
25
102
{ACAD_REACTORS
330
7
102
}
330
7
100
AcDbDictionary
281
     1
  3
Standard
350
28
  0
DICTIONARY
  5
26
102
{ACAD_REACTORS
330
7
102
}
330
7
100
AcDbDictionary
281
     1
  0
ACDBDICTIONARYWDFLT
  5
6
102
{ACAD_REACTORS
330
7
102
}
330
7
100
AcDbDictionary
281
     1
  3
Normal
350
5
100
AcDbDictionaryWithDefault
340
5
  0
DICTIONARY
  5
C8
102
{ACAD_REACTORS
330
7
102
}
330
7
100
AcDbDictionary
281
     1
  3
A0
350
C9
  3
A1
350
CA
  3
A2
350
CB
  3
A3
350
CC
  3
A4
350
CD
  3
A5
350
CE
  3
A6
350
CF
  3
A7
350
D0
  3
A8
350
D1
  3
A9
350
D2
  3
B0
350
D3
  3
B1
350
D4
  3
B2
350
D5
  3
B3
350
D6
  3
B4
350
D7
  3
B5
350
D8
  3
B6
350
D9
  0
DICTIONARY
  5
C6
102
{ACAD_REACTORS
330
7
102
}
330
7
100
AcDbDictionary
281
     1
  3
Standard
350
C7
  0
DICTIONARY
  5
B4
102
{ACAD_REACTORS
330
7
102
}
330
7
100
AcDbDictionary
281
     1
  3
2dWireframe
350
BA
  3
3D Hidden
350
BC
  3
3dWireframe
350
BB
  3
Basic
350
B9
  3
Brighten
350
C0
  3
ColorChange
350
C4
  3
Conceptual
350
BD
  3
Dim
350
BF
  3
Facepattern
350
C3
  3
Flat
350
B5
  3
FlatWithEdges
350
B6
  3
Gouraud
350
B7
  3
GouraudWithEdges
350
B8
  3
Linepattern
350
C2
  3
Realistic
350
BE
  3
Thicken
350
C1
  0
XRECORD
  5
109
102
{ACAD_REACTORS
330
7
102
}
330
7
100
AcDbXrecord
280
     1
 90
        1
330
C7
  0
DICTIONARY
  5
110
102
{ACAD_REACTORS
330
7
102
}
330
7
100
AcDbDictionary
281
     1
  3
CANNOSCALE
350
113
  3
CMLEADERSTYLE
350
112
  3
CTABLESTYLE
350
111
  3
DIMASSOC
350
17A
  3
INDEXCTL
350
179
  3
SORTENTS
350
178
  0
XRECORD
  5
191
102
{ACAD_REACTORS
330
7
102
}
330
7
100
AcDbXrecord
280
     1
  1
DWGPROPS COOKIE
  2

  3

  4

  6

  7

  8
gfanos
  9

300
=
301
=
302
=
303
=
304
=
305
=
306
=
307
=
308
=
309
=
 40
0.0171718287037037
 41
2452599.789446991
 42
2455064.35830735
  1

 90
        0
  0
XRECORD
  5
F3
102
{ACAD_REACTORS
330
F2
102
}
330
F2
100
AcDbXrecord
280
     1
290
     1
  0
XRECORD
  5
F5
102
{ACAD_REACTORS
330
F4
102
}
330
F4
100
AcDbXrecord
280
     1
290
     1
  0
XRECORD
  5
F7
102
{ACAD_REACTORS
330
F6
102
}
330
F6
100
AcDbXrecord
280
     1
290
     1
  0
XRECORD
  5
F9
102
{ACAD_REACTORS
330
F8
102
}
330
F8
100
AcDbXrecord
280
     1
290
     1
  0
LAYOUT
  5
F
102
{ACAD_XDICTIONARY
360
194
102
}
102
{ACAD_REACTORS
330
B
102
}
330
B
100
AcDbPlotSettings
  1

  2
A4.pc3
  4
A4
  6

 40
6.720416545867919
 41
6.720423221588134
 42
7.694076538085937
 43
4.011077880859375
 44
209.9733276367187
 45
296.9683227539062
 46
2.839999999999999
 47
1.58
 48
0.0
 49
0.0
140
0.0
141
0.0
142
1.0
143
1.0
 70
   692
 72
     1
 73
     0
 74
     1
  7
Std pen settings.ctb
 75
    16
147
1.0
148
-7.775434128976201
149
-0.5703992853406135
100
AcDbLayout
  1
Layout1
 70
     0
 71
     1
 10
-1.784982416891718
 20
-7.730023936247521
 11
208.188345219827
 21
289.2382988176588
 12
0.0
 22
0.0
 32
0.0
 14
7.777105839157954
 24
0.5792682657111623
 34
0.0
 15
197.6550712950588
 25
283.6213344614825
 35
0.0
146
0.0
 13
0.0
 23
0.0
 33
0.0
 16
1.0
 26
0.0
 36
0.0
 17
0.0
 27
1.0
 37
0.0
 76
     0
330
C
  0
LAYOUT
  5
A
102
{ACAD_XDICTIONARY
360
192
102
}
102
{ACAD_REACTORS
330
B
102
}
330
B
100
AcDbPlotSettings
  1

  2
Xerox 2 plain A3
  4

  6

 40
0.0
 41
0.0
 42
0.0
 43
0.0
 44
0.0
 45
0.0
 46
0.0
 47
0.0
 48
0.0
 49
0.0
140
0.0
141
0.0
142
1.0
143
1.0
 70
  1712
 72
     0
 73
     0
 74
     0
  7
Std pen settings.ctb
 75
     0
147
1.0
148
0.0
149
0.0
100
AcDbLayout
  1
Model
 70
     1
 71
     0
 10
0.0
 20
0.0
 11
12.0
 21
9.0
 12
0.0
 22
0.0
 32
0.0
 14
0.0
 24
0.0
 34
0.0
 15
0.0
 25
0.0
 35
0.0
146
0.0
 13
0.0
 23
0.0
 33
0.0
 16
1.0
 26
0.0
 36
0.0
 17
0.0
 27
1.0
 37
0.0
 76
     0
330
2
331
1A
  0
MATERIAL
  5
A4
102
{ACAD_XDICTIONARY
360
A5
102
}
102
{ACAD_REACTORS
330
9B
102
}
330
9B
100
AcDbMaterial
  1
ByBlock
 72
     0
 43
0.0208333333333333
 43
0.0
 43
0.0
 43
0.0
 43
0.0
 43
0.0208333333333333
 43
0.0
 43
0.0
 43
0.0
 43
0.0
 43
1.0
 43
0.0
 43
0.0
 43
0.0
 43
0.0
 43
1.0
 77
     0
 47
0.0208333333333333
 47
0.0
 47
0.0
 47
0.0
 47
0.0
 47
0.0208333333333333
 47
0.0
 47
0.0
 47
0.0
 47
0.0
 47
1.0
 47
0.0
 47
0.0
 47
0.0
 47
0.0
 47
1.0
171
     0
 49
0.0208333333333333
 49
0.0
 49
0.0
 49
0.0
 49
0.0
 49
0.0208333333333333
 49
0.0
 49
0.0
 49
0.0
 49
0.0
 49
1.0
 49
0.0
 49
0.0
 49
0.0
 49
0.0
 49
1.0
175
     0
142
0.0208333333333333
142
0.0
142
0.0
142
0.0
142
0.0
142
0.0208333333333333
142
0.0
142
0.0
142
0.0
142
0.0
142
1.0
142
0.0
142
0.0
142
0.0
142
0.0
142
1.0
179
     0
144
0.0208333333333333
144
0.0
144
0.0
144
0.0
144
0.0
144
0.0208333333333333
144
0.0
144
0.0
144
0.0
144
0.0
144
1.0
144
0.0
144
0.0
144
0.0
144
0.0
144
1.0
147
0.0208333333333333
147
0.0
147
0.0
147
0.0
147
0.0
147
0.0208333333333333
147
0.0
147
0.0
147
0.0
147
0.0
147
1.0
147
0.0
147
0.0
147
0.0
147
0.0
147
1.0
  0
MATERIAL
  5
9C
102
{ACAD_XDICTIONARY
360
9D
102
}
102
{ACAD_REACTORS
330
9B
102
}
330
9B
100
AcDbMaterial
  1
ByLayer
 72
     0
 43
0.0208333333333333
 43
0.0
 43
0.0
 43
0.0
 43
0.0
 43
0.0208333333333333
 43
0.0
 43
0.0
 43
0.0
 43
0.0
 43
1.0
 43
0.0
 43
0.0
 43
0.0
 43
0.0
 43
1.0
 77
     0
 47
0.0208333333333333
 47
0.0
 47
0.0
 47
0.0
 47
0.0
 47
0.0208333333333333
 47
0.0
 47
0.0
 47
0.0
 47
0.0
 47
1.0
 47
0.0
 47
0.0
 47
0.0
 47
0.0
 47
1.0
171
     0
 49
0.0208333333333333
 49
0.0
 49
0.0
 49
0.0
 49
0.0
 49
0.0208333333333333
 49
0.0
 49
0.0
 49
0.0
 49
0.0
 49
1.0
 49
0.0
 49
0.0
 49
0.0
 49
0.0
 49
1.0
175
     0
142
0.0208333333333333
142
0.0
142
0.0
142
0.0
142
0.0
142
0.0208333333333333
142
0.0
142
0.0
142
0.0
142
0.0
142
1.0
142
0.0
142
0.0
142
0.0
142
0.0
142
1.0
179
     0
144
0.0208333333333333
144
0.0
144
0.0
144
0.0
144
0.0
144
0.0208333333333333
144
0.0
144
0.0
144
0.0
144
0.0
144
1.0
144
0.0
144
0.0
144
0.0
144
0.0
144
1.0
147
0.0208333333333333
147
0.0
147
0.0
147
0.0
147
0.0
147
0.0208333333333333
147
0.0
147
0.0
147
0.0
147
0.0
147
1.0
147
0.0
147
0.0
147
0.0
147
0.0
147
1.0
  0
MATERIAL
  5
AC
102
{ACAD_XDICTIONARY
360
AD
102
}
102
{ACAD_REACTORS
330
9B
102
}
330
9B
100
AcDbMaterial
  1
Global
 72
     0
 43
0.0208333333333333
 43
0.0
 43
0.0
 43
0.0
 43
0.0
 43
0.0208333333333333
 43
0.0
 43
0.0
 43
0.0
 43
0.0
 43
1.0
 43
0.0
 43
0.0
 43
0.0
 43
0.0
 43
1.0
 77
     0
 47
0.0208333333333333
 47
0.0
 47
0.0
 47
0.0
 47
0.0
 47
0.0208333333333333
 47
0.0
 47
0.0
 47
0.0
 47
0.0
 47
1.0
 47
0.0
 47
0.0
 47
0.0
 47
0.0
 47
1.0
171
     0
 49
0.0208333333333333
 49
0.0
 49
0.0
 49
0.0
 49
0.0
 49
0.0208333333333333
 49
0.0
 49
0.0
 49
0.0
 49
0.0
 49
1.0
 49
0.0
 49
0.0
 49
0.0
 49
0.0
 49
1.0
175
     0
142
0.0208333333333333
142
0.0
142
0.0
142
0.0
142
0.0
142
0.0208333333333333
142
0.0
142
0.0
142
0.0
142
0.0
142
1.0
142
0.0
142
0.0
142
0.0
142
0.0
142
1.0
179
     0
144
0.0208333333333333
144
0.0
144
0.0
144
0.0
144
0.0
144
0.0208333333333333
144
0.0
144
0.0
144
0.0
144
0.0
144
1.0
144
0.0
144
0.0
144
0.0
144
0.0
144
1.0
147
0.0208333333333333
147
0.0
147
0.0
147
0.0
147
0.0
147
0.0208333333333333
147
0.0
147
0.0
147
0.0
147
0.0
147
1.0
147
0.0
147
0.0
147
0.0
147
0.0
147
1.0
  0
MLEADERSTYLE
  5
DB
102
{ACAD_REACTORS
330
DA
102
}
330
DA
100
AcDbMLeaderStyle
170
     2
171
     1
172
     0
 90
        2
 40
0.0
 41
0.0
173
     1
 91
-1056964608
340
15
 92
       -2
290
     1
 42
2.0
291
     1
 43
0.36
  3
Standard
 44
4.0
300

342
12
174
     1
178
     6
175
     1
176
     0
 93
-1056964608
 45
4.0
292
     0
297
     0
 46
4.0
 94
-1056964608
 47
1.0
 49
1.0
140
1.0
293
     1
141
0.0
294
     1
177
     0
142
1.0
295
     0
296
     0
143
0.125
1001
ACAD_MLEADERVER
1070
     2
  0
MLINESTYLE
  5
28
102
{ACAD_REACTORS
330
25
102
}
330
25
100
AcDbMlineStyle
  2
STANDARD
 70
     0
  3

 62
   256
 51
90.0
 52
90.0
 71
     2
 49
0.5
 62
   256
  6
BYLAYER
 49
-0.5
 62
   256
  6
BYLAYER
  0
ACDBPLACEHOLDER
  5
5
102
{ACAD_REACTORS
330
6
102
}
330
6
  0
SCALE
  5
C9
102
{ACAD_REACTORS
330
C8
102
}
330
C8
100
AcDbScale
 70
     0
300
1:1
140
1.0
141
1.0
290
     1
  0
SCALE
  5
CA
102
{ACAD_REACTORS
330
C8
102
}
330
C8
100
AcDbScale
 70
     0
300
1:2
140
1.0
141
2.0
290
     0
  0
SCALE
  5
CB
102
{ACAD_REACTORS
330
C8
102
}
330
C8
100
AcDbScale
 70
     0
300
1:4
140
1.0
141
4.0
290
     0
  0
SCALE
  5
CC
102
{ACAD_REACTORS
330
C8
102
}
330
C8
100
AcDbScale
 70
     0
300
1:5
140
1.0
141
5.0
290
     0
  0
SCALE
  5
CD
102
{ACAD_REACTORS
330
C8
102
}
330
C8
100
AcDbScale
 70
     0
300
1:8
140
1.0
141
8.0
290
     0
  0
SCALE
  5
CE
102
{ACAD_REACTORS
330
C8
102
}
330
C8
100
AcDbScale
 70
     0
300
1:10
140
1.0
141
10.0
290
     0
  0
SCALE
  5
CF
102
{ACAD_REACTORS
330
C8
102
}
330
C8
100
AcDbScale
 70
     0
300
1:16
140
1.0
141
16.0
290
     0
  0
SCALE
  5
D0
102
{ACAD_REACTORS
330
C8
102
}
330
C8
100
AcDbScale
 70
     0
300
1:20
140
1.0
141
20.0
290
     0
  0
SCALE
  5
D1
102
{ACAD_REACTORS
330
C8
102
}
330
C8
100
AcDbScale
 70
     0
300
1:30
140
1.0
141
30.0
290
     0
  0
SCALE
  5
D2
102
{ACAD_REACTORS
330
C8
102
}
330
C8
100
AcDbScale
 70
     0
300
1:40
140
1.0
141
40.0
290
     0
  0
SCALE
  5
D3
102
{ACAD_REACTORS
330
C8
102
}
330
C8
100
AcDbScale
 70
     0
300
1:50
140
1.0
141
50.0
290
     0
  0
SCALE
  5
D4
102
{ACAD_REACTORS
330
C8
102
}
330
C8
100
AcDbScale
 70
     0
300
1:100
140
1.0
141
100.0
290
     0
  0
SCALE
  5
D5
102
{ACAD_REACTORS
330
C8
102
}
330
C8
100
AcDbScale
 70
     0
300
2:1
140
2.0
141
1.0
290
     0
  0
SCALE
  5
D6
102
{ACAD_REACTORS
330
C8
102
}
330
C8
100
AcDbScale
 70
     0
300
4:1
140
4.0
141
1.0
290
     0
  0
SCALE
  5
D7
102
{ACAD_REACTORS
330
C8
102
}
330
C8
100
AcDbScale
 70
     0
300
8:1
140
8.0
141
1.0
290
     0
  0
SCALE
  5
D8
102
{ACAD_REACTORS
330
C8
102
}
330
C8
100
AcDbScale
 70
     0
300
10:1
140
10.0
141
1.0
290
     0
  0
SCALE
  5
D9
102
{ACAD_REACTORS
330
C8
102
}
330
C8
100
AcDbScale
 70
     0
300
100:1
140
100.0
141
1.0
290
     0
  0
TABLESTYLE
  5
C7
102
{ACAD_XDICTIONARY
360
107
102
}
102
{ACAD_REACTORS
330
C6
102
}
330
C6
100
AcDbTableStyle
  3
Standard
 70
     0
 71
     0
 40
1.5
 41
1.5
280
     0
281
     0
  7
Standard
140
4.5
170
     2
 62
     0
 63
     7
283
     0
274
    -2
284
     1
 64
     0
275
    -2
285
     1
 65
     0
276
    -2
286
     1
 66
     0
277
    -2
287
     1
 67
     0
278
    -2
288
     1
 68
     0
279
    -2
289
     1
 69
     0
  7
Standard
140
6.0
170
     5
 62
     0
 63
     7
283
     0
274
    -2
284
     1
 64
     0
275
    -2
285
     1
 65
     0
276
    -2
286
     1
 66
     0
277
    -2
287
     1
 67
     0
278
    -2
288
     1
 68
     0
279
    -2
289
     1
 69
     0
  7
Standard
140
4.5
170
     5
 62
     0
 63
     7
283
     0
274
    -2
284
     1
 64
     0
275
    -2
285
     1
 65
     0
276
    -2
286
     1
 66
     0
277
    -2
287
     1
 67
     0
278
    -2
288
     1
 68
     0
279
    -2
289
     1
 69
     0
  0
VISUALSTYLE
  5
BA
102
{ACAD_REACTORS
330
B4
102
}
330
B4
100
AcDbVisualStyle
  2
2dWireframe
 70
     4
 71
     0
 72
     2
 73
     0
 90
        0
 40
-0.6
 41
-30.0
 62
     5
 63
     7
 74
     1
 91
        4
 64
     7
 65
   257
 75
     1
175
     1
 42
1.0
 92
        0
 66
   257
 43
1.0
 76
     1
 77
     6
 78
     2
 67
     7
 79
     5
170
     0
171
     0
290
     0
174
     0
 93
        1
 44
0.0
173
     0
291
     0
 45
0.0
1001
ACAD
1000
AcDbSavedByObjectVersion
1070
     0
  0
VISUALSTYLE
  5
BC
102
{ACAD_REACTORS
330
B4
102
}
330
B4
100
AcDbVisualStyle
  2
3D Hidden
 70
     6
 71
     1
 72
     2
 73
     2
 90
        0
 40
-0.6
 41
-30.0
 62
     5
 63
     7
 74
     2
 91
        2
 64
     7
 65
   257
 75
     2
175
     1
 42
40.0
 92
        0
 66
   257
 43
1.0
 76
     1
 77
     6
 78
     2
 67
     7
 79
     3
170
     0
171
     0
290
     0
174
     0
 93
        1
 44
0.0
173
     0
291
     0
 45
0.0
1001
ACAD
1000
AcDbSavedByObjectVersion
1070
     0
  0
VISUALSTYLE
  5
BB
102
{ACAD_REACTORS
330
B4
102
}
330
B4
100
AcDbVisualStyle
  2
3dWireframe
 70
     5
 71
     0
 72
     2
 73
     0
 90
        0
 40
-0.6
 41
-30.0
 62
     5
 63
     7
 74
     1
 91
        4
 64
     7
 65
   257
 75
     1
175
     1
 42
1.0
 92
        0
 66
   257
 43
1.0
 76
     1
 77
     6
 78
     2
 67
     7
 79
     5
170
     0
171
     0
290
     0
174
     0
 93
        1
 44
0.0
173
     0
291
     0
 45
0.0
1001
ACAD
1000
AcDbSavedByObjectVersion
1070
     0
  0
VISUALSTYLE
  5
B9
102
{ACAD_REACTORS
330
B4
102
}
330
B4
100
AcDbVisualStyle
  2
Basic
 70
     7
 71
     1
 72
     0
 73
     1
 90
        0
 40
-0.6
 41
-30.0
 62
     5
 63
     7
 74
     0
 91
        4
 64
     7
 65
   257
 75
     1
175
     1
 42
1.0
 92
        8
 66
     7
 43
1.0
 76
     1
 77
     6
 78
     2
 67
     7
 79
     5
170
     0
171
     0
290
     0
174
     0
 93
        1
 44
0.0
173
     0
291
     1
 45
0.0
1001
ACAD
1000
AcDbSavedByObjectVersion
1070
     0
  0
VISUALSTYLE
  5
C0
102
{ACAD_REACTORS
330
B4
102
}
330
B4
100
AcDbVisualStyle
  2
Brighten
 70
    12
 71
     2
 72
     2
 73
     0
 90
        0
 40
-0.6
 41
-30.0
 62
     5
 63
     7
 74
     1
 91
        4
 64
     7
 65
   257
 75
     1
175
     1
 42
1.0
 92
        8
 66
     7
 43
1.0
 76
     1
 77
     6
 78
     2
 67
     7
 79
     5
170
     0
171
     0
290
     0
174
     0
 93
        1
 44
50.0
173
     0
291
     1
 45
0.0
1001
ACAD
1000
AcDbSavedByObjectVersion
1070
     0
  0
VISUALSTYLE
  5
C4
102
{ACAD_REACTORS
330
B4
102
}
330
B4
100
AcDbVisualStyle
  2
ColorChange
 70
    16
 71
     2
 72
     2
 73
     3
 90
        0
 40
-0.6
 41
-30.0
 62
     5
 63
     8
 74
     1
 91
        4
 64
     7
 65
   257
 75
     1
175
     1
 42
1.0
 92
        8
 66
     8
 43
1.0
 76
     1
 77
     6
 78
     2
 67
     7
 79
     5
170
     0
171
     0
290
     0
174
     0
 93
        1
 44
0.0
173
     0
291
     1
 45
0.0
1001
ACAD
1000
AcDbSavedByObjectVersion
1070
     0
  0
VISUALSTYLE
  5
BD
102
{ACAD_REACTORS
330
B4
102
}
330
B4
100
AcDbVisualStyle
  2
Conceptual
 70
     9
 71
     3
 72
     2
 73
     0
 90
        0
 40
-0.6
 41
-30.0
 62
     5
 63
     7
 74
     2
 91
        2
 64
     7
 65
   257
 75
     1
175
     1
 42
40.0
 92
        8
 66
     7
 43
1.0
 76
     1
 77
     6
 78
     2
 67
     7
 79
     3
170
     0
171
     0
290
     0
174
     0
 93
        1
 44
0.0
173
     0
291
     0
 45
0.0
1001
ACAD
1000
AcDbSavedByObjectVersion
1070
     0
  0
VISUALSTYLE
  5
BF
102
{ACAD_REACTORS
330
B4
102
}
330
B4
100
AcDbVisualStyle
  2
Dim
 70
    11
 71
     2
 72
     2
 73
     0
 90
        0
 40
-0.6
 41
-30.0
 62
     5
 63
     7
 74
     1
 91
        4
 64
     7
 65
   257
 75
     1
175
     1
 42
1.0
 92
        8
 66
     7
 43
1.0
 76
     1
 77
     6
 78
     2
 67
     7
 79
     5
170
     0
171
     0
290
     0
174
     0
 93
        1
 44
-50.0
173
     0
291
     1
 45
0.0
1001
ACAD
1000
AcDbSavedByObjectVersion
1070
     0
  0
VISUALSTYLE
  5
C3
102
{ACAD_REACTORS
330
B4
102
}
330
B4
100
AcDbVisualStyle
  2
Facepattern
 70
    15
 71
     2
 72
     2
 73
     0
 90
        0
 40
-0.6
 41
-30.0
 62
     5
 63
     7
 74
     1
 91
        4
 64
     7
 65
   257
 75
     1
175
     1
 42
1.0
 92
        8
 66
     7
 43
1.0
 76
     1
 77
     6
 78
     2
 67
     7
 79
     5
170
     0
171
     0
290
     0
174
     0
 93
        1
 44
0.0
173
     0
291
     1
 45
0.0
1001
ACAD
1000
AcDbSavedByObjectVersion
1070
     0
  0
VISUALSTYLE
  5
B5
102
{ACAD_REACTORS
330
B4
102
}
330
B4
100
AcDbVisualStyle
  2
Flat
 70
     0
 71
     2
 72
     1
 73
     1
 90
        2
 40
-0.6
 41
30.0
 62
     5
 63
     7
 74
     0
 91
        4
 64
     7
 65
   257
 75
     1
175
     1
 42
1.0
 92
        8
 66
     7
 43
1.0
 76
     1
 77
     6
 78
     2
 67
     7
 79
     5
170
     0
171
     0
290
     0
174
     0
 93
       13
 44
0.0
173
     0
291
     1
 45
0.0
1001
ACAD
1000
AcDbSavedByObjectVersion
1070
     0
  0
VISUALSTYLE
  5
B6
102
{ACAD_REACTORS
330
B4
102
}
330
B4
100
AcDbVisualStyle
  2
FlatWithEdges
 70
     1
 71
     2
 72
     1
 73
     1
 90
        2
 40
-0.6
 41
30.0
 62
     5
 63
     7
 74
     1
 91
        4
 64
     7
 65
   257
 75
     1
175
     1
 42
1.0
 92
        0
 66
   257
 43
1.0
 76
     1
 77
     6
 78
     2
 67
     7
 79
     5
170
     0
171
     0
290
     0
174
     0
 93
       13
 44
0.0
173
     0
291
     1
 45
0.0
1001
ACAD
1000
AcDbSavedByObjectVersion
1070
     0
  0
VISUALSTYLE
  5
B7
102
{ACAD_REACTORS
330
B4
102
}
330
B4
100
AcDbVisualStyle
  2
Gouraud
 70
     2
 71
     2
 72
     2
 73
     1
 90
        2
 40
-0.6
 41
30.0
 62
     5
 63
     7
 74
     0
 91
        4
 64
     7
 65
   257
 75
     1
175
     1
 42
1.0
 92
        0
 66
     7
 43
1.0
 76
     1
 77
     6
 78
     2
 67
     7
 79
     5
170
     0
171
     0
290
     0
174
     0
 93
       13
 44
0.0
173
     0
291
     1
 45
0.0
1001
ACAD
1000
AcDbSavedByObjectVersion
1070
     0
  0
VISUALSTYLE
  5
B8
102
{ACAD_REACTORS
330
B4
102
}
330
B4
100
AcDbVisualStyle
  2
GouraudWithEdges
 70
     3
 71
     2
 72
     2
 73
     1
 90
        2
 40
-0.6
 41
30.0
 62
     5
 63
     7
 74
     1
 91
        4
 64
     7
 65
   257
 75
     1
175
     1
 42
1.0
 92
        0
 66
   257
 43
1.0
 76
     1
 77
     6
 78
     2
 67
     7
 79
     5
170
     0
171
     0
290
     0
174
     0
 93
       13
 44
0.0
173
     0
291
     1
 45
0.0
1001
ACAD
1000
AcDbSavedByObjectVersion
1070
     0
  0
VISUALSTYLE
  5
C2
102
{ACAD_REACTORS
330
B4
102
}
330
B4
100
AcDbVisualStyle
  2
Linepattern
 70
    14
 71
     2
 72
     2
 73
     0
 90
        0
 40
-0.6
 41
-30.0
 62
     5
 63
     7
 74
     1
 91
        4
 64
     7
 65
   257
 75
     7
175
     7
 42
1.0
 92
        8
 66
     7
 43
1.0
 76
     1
 77
     6
 78
     2
 67
     7
 79
     5
170
     0
171
     0
290
     0
174
     0
 93
        1
 44
0.0
173
     0
291
     1
 45
0.0
1001
ACAD
1000
AcDbSavedByObjectVersion
1070
     0
  0
VISUALSTYLE
  5
BE
102
{ACAD_REACTORS
330
B4
102
}
330
B4
100
AcDbVisualStyle
  2
Realistic
 70
     8
 71
     2
 72
     2
 73
     0
 90
        0
 40
-0.6
 41
-30.0
 62
     5
 63
     7
 74
     1
 91
        0
 64
     7
 65
   257
 75
     1
175
     1
 42
1.0
 92
        8
 66
     8
 43
1.0
 76
     1
 77
     6
 78
     2
 67
     7
 79
     5
170
     0
171
     0
290
     0
174
     0
 93
       13
 44
0.0
173
     0
291
     0
 45
0.0
1001
ACAD
1000
AcDbSavedByObjectVersion
1070
     0
  0
VISUALSTYLE
  5
C1
102
{ACAD_REACTORS
330
B4
102
}
330
B4
100
AcDbVisualStyle
  2
Thicken
 70
    13
 71
     2
 72
     2
 73
     0
 90
        0
 40
-0.6
 41
-30.0
 62
     5
 63
     7
 74
     1
 91
        4
 64
     7
 65
   257
 75
     1
175
     1
 42
1.0
 92
       12
 66
     7
 43
1.0
 76
     1
 77
     6
 78
     2
 67
     7
 79
     5
170
     0
171
     0
290
     0
174
     0
 93
        1
 44
0.0
173
     0
291
     1
 45
0.0
1001
ACAD
1000
AcDbSavedByObjectVersion
1070
     0
  0
DICTIONARYVAR
  5
113
102
{ACAD_REACTORS
330
110
102
}
330
110
100
DictionaryVariables
280
     0
  1
1:1
  0
DICTIONARYVAR
  5
112
102
{ACAD_REACTORS
330
110
102
}
330
110
100
DictionaryVariables
280
     0
  1
STANDARD
  0
DICTIONARYVAR
  5
111
102
{ACAD_REACTORS
330
110
102
}
330
110
100
DictionaryVariables
280
     0
  1
STANDARD
  0
DICTIONARYVAR
  5
17A
102
{ACAD_REACTORS
330
110
102
}
330
110
100
DictionaryVariables
280
     0
  1
1
  0
DICTIONARYVAR
  5
179
102
{ACAD_REACTORS
330
110
102
}
330
110
100
DictionaryVariables
280
     0
  1
0
  0
DICTIONARYVAR
  5
178
102
{ACAD_REACTORS
330
110
102
}
330
110
100
DictionaryVariables
280
     0
  1
127
  0
DICTIONARY
  5
194
330
F
100
AcDbDictionary
280
     1
281
     1
  3
ACAD_XREC_ROUNDTRIP
360
195
  0
DICTIONARY
  5
192
330
A
100
AcDbDictionary
280
     1
281
     1
  3
ACAD_XREC_ROUNDTRIP
360
193
  0
DICTIONARY
  5
A5
330
A4
100
AcDbDictionary
280
     1
281
     1
  3
ACAD_XREC_ROUNDTRIP
360
197
  3
BUMPTILE
360
A7
  3
DIFFUSETILE
360
A6
  3
OPACITYTILE
360
AA
  3
REFLECTIONTILE
360
A9
  3
REFRACTIONTILE
360
AB
  3
SPECULARTILE
360
A8
  0
DICTIONARY
  5
9D
330
9C
100
AcDbDictionary
280
     1
281
     1
  3
ACAD_XREC_ROUNDTRIP
360
196
  3
BUMPTILE
360
9F
  3
DIFFUSETILE
360
9E
  3
OPACITYTILE
360
A2
  3
REFLECTIONTILE
360
A1
  3
REFRACTIONTILE
360
A3
  3
SPECULARTILE
360
A0
  0
DICTIONARY
  5
AD
330
AC
100
AcDbDictionary
280
     1
281
     1
  3
ACAD_XREC_ROUNDTRIP
360
198
  3
BUMPTILE
360
AF
  3
DIFFUSETILE
360
AE
  3
OPACITYTILE
360
B2
  3
REFLECTIONTILE
360
B1
  3
REFRACTIONTILE
360
B3
  3
SPECULARTILE
360
B0
  0
DICTIONARY
  5
107
330
C7
100
AcDbDictionary
280
     1
281
     1
  3
ACAD_ROUNDTRIP_2008_TABLESTYLE_CELLSTYLEMAP
360
190
  3
ACAD_XREC_ROUNDTRIP
360
199
  0
XRECORD
  5
195
102
{ACAD_REACTORS
330
194
102
}
330
194
100
AcDbXrecord
280
     1
102
SHADEPLOT
 70
     0
102
SHADEPLOTRESLEVEL
 70
     2
102
SHADEPLOTCUSTOMDPI
 70
   300
  0
XRECORD
  5
193
102
{ACAD_REACTORS
330
192
102
}
330
192
100
AcDbXrecord
280
     1
102
SHADEPLOT
 70
     0
102
SHADEPLOTRESLEVEL
 70
     2
102
SHADEPLOTCUSTOMDPI
 70
   300
  0
XRECORD
  5
197
102
{ACAD_REACTORS
330
A5
102
}
330
A5
100
AcDbXrecord
280
     1
102
MATERIAL
148
0.0
149
0.0
149
0.0
 93
        0
 94
      127
282
     0
 72
     0
 77
     0
171
     0
175
     0
179
     0
273
     0
  0
XRECORD
  5
A7
102
{ACAD_REACTORS
330
A5
102
}
330
A5
100
AcDbXrecord
280
     1
270
     1
271
     1
  0
XRECORD
  5
A6
102
{ACAD_REACTORS
330
A5
102
}
330
A5
100
AcDbXrecord
280
     1
270
     1
271
     1
  0
XRECORD
  5
AA
102
{ACAD_REACTORS
330
A5
102
}
330
A5
100
AcDbXrecord
280
     1
270
     1
271
     1
  0
XRECORD
  5
A9
102
{ACAD_REACTORS
330
A5
102
}
330
A5
100
AcDbXrecord
280
     1
270
     1
271
     1
  0
XRECORD
  5
AB
102
{ACAD_REACTORS
330
A5
102
}
330
A5
100
AcDbXrecord
280
     1
270
     1
271
     1
  0
XRECORD
  5
A8
102
{ACAD_REACTORS
330
A5
102
}
330
A5
100
AcDbXrecord
280
     1
270
     1
271
     1
  0
XRECORD
  5
196
102
{ACAD_REACTORS
330
9D
102
}
330
9D
100
AcDbXrecord
280
     1
102
MATERIAL
148
0.0
149
0.0
149
0.0
 93
        0
 94
      127
282
     0
 72
     0
 77
     0
171
     0
175
     0
179
     0
273
     0
  0
XRECORD
  5
9F
102
{ACAD_REACTORS
330
9D
102
}
330
9D
100
AcDbXrecord
280
     1
270
     1
271
     1
  0
XRECORD
  5
9E
102
{ACAD_REACTORS
330
9D
102
}
330
9D
100
AcDbXrecord
280
     1
270
     1
271
     1
  0
XRECORD
  5
A2
102
{ACAD_REACTORS
330
9D
102
}
330
9D
100
AcDbXrecord
280
     1
270
     1
271
     1
  0
XRECORD
  5
A1
102
{ACAD_REACTORS
330
9D
102
}
330
9D
100
AcDbXrecord
280
     1
270
     1
271
     1
  0
XRECORD
  5
A3
102
{ACAD_REACTORS
330
9D
102
}
330
9D
100
AcDbXrecord
280
     1
270
     1
271
     1
  0
XRECORD
  5
A0
102
{ACAD_REACTORS
330
9D
102
}
330
9D
100
AcDbXrecord
280
     1
270
     1
271
     1
  0
XRECORD
  5
198
102
{ACAD_REACTORS
330
AD
102
}
330
AD
100
AcDbXrecord
280
     1
102
MATERIAL
148
0.0
149
0.0
149
0.0
 93
        0
 94
      127
282
     0
 72
     0
 77
     0
171
     0
175
     0
179
     0
273
     0
  0
XRECORD
  5
AF
102
{ACAD_REACTORS
330
AD
102
}
330
AD
100
AcDbXrecord
280
     1
270
     1
271
     1
  0
XRECORD
  5
AE
102
{ACAD_REACTORS
330
AD
102
}
330
AD
100
AcDbXrecord
280
     1
270
     1
271
     1
  0
XRECORD
  5
B2
102
{ACAD_REACTORS
330
AD
102
}
330
AD
100
AcDbXrecord
280
     1
270
     1
271
     1
  0
XRECORD
  5
B1
102
{ACAD_REACTORS
330
AD
102
}
330
AD
100
AcDbXrecord
280
     1
270
     1
271
     1
  0
XRECORD
  5
B3
102
{ACAD_REACTORS
330
AD
102
}
330
AD
100
AcDbXrecord
280
     1
270
     1
271
     1
  0
XRECORD
  5
B0
102
{ACAD_REACTORS
330
AD
102
}
330
AD
100
AcDbXrecord
280
     1
270
     1
271
     1
  0
CELLSTYLEMAP
  5
190
102
{ACAD_REACTORS
330
107
102
}
330
107
100
AcDbCellStyleMap
 90
        3
300
CELLSTYLE
  1
TABLEFORMAT_BEGIN
 90
        5
170
     1
 91
        0
 92
    32768
 62
   257
 93
        1
300
CONTENTFORMAT
  1
CONTENTFORMAT_BEGIN
 90
        0
 91
        0
 92
      512
 93
        0
300

 40
0.0
140
1.0
 94
        5
 62
     0
340
12
144
6.0
309
CONTENTFORMAT_END
171
     1
301
MARGIN
  1
CELLMARGIN_BEGIN
 40
1.5
 40
1.5
 40
1.5
 40
1.5
 40
4.5
 40
4.5
309
CELLMARGIN_END
 94
        6
 95
        1
302
GRIDFORMAT
  1
GRIDFORMAT_BEGIN
 90
        0
 91
        1
 62
     0
 92
       -2
340
0
 93
        0
 40
1.125
309
GRIDFORMAT_END
 95
        2
302
GRIDFORMAT
  1
GRIDFORMAT_BEGIN
 90
        0
 91
        1
 62
     0
 92
       -2
340
0
 93
        0
 40
1.125
309
GRIDFORMAT_END
 95
        4
302
GRIDFORMAT
  1
GRIDFORMAT_BEGIN
 90
        0
 91
        1
 62
     0
 92
       -2
340
0
 93
        0
 40
1.125
309
GRIDFORMAT_END
 95
        8
302
GRIDFORMAT
  1
GRIDFORMAT_BEGIN
 90
        0
 91
        1
 62
     0
 92
       -2
340
0
 93
        0
 40
1.125
309
GRIDFORMAT_END
 95
       16
302
GRIDFORMAT
  1
GRIDFORMAT_BEGIN
 90
        0
 91
        1
 62
     0
 92
       -2
340
0
 93
        0
 40
1.125
309
GRIDFORMAT_END
 95
       32
302
GRIDFORMAT
  1
GRIDFORMAT_BEGIN
 90
        0
 91
        1
 62
     0
 92
       -2
340
0
 93
        0
 40
1.125
309
GRIDFORMAT_END
309
TABLEFORMAT_END
  1
CELLSTYLE_BEGIN
 90
        1
 91
        1
300
_TITLE
309
CELLSTYLE_END
300
CELLSTYLE
  1
TABLEFORMAT_BEGIN
 90
        5
170
     1
 91
        0
 92
        0
 62
   257
 93
        1
300
CONTENTFORMAT
  1
CONTENTFORMAT_BEGIN
 90
        0
 91
        0
 92
      512
 93
        0
300

 40
0.0
140
1.0
 94
        5
 62
     0
340
12
144
4.5
309
CONTENTFORMAT_END
171
     1
301
MARGIN
  1
CELLMARGIN_BEGIN
 40
1.5
 40
1.5
 40
1.5
 40
1.5
 40
4.5
 40
4.5
309
CELLMARGIN_END
 94
        6
 95
        1
302
GRIDFORMAT
  1
GRIDFORMAT_BEGIN
 90
        0
 91
        1
 62
     0
 92
       -2
340
0
 93
        0
 40
1.125
309
GRIDFORMAT_END
 95
        2
302
GRIDFORMAT
  1
GRIDFORMAT_BEGIN
 90
        0
 91
        1
 62
     0
 92
       -2
340
0
 93
        0
 40
1.125
309
GRIDFORMAT_END
 95
        4
302
GRIDFORMAT
  1
GRIDFORMAT_BEGIN
 90
        0
 91
        1
 62
     0
 92
       -2
340
0
 93
        0
 40
1.125
309
GRIDFORMAT_END
 95
        8
302
GRIDFORMAT
  1
GRIDFORMAT_BEGIN
 90
        0
 91
        1
 62
     0
 92
       -2
340
0
 93
        0
 40
1.125
309
GRIDFORMAT_END
 95
       16
302
GRIDFORMAT
  1
GRIDFORMAT_BEGIN
 90
        0
 91
        1
 62
     0
 92
       -2
340
0
 93
        0
 40
1.125
309
GRIDFORMAT_END
 95
       32
302
GRIDFORMAT
  1
GRIDFORMAT_BEGIN
 90
        0
 91
        1
 62
     0
 92
       -2
340
0
 93
        0
 40
1.125
309
GRIDFORMAT_END
309
TABLEFORMAT_END
  1
CELLSTYLE_BEGIN
 90
        2
 91
        1
300
_HEADER
309
CELLSTYLE_END
300
CELLSTYLE
  1
TABLEFORMAT_BEGIN
 90
        5
170
     1
 91
        0
 92
        0
 62
   257
 93
        1
300
CONTENTFORMAT
  1
CONTENTFORMAT_BEGIN
 90
        0
 91
        0
 92
      512
 93
        0
300

 40
0.0
140
1.0
 94
        2
 62
     0
340
12
144
4.5
309
CONTENTFORMAT_END
171
     1
301
MARGIN
  1
CELLMARGIN_BEGIN
 40
1.5
 40
1.5
 40
1.5
 40
1.5
 40
4.5
 40
4.5
309
CELLMARGIN_END
 94
        6
 95
        1
302
GRIDFORMAT
  1
GRIDFORMAT_BEGIN
 90
        0
 91
        1
 62
     0
 92
       -2
340
0
 93
        0
 40
1.125
309
GRIDFORMAT_END
 95
        2
302
GRIDFORMAT
  1
GRIDFORMAT_BEGIN
 90
        0
 91
        1
 62
     0
 92
       -2
340
0
 93
        0
 40
1.125
309
GRIDFORMAT_END
 95
        4
302
GRIDFORMAT
  1
GRIDFORMAT_BEGIN
 90
        0
 91
        1
 62
     0
 92
       -2
340
0
 93
        0
 40
1.125
309
GRIDFORMAT_END
 95
        8
302
GRIDFORMAT
  1
GRIDFORMAT_BEGIN
 90
        0
 91
        1
 62
     0
 92
       -2
340
0
 93
        0
 40
1.125
309
GRIDFORMAT_END
 95
       16
302
GRIDFORMAT
  1
GRIDFORMAT_BEGIN
 90
        0
 91
        1
 62
     0
 92
       -2
340
0
 93
        0
 40
1.125
309
GRIDFORMAT_END
 95
       32
302
GRIDFORMAT
  1
GRIDFORMAT_BEGIN
 90
        0
 91
        1
 62
     0
 92
       -2
340
0
 93
        0
 40
1.125
309
GRIDFORMAT_END
309
TABLEFORMAT_END
  1
CELLSTYLE_BEGIN
 90
        3
 91
        2
300
_DATA
309
CELLSTYLE_END
  0
XRECORD
  5
199
102
{ACAD_REACTORS
330
107
102
}
330
107
100
AcDbXrecord
280
     1
102
ACAD_ROUNDTRIP_PRE2007_TABLESTYLE
 90
      512
 91
        0
  1

 92
      512
 93
        0
  2

 94
      512
 95
        0
  3

  0
ENDSEC
  0
EOF
