  0
SECTION
  2
HEADER
  9
$ACADVER
  1
AC1014
  9
$ACADMAINTVER
 70
     0
  9
$DWGCODEPAGE
  3
ANSI_1252
  9
$INSBASE
 10
0.0
 20
0.0
 30
0.0
  9
$EXTMIN
 10
-184.102582
 20
-140.0
 30
0.0
  9
$EXTMAX
 10
712.506432
 20
300.0
 30
0.0
  9
$LIMMIN
 10
0.0
 20
0.0
  9
$LIMMAX
 10
420.0
 20
297.0
  9
$ORTHOMODE
 70
     1
  9
$REGENMODE
 70
     1
  9
$FILLMODE
 70
     1
  9
$QTEXTMODE
 70
     0
  9
$MIRRTEXT
 70
     1
  9
$DRAGMODE
 70
     2
  9
$LTSCALE
 40
1.0
  9
$OSMODE
 70
     1
  9
$ATTMODE
 70
     1
  9
$TEXTSIZE
 40
9.0
  9
$TRACEWID
 40
10.0
  9
$TEXTSTYLE
  7
ROMANS
  9
$CLAYER
  8
0
  9
$CELTYPE
  6
BYLAYER
  9
$CECOLOR
 62
   256
  9
$CELTSCALE
 40
1.0
  9
$DELOBJ
 70
     1
  9
$DISPSILH
 70
     0
  9
$DIMSCALE
 40
5.0
  9
$DIMASZ
 40
0.0
  9
$DIMEXO
 40
4.5
  9
$DIMDLI
 40
0.0
  9
$DIMRND
 40
1.0
  9
$DIMDLE
 40
1.25
  9
$DIMEXE
 40
1.5
  9
$DIMTP
 40
0.0
  9
$DIMTM
 40
0.0
  9
$DIMTXT
 40
1.8
  9
$DIMCEN
 40
0.0
  9
$DIMTSZ
 40
1.0
  9
$DIMTOL
 70
     0
  9
$DIMLIM
 70
     0
  9
$DIMTIH
 70
     0
  9
$DIMTOH
 70
     0
  9
$DIMSE1
 70
     0
  9
$DIMSE2
 70
     0
  9
$DIMTAD
 70
     1
  9
$DIMZIN
 70
    12
  9
$DIMBLK
  1

  9
$DIMASO
 70
     1
  9
$DIMSHO
 70
     0
  9
$DIMPOST
  1

  9
$DIMAPOST
  1

  9
$DIMALT
 70
     0
  9
$DIMALTD
 70
     2
  9
$DIMALTF
 40
0.04
  9
$DIMLFAC
 40
1.0
  9
$DIMTOFL
 70
     0
  9
$DIMTVP
 40
0.0
  9
$DIMTIX
 70
     0
  9
$DIMSOXD
 70
     0
  9
$DIMSAH
 70
     0
  9
$DIMBLK1
  1

  9
$DIMBLK2
  1

  9
$DIMSTYLE
  2
1-5
  9
$DIMCLRD
 70
     0
  9
$DIMCLRE
 70
     0
  9
$DIMCLRT
 70
     0
  9
$DIMTFAC
 40
1.25
  9
$DIMGAP
 40
0.1
  9
$DIMJUST
 70
     0
  9
$DIMSD1
 70
     0
  9
$DIMSD2
 70
     0
  9
$DIMTOLJ
 70
     1
  9
$DIMTZIN
 70
    12
  9
$DIMALTZ
 70
    12
  9
$DIMALTTZ
 70
    12
  9
$DIMFIT
 70
     5
  9
$DIMUPT
 70
     0
  9
$DIMUNIT
 70
     2
  9
$DIMDEC
 70
     2
  9
$DIMTDEC
 70
     2
  9
$DIMALTU
 70
     2
  9
$DIMALTTD
 70
     2
  9
$DIMTXSTY
  7
ROMANS
  9
$DIMAUNIT
 70
     0
  9
$LUNITS
 70
     2
  9
$LUPREC
 70
     2
  9
$SKETCHINC
 40
1.0
  9
$FILLETRAD
 40
0.0
  9
$AUNITS
 70
     0
  9
$AUPREC
 70
     4
  9
$MENU
  1
C:\ACADWIN\SUPPORT\ACAD
  9
$ELEVATION
 40
0.0
  9
$PELEVATION
 40
0.0
  9
$THICKNESS
 40
0.0
  9
$LIMCHECK
 70
     0
  9
$BLIPMODE
 70
     0
  9
$CHAMFERA
 40
0.0
  9
$CHAMFERB
 40
0.0
  9
$CHAMFERC
 40
0.0
  9
$CHAMFERD
 40
0.0
  9
$SKPOLY
 70
     0
  9
$TDCREATE
 40
2450429.655338657
  9
$TDUPDATE
 40
2451550.728880324
  9
$TDINDWG
 40
0.2105982639
  9
$TDUSRTIMER
 40
0.2105982639
  9
$USRTIMER
 70
     1
  9
$ANGBASE
 50
0.0
  9
$ANGDIR
 70
     0
  9
$PDMODE
 70
     0
  9
$PDSIZE
 40
0.0
  9
$PLINEWID
 40
0.0
  9
$COORDS
 70
     1
  9
$SPLFRAME
 70
     0
  9
$SPLINETYPE
 70
     6
  9
$SPLINESEGS
 70
     8
  9
$ATTDIA
 70
     0
  9
$ATTREQ
 70
     1
  9
$HANDLING
 70
     1
  9
$HANDSEED
  5
DF
  9
$SURFTAB1
 70
    18
  9
$SURFTAB2
 70
    18
  9
$SURFTYPE
 70
     6
  9
$SURFU
 70
    18
  9
$SURFV
 70
    18
  9
$UCSNAME
  2

  9
$UCSORG
 10
0.0
 20
0.0
 30
0.0
  9
$UCSXDIR
 10
1.0
 20
0.0
 30
0.0
  9
$UCSYDIR
 10
0.0
 20
1.0
 30
0.0
  9
$PUCSNAME
  2

  9
$PUCSORG
 10
0.0
 20
0.0
 30
0.0
  9
$PUCSXDIR
 10
1.0
 20
0.0
 30
0.0
  9
$PUCSYDIR
 10
0.0
 20
1.0
 30
0.0
  9
$USERI1
 70
     0
  9
$USERI2
 70
     0
  9
$USERI3
 70
     0
  9
$USERI4
 70
     0
  9
$USERI5
 70
     0
  9
$USERR1
 40
0.0
  9
$USERR2
 40
0.0
  9
$USERR3
 40
0.0
  9
$USERR4
 40
0.0
  9
$USERR5
 40
0.0
  9
$WORLDVIEW
 70
     1
  9
$SHADEDGE
 70
     3
  9
$SHADEDIF
 70
    70
  9
$TILEMODE
 70
     1
  9
$MAXACTVP
 70
    16
  9
$PINSBASE
 10
0.0
 20
0.0
 30
0.0
  9
$PLIMCHECK
 70
     0
  9
$PEXTMIN
 10
1.000000E+20
 20
1.000000E+20
 30
1.000000E+20
  9
$PEXTMAX
 10
-1.000000E+20
 20
-1.000000E+20
 30
-1.000000E+20
  9
$PLIMMIN
 10
0.0
 20
0.0
  9
$PLIMMAX
 10
420.0
 20
297.0
  9
$UNITMODE
 70
     0
  9
$VISRETAIN
 70
     0
  9
$PLINEGEN
 70
     0
  9
$PSLTSCALE
 70
     1
  9
$TREEDEPTH
 70
  3020
  9
$PICKSTYLE
 70
     1
  9
$CMLSTYLE
  2
STANDARD
  9
$CMLJUST
 70
     0
  9
$CMLSCALE
 40
1.0
  9
$PROXYGRAPHICS
 70
     1
  9
$MEASUREMENT
 70
     0
  0
ENDSEC
  0
SECTION
  2
CLASSES
  0
CLASS
  1
DICTIONARYVAR
  2
AcDbDictionaryVar
  3
"AutoCAD"
 90
        0
280
     0
281
     0
  0
CLASS
  1
LWPOLYLINE
  2
AcDbPolyline
  3
"AutoCAD"
 90
        0
280
     0
281
     1
  0
ENDSEC
  0
SECTION
  2
TABLES
  0
TABLE
  2
VPORT
  5
12
100
AcDbSymbolTable
 70
     1
  0
VPORT
  5
13
100
AcDbSymbolTableRecord
100
AcDbViewportTableRecord
  2
*ACTIVE
 70
     0
 10
0.0
 20
0.0
 11
1.0
 21
1.0
 12
235.321121
 22
52.550248
 13
0.0
 23
0.0
 14
5.0
 24
5.0
 15
10.0
 25
10.0
 16
0.0
 26
0.0
 36
1.0
 17
0.0
 27
0.0
 37
0.0
 40
886.242137
 41
1.465261
 42
50.0
 43
0.0
 44
0.0
 50
0.0
 51
0.0
 71
     0
 72
 20000
 73
     1
 74
     1
 75
     0
 76
     0
 77
     0
 78
     0
  0
ENDTAB
  0
TABLE
  2
LTYPE
  5
D
100
AcDbSymbolTable
 70
     1
  0
LTYPE
  5
E
100
AcDbSymbolTableRecord
100
AcDbLinetypeTableRecord
  2
BYBLOCK
 70
     0
  3

 72
    65
 73
     0
 40
0.0
  0
LTYPE
  5
F
100
AcDbSymbolTableRecord
100
AcDbLinetypeTableRecord
  2
BYLAYER
 70
     0
  3

 72
    65
 73
     0
 40
0.0
  0
LTYPE
  5
5
100
AcDbSymbolTableRecord
100
AcDbLinetypeTableRecord
  2
CONTINUOUS
 70
     0
  3
Solid line
 72
    65
 73
     0
 40
0.0
  0
ENDTAB
  0
TABLE
  2
LAYER
  5
A
100
AcDbSymbolTable
 70
     7
  0
LAYER
  5
4
100
AcDbSymbolTableRecord
100
AcDbLayerTableRecord
  2
0
 70
     0
 62
     7
  6
CONTINUOUS
  0
LAYER
  5
B5
100
AcDbSymbolTableRecord
100
AcDbLayerTableRecord
  2
ANCON-TIE
 70
     0
 62
     1
  6
CONTINUOUS
  0
LAYER
  5
D6
100
AcDbSymbolTableRecord
100
AcDbLayerTableRecord
  2
ANCON-TEXT
 70
     0
 62
     6
  6
CONTINUOUS
  0
LAYER
  5
23
100
AcDbSymbolTableRecord
100
AcDbLayerTableRecord
  2
ANCON-MASONRY
 70
     0
 62
     1
  6
CONTINUOUS
  0
LAYER
  5
1F
100
AcDbSymbolTableRecord
100
AcDbLayerTableRecord
  2
ANCON-WINDPOST
 70
     0
 62
     3
  6
CONTINUOUS
  0
LAYER
  5
28
100
AcDbSymbolTableRecord
100
AcDbLayerTableRecord
  2
ANCON-BOLT
 70
     0
 62
     1
  6
CONTINUOUS
  0
LAYER
  5
2E
100
AcDbSymbolTableRecord
100
AcDbLayerTableRecord
  2
ANCON-STRUC
 70
     0
 62
     2
  6
CONTINUOUS
  0
ENDTAB
  0
TABLE
  2
STYLE
  5
B
100
AcDbSymbolTable
 70
     2
  0
STYLE
  5
C
100
AcDbSymbolTableRecord
100
AcDbTextStyleTableRecord
  2
STANDARD
 70
     0
 40
0.0
 41
1.0
 50
0.0
 71
     0
 42
3.0
  3
txt.shx
  4

  0
STYLE
  5
1B
100
AcDbSymbolTableRecord
100
AcDbTextStyleTableRecord
  2
ROMANS
 70
     0
 40
9.0
 41
1.0
 50
0.0
 71
     0
 42
9.0
  3
romans
  4

  0
ENDTAB
  0
TABLE
  2
VIEW
  5
10
100
AcDbSymbolTable
 70
     0
  0
ENDTAB
  0
TABLE
  2
UCS
  5
11
100
AcDbSymbolTable
 70
     0
  0
ENDTAB
  0
TABLE
  2
APPID
  5
14
100
AcDbSymbolTable
 70
     1
  0
APPID
  5
15
100
AcDbSymbolTableRecord
100
AcDbRegAppTableRecord
  2
ACAD
 70
     0
  0
ENDTAB
  0
TABLE
  2
DIMSTYLE
  5
16
100
AcDbSymbolTable
 70
     1
  0
DIMSTYLE
105
1D
100
AcDbSymbolTableRecord
100
AcDbDimStyleTableRecord
  2
1-5
 70
     0
  3

  4

  5

  6

  7

 40
5.0
 41
0.0
 42
4.5
 43
0.0
 44
1.5
 45
1.0
 46
1.25
 47
0.0
 48
0.0
140
1.8
141
0.0
142
1.0
143
0.04
144
1.0
145
0.0
146
1.25
147
0.1
 71
     0
 72
     0
 73
     0
 74
     0
 75
     0
 76
     0
 77
     1
 78
    12
170
     0
171
     2
172
     0
173
     0
174
     0
175
     0
176
     0
177
     0
178
     0
270
     2
271
     2
272
     2
273
     2
274
     2
340
1B
275
     0
280
     0
281
     0
282
     0
283
     1
284
    12
285
    12
286
    12
287
     5
288
     0
  0
ENDTAB
  0
TABLE
  2
BLOCK_RECORD
  5
1
100
AcDbSymbolTable
 70
     0
  0
BLOCK_RECORD
  5
2
100
AcDbSymbolTableRecord
100
AcDbBlockTableRecord
  2
*MODEL_SPACE
  0
BLOCK_RECORD
  5
7
100
AcDbSymbolTableRecord
100
AcDbBlockTableRecord
  2
*PAPER_SPACE
  0
ENDTAB
  0
ENDSEC
  0
SECTION
  2
BLOCKS
  0
BLOCK
  5
3
100
AcDbEntity
  8
0
100
AcDbBlockBegin
  2
*MODEL_SPACE
 70
     0
 10
0.0
 20
0.0
 30
0.0
  3
*MODEL_SPACE
  1

  0
ENDBLK
  5
6
100
AcDbEntity
  8
0
100
AcDbBlockEnd
  0
BLOCK
  5
8
100
AcDbEntity
 67
     1
  8
0
100
AcDbBlockBegin
  2
*PAPER_SPACE
 70
     0
 10
0.0
 20
0.0
 30
0.0
  3
*PAPER_SPACE
  1

  0
ENDBLK
  5
9
100
AcDbEntity
 67
     1
  8
0
100
AcDbBlockEnd
  0
ENDSEC
  0
SECTION
  2
ENTITIES
  0
LINE
  5
1E
100
AcDbEntity
  8
ANCON-WINDPOST
100
AcDbLine
 10
10.0
 20
6.0
 30
0.0
 11
10.0
 21
300.0
 31
0.0
  0
LINE
  5
20
100
AcDbEntity
  8
ANCON-WINDPOST
100
AcDbLine
 10
16.0
 20
6.0
 30
0.0
 11
16.0
 21
300.0
 31
0.0
  0
LINE
  5
21
100
AcDbEntity
  8
ANCON-WINDPOST
100
AcDbLine
 10
-114.0
 20
8.0
 30
0.0
 11
-114.0
 21
300.0
 31
0.0
  0
LINE
  5
22
100
AcDbEntity
  8
ANCON-MASONRY
100
AcDbLine
 10
-140.0
 20
225.0
 30
0.0
 11
-140.0
 21
10.0
 31
0.0
  0
LINE
  5
24
100
AcDbEntity
  8
ANCON-MASONRY
100
AcDbLine
 10
0.0
 20
225.0
 30
0.0
 11
0.0
 21
10.0
 31
0.0
  0
LINE
  5
25
100
AcDbEntity
  8
ANCON-MASONRY
100
AcDbLine
 10
202.5
 20
150.0
 30
0.0
 11
202.5
 21
85.0
 31
0.0
  0
LINE
  5
26
100
AcDbEntity
  8
ANCON-MASONRY
100
AcDbLine
 10
100.0
 20
150.0
 30
0.0
 11
100.0
 21
85.0
 31
0.0
  0
ARC
  5
27
100
AcDbEntity
  8
ANCON-BOLT
100
AcDbCircle
 10
-19.25
 20
-92.082892
 30
0.0
 40
1.184731
100
AcDbArc
 50
230.724114
 51
309.275886
  0
ARC
  5
29
100
AcDbEntity
  8
ANCON-BOLT
100
AcDbCircle
 10
-19.25
 20
-107.917108
 30
0.0
 40
1.184731
100
AcDbArc
 50
50.724114
 51
129.275886
  0
LINE
  5
2A
100
AcDbEntity
  8
ANCON-MASONRY
100
AcDbLine
 10
-116.34375
 20
10.0
 30
0.0
 11
0.0
 21
10.0
 31
0.0
  0
LINE
  5
2B
100
AcDbEntity
  8
ANCON-WINDPOST
100
AcDbLine
 10
-170.0
 20
6.0
 30
0.0
 11
21.0
 21
6.0
 31
0.0
  0
LINE
  5
2C
100
AcDbEntity
  8
ANCON-WINDPOST
100
AcDbLine
 10
-170.0
 20
0.0
 30
0.0
 11
21.0
 21
0.0
 31
0.0
  0
LINE
  5
2D
100
AcDbEntity
  8
ANCON-STRUC
100
AcDbLine
 10
0.0
 20
0.0
 30
0.0
 11
-184.102582
 21
0.0
 31
0.0
  0
LINE
  5
2F
100
AcDbEntity
  8
ANCON-BOLT
100
AcDbLine
 10
-37.5
 20
-107.0
 30
0.0
 11
-71.5
 21
-107.0
 31
0.0
  0
LINE
  5
30
100
AcDbEntity
  8
ANCON-BOLT
100
AcDbLine
 10
-37.5
 20
-93.0
 30
0.0
 11
-71.5
 21
-93.0
 31
0.0
  0
LINE
  5
31
100
AcDbEntity
  8
ANCON-BOLT
100
AcDbLine
 10
-37.5
 20
-101.0
 30
0.0
 11
-71.5
 21
-101.0
 31
0.0
  0
LINE
  5
32
100
AcDbEntity
  8
ANCON-BOLT
100
AcDbLine
 10
-37.5
 20
-99.0
 30
0.0
 11
-71.5
 21
-99.0
 31
0.0
  0
LINE
  5
33
100
AcDbEntity
  8
ANCON-BOLT
100
AcDbLine
 10
-71.5
 20
-107.0
 30
0.0
 11
-71.5
 21
-101.0
 31
0.0
  0
LINE
  5
34
100
AcDbEntity
  8
ANCON-BOLT
100
AcDbLine
 10
-79.051106
 20
-96.443332
 30
0.0
 11
-79.051106
 21
-103.50658
 31
0.0
  0
LINE
  5
35
100
AcDbEntity
  8
ANCON-BOLT
100
AcDbLine
 10
-77.798606
 20
-104.75908
 30
0.0
 11
-77.798606
 21
-95.190832
 31
0.0
  0
LINE
  5
36
100
AcDbEntity
  8
ANCON-BOLT
100
AcDbLine
 10
-75.5
 20
-100.0
 30
0.0
 11
-75.5
 21
-106.605617
 31
0.0
  0
LINE
  5
37
100
AcDbEntity
  8
ANCON-BOLT
100
AcDbLine
 10
-76.1
 20
-100.0
 30
0.0
 11
-76.1
 21
-106.605617
 31
0.0
  0
LINE
  5
38
100
AcDbEntity
  8
ANCON-BOLT
100
AcDbLine
 10
-76.5
 20
-100.0
 30
0.0
 11
-76.5
 21
-106.205617
 31
0.0
  0
LINE
  5
39
100
AcDbEntity
  8
ANCON-BOLT
100
AcDbLine
 10
-75.5
 20
-106.605617
 30
0.0
 11
-71.5
 21
-106.255662
 31
0.0
  0
LINE
  5
3A
100
AcDbEntity
  8
ANCON-BOLT
100
AcDbLine
 10
-75.5
 20
-106.605617
 30
0.0
 11
-76.1
 21
-106.605617
 31
0.0
  0
LINE
  5
3B
100
AcDbEntity
  8
ANCON-BOLT
100
AcDbLine
 10
-76.5
 20
-106.205617
 30
0.0
 11
-76.1
 21
-106.605617
 31
0.0
  0
LINE
  5
3C
100
AcDbEntity
  8
ANCON-BOLT
100
AcDbLine
 10
-76.5
 20
-104.75908
 30
0.0
 11
-77.798606
 21
-104.75908
 31
0.0
  0
LINE
  5
3D
100
AcDbEntity
  8
ANCON-BOLT
100
AcDbLine
 10
-76.5
 20
-103.50658
 30
0.0
 11
-79.051106
 21
-103.50658
 31
0.0
  0
LINE
  5
3E
100
AcDbEntity
  8
ANCON-BOLT
100
AcDbLine
 10
-77.798606
 20
-104.75908
 30
0.0
 11
-79.051106
 21
-103.50658
 31
0.0
  0
LINE
  5
3F
100
AcDbEntity
  8
ANCON-BOLT
100
AcDbLine
 10
-75.5
 20
-93.394383
 30
0.0
 11
-71.5
 21
-93.744338
 31
0.0
  0
LINE
  5
40
100
AcDbEntity
  8
ANCON-BOLT
100
AcDbLine
 10
-75.5
 20
-93.394383
 30
0.0
 11
-76.1
 21
-93.394383
 31
0.0
  0
LINE
  5
41
100
AcDbEntity
  8
ANCON-BOLT
100
AcDbLine
 10
-76.5
 20
-93.794383
 30
0.0
 11
-76.1
 21
-93.394383
 31
0.0
  0
LINE
  5
42
100
AcDbEntity
  8
ANCON-BOLT
100
AcDbLine
 10
-76.5
 20
-95.190832
 30
0.0
 11
-77.798606
 21
-95.190832
 31
0.0
  0
LINE
  5
43
100
AcDbEntity
  8
ANCON-BOLT
100
AcDbLine
 10
-76.5
 20
-96.443332
 30
0.0
 11
-79.051106
 21
-96.443332
 31
0.0
  0
LINE
  5
44
100
AcDbEntity
  8
ANCON-BOLT
100
AcDbLine
 10
-77.798606
 20
-95.190832
 30
0.0
 11
-79.051106
 21
-96.443332
 31
0.0
  0
LINE
  5
45
100
AcDbEntity
  8
ANCON-BOLT
100
AcDbLine
 10
-76.1
 20
-100.0
 30
0.0
 11
-76.1
 21
-93.394383
 31
0.0
  0
LINE
  5
46
100
AcDbEntity
  8
ANCON-BOLT
100
AcDbLine
 10
-75.5
 20
-100.0
 30
0.0
 11
-75.5
 21
-93.394383
 31
0.0
  0
LINE
  5
47
100
AcDbEntity
  8
ANCON-BOLT
100
AcDbLine
 10
-76.5
 20
-100.0
 30
0.0
 11
-76.5
 21
-93.794383
 31
0.0
  0
LINE
  5
48
100
AcDbEntity
  8
ANCON-BOLT
100
AcDbLine
 10
-65.5
 20
-101.0
 30
0.0
 11
-65.5
 21
-99.0
 31
0.0
  0
LINE
  5
49
100
AcDbEntity
  8
ANCON-BOLT
100
AcDbLine
 10
-71.5
 20
-99.0
 30
0.0
 11
-71.5
 21
-93.0
 31
0.0
  0
LINE
  5
4A
100
AcDbEntity
  8
ANCON-BOLT
100
AcDbLine
 10
-20.0
 20
-107.0
 30
0.0
 11
-20.0
 21
-93.0
 31
0.0
  0
LINE
  5
4B
100
AcDbEntity
  8
ANCON-BOLT
100
AcDbLine
 10
-28.5
 20
-107.0
 30
0.0
 11
-28.5
 21
-93.0
 31
0.0
  0
LINE
  5
4C
100
AcDbEntity
  8
ANCON-BOLT
100
AcDbLine
 10
-37.5
 20
-107.0
 30
0.0
 11
-37.5
 21
-101.0
 31
0.0
  0
LINE
  5
4D
100
AcDbEntity
  8
ANCON-BOLT
100
AcDbLine
 10
-37.5
 20
-105.5
 30
0.0
 11
-28.5
 21
-107.0
 31
0.0
  0
LINE
  5
4E
100
AcDbEntity
  8
ANCON-BOLT
100
AcDbLine
 10
-20.0
 20
-107.0
 30
0.0
 11
-28.5
 21
-107.0
 31
0.0
  0
LINE
  5
4F
100
AcDbEntity
  8
ANCON-BOLT
100
AcDbLine
 10
-37.5
 20
-94.5
 30
0.0
 11
-28.5
 21
-93.0
 31
0.0
  0
LINE
  5
50
100
AcDbEntity
  8
ANCON-BOLT
100
AcDbLine
 10
-40.5
 20
-101.0
 30
0.0
 11
-40.5
 21
-99.0
 31
0.0
  0
LINE
  5
51
100
AcDbEntity
  8
ANCON-BOLT
100
AcDbLine
 10
-37.5
 20
-99.0
 30
0.0
 11
-37.5
 21
-93.0
 31
0.0
  0
LINE
  5
52
100
AcDbEntity
  8
ANCON-BOLT
100
AcDbLine
 10
-20.0
 20
-93.0
 30
0.0
 11
-28.5
 21
-93.0
 31
0.0
  0
LINE
  5
53
100
AcDbEntity
  8
ANCON-WINDPOST
100
AcDbLine
 10
-170.0
 20
6.0
 30
0.0
 11
-170.0
 21
0.0
 31
0.0
  0
LINE
  5
54
100
AcDbEntity
  8
ANCON-BOLT
100
AcDbLine
 10
-132.0
 20
-37.5
 30
0.0
 11
-132.0
 21
-71.5
 31
0.0
  0
LINE
  5
55
100
AcDbEntity
  8
ANCON-BOLT
100
AcDbLine
 10
-118.0
 20
-37.5
 30
0.0
 11
-118.0
 21
-71.5
 31
0.0
  0
LINE
  5
56
100
AcDbEntity
  8
ANCON-BOLT
100
AcDbLine
 10
-126.0
 20
-37.5
 30
0.0
 11
-126.0
 21
-71.5
 31
0.0
  0
LINE
  5
57
100
AcDbEntity
  8
ANCON-BOLT
100
AcDbLine
 10
-124.0
 20
-37.5
 30
0.0
 11
-124.0
 21
-71.5
 31
0.0
  0
LINE
  5
58
100
AcDbEntity
  8
ANCON-BOLT
100
AcDbLine
 10
-126.0
 20
-40.5
 30
0.0
 11
-124.0
 21
-40.5
 31
0.0
  0
LINE
  5
59
100
AcDbEntity
  8
ANCON-BOLT
100
AcDbLine
 10
-126.0
 20
-65.5
 30
0.0
 11
-124.0
 21
-65.5
 31
0.0
  0
LINE
  5
5A
100
AcDbEntity
  8
ANCON-BOLT
100
AcDbLine
 10
-121.443332
 20
-79.051106
 30
0.0
 11
-128.50658
 21
-79.051106
 31
0.0
  0
LINE
  5
5B
100
AcDbEntity
  8
ANCON-BOLT
100
AcDbLine
 10
-129.75908
 20
-77.798606
 30
0.0
 11
-120.190832
 21
-77.798606
 31
0.0
  0
LINE
  5
5C
100
AcDbEntity
  8
ANCON-BOLT
100
AcDbLine
 10
-125.0
 20
-75.5
 30
0.0
 11
-131.605617
 21
-75.5
 31
0.0
  0
LINE
  5
5D
100
AcDbEntity
  8
ANCON-BOLT
100
AcDbLine
 10
-125.0
 20
-76.1
 30
0.0
 11
-131.605617
 21
-76.1
 31
0.0
  0
LINE
  5
5E
100
AcDbEntity
  8
ANCON-BOLT
100
AcDbLine
 10
-125.0
 20
-76.5
 30
0.0
 11
-131.205617
 21
-76.5
 31
0.0
  0
LINE
  5
5F
100
AcDbEntity
  8
ANCON-BOLT
100
AcDbLine
 10
-131.605617
 20
-75.5
 30
0.0
 11
-131.255662
 21
-71.5
 31
0.0
  0
LINE
  5
60
100
AcDbEntity
  8
ANCON-BOLT
100
AcDbLine
 10
-131.605617
 20
-75.5
 30
0.0
 11
-131.605617
 21
-76.1
 31
0.0
  0
LINE
  5
61
100
AcDbEntity
  8
ANCON-BOLT
100
AcDbLine
 10
-131.205617
 20
-76.5
 30
0.0
 11
-131.605617
 21
-76.1
 31
0.0
  0
LINE
  5
62
100
AcDbEntity
  8
ANCON-BOLT
100
AcDbLine
 10
-129.75908
 20
-76.5
 30
0.0
 11
-129.75908
 21
-77.798606
 31
0.0
  0
LINE
  5
63
100
AcDbEntity
  8
ANCON-BOLT
100
AcDbLine
 10
-128.50658
 20
-76.5
 30
0.0
 11
-128.50658
 21
-79.051106
 31
0.0
  0
LINE
  5
64
100
AcDbEntity
  8
ANCON-BOLT
100
AcDbLine
 10
-132.0
 20
-71.5
 30
0.0
 11
-126.0
 21
-71.5
 31
0.0
  0
LINE
  5
65
100
AcDbEntity
  8
ANCON-BOLT
100
AcDbLine
 10
-129.75908
 20
-77.798606
 30
0.0
 11
-128.50658
 21
-79.051106
 31
0.0
  0
LINE
  5
66
100
AcDbEntity
  8
ANCON-BOLT
100
AcDbLine
 10
-124.0
 20
-71.5
 30
0.0
 11
-118.0
 21
-71.5
 31
0.0
  0
LINE
  5
67
100
AcDbEntity
  8
ANCON-BOLT
100
AcDbLine
 10
-125.0
 20
-76.1
 30
0.0
 11
-118.394383
 21
-76.1
 31
0.0
  0
LINE
  5
68
100
AcDbEntity
  8
ANCON-BOLT
100
AcDbLine
 10
-125.0
 20
-75.5
 30
0.0
 11
-118.394383
 21
-75.5
 31
0.0
  0
LINE
  5
69
100
AcDbEntity
  8
ANCON-BOLT
100
AcDbLine
 10
-125.0
 20
-76.5
 30
0.0
 11
-118.794383
 21
-76.5
 31
0.0
  0
LINE
  5
6A
100
AcDbEntity
  8
ANCON-BOLT
100
AcDbLine
 10
-118.394383
 20
-75.5
 30
0.0
 11
-118.744338
 21
-71.5
 31
0.0
  0
LINE
  5
6B
100
AcDbEntity
  8
ANCON-BOLT
100
AcDbLine
 10
-118.394383
 20
-75.5
 30
0.0
 11
-118.394383
 21
-76.1
 31
0.0
  0
LINE
  5
6C
100
AcDbEntity
  8
ANCON-BOLT
100
AcDbLine
 10
-118.794383
 20
-76.5
 30
0.0
 11
-118.394383
 21
-76.1
 31
0.0
  0
LINE
  5
6D
100
AcDbEntity
  8
ANCON-BOLT
100
AcDbLine
 10
-120.190832
 20
-76.5
 30
0.0
 11
-120.190832
 21
-77.798606
 31
0.0
  0
LINE
  5
6E
100
AcDbEntity
  8
ANCON-BOLT
100
AcDbLine
 10
-121.443332
 20
-76.5
 30
0.0
 11
-121.443332
 21
-79.051106
 31
0.0
  0
LINE
  5
6F
100
AcDbEntity
  8
ANCON-BOLT
100
AcDbLine
 10
-120.190832
 20
-77.798606
 30
0.0
 11
-121.443332
 21
-79.051106
 31
0.0
  0
LINE
  5
70
100
AcDbEntity
  8
ANCON-BOLT
100
AcDbLine
 10
-132.0
 20
-18.5
 30
0.0
 11
-118.0
 21
-18.5
 31
0.0
  0
LINE
  5
71
100
AcDbEntity
  8
ANCON-BOLT
100
AcDbLine
 10
-132.0
 20
-20.0
 30
0.0
 11
-118.0
 21
-20.0
 31
0.0
  0
LINE
  5
72
100
AcDbEntity
  8
ANCON-BOLT
100
AcDbLine
 10
-132.0
 20
-28.5
 30
0.0
 11
-118.0
 21
-28.5
 31
0.0
  0
LINE
  5
73
100
AcDbEntity
  8
ANCON-BOLT
100
AcDbLine
 10
-132.0
 20
0.0
 30
0.0
 11
-132.0
 21
-18.5
 31
0.0
  0
LINE
  5
74
100
AcDbEntity
  8
ANCON-BOLT
100
AcDbLine
 10
-132.0
 20
-20.0
 30
0.0
 11
-132.0
 21
-28.5
 31
0.0
  0
LINE
  5
75
100
AcDbEntity
  8
ANCON-BOLT
100
AcDbLine
 10
-130.5
 20
-37.5
 30
0.0
 11
-132.0
 21
-28.5
 31
0.0
  0
LINE
  5
76
100
AcDbEntity
  8
ANCON-BOLT
100
AcDbLine
 10
-132.0
 20
-37.5
 30
0.0
 11
-126.0
 21
-37.5
 31
0.0
  0
ARC
  5
77
100
AcDbEntity
  8
ANCON-BOLT
100
AcDbCircle
 10
-132.917108
 20
-19.25
 30
0.0
 40
1.184731
100
AcDbArc
 50
320.724114
 51
39.275886
  0
LINE
  5
78
100
AcDbEntity
  8
ANCON-BOLT
100
AcDbLine
 10
-118.0
 20
0.0
 30
0.0
 11
-118.0
 21
-18.5
 31
0.0
  0
LINE
  5
79
100
AcDbEntity
  8
ANCON-BOLT
100
AcDbLine
 10
-118.0
 20
-20.0
 30
0.0
 11
-118.0
 21
-28.5
 31
0.0
  0
LINE
  5
7A
100
AcDbEntity
  8
ANCON-BOLT
100
AcDbLine
 10
-124.0
 20
-37.5
 30
0.0
 11
-118.0
 21
-37.5
 31
0.0
  0
LINE
  5
7B
100
AcDbEntity
  8
ANCON-BOLT
100
AcDbLine
 10
-119.5
 20
-37.5
 30
0.0
 11
-118.0
 21
-28.5
 31
0.0
  0
ARC
  5
7C
100
AcDbEntity
  8
ANCON-BOLT
100
AcDbCircle
 10
-117.082892
 20
-19.25
 30
0.0
 40
1.184731
100
AcDbArc
 50
140.724114
 51
219.275886
  0
LINE
  5
7D
100
AcDbEntity
  8
ANCON-BOLT
100
AcDbLine
 10
-131.489182
 20
14.0
 30
0.0
 11
-118.510818
 21
14.0
 31
0.0
  0
ARC
  5
7E
100
AcDbEntity
  8
ANCON-BOLT
100
AcDbCircle
 10
-125.0
 20
5.902734
 30
0.0
 40
8.097266
100
AcDbArc
 50
57.739165
 51
122.260835
  0
LINE
  5
7F
100
AcDbEntity
  8
ANCON-BOLT
100
AcDbLine
 10
-140.0
 20
8.0
 30
0.0
 11
-110.0
 21
8.0
 31
0.0
  0
LINE
  5
80
100
AcDbEntity
  8
ANCON-BOLT
100
AcDbLine
 10
-140.0
 20
6.0
 30
0.0
 11
-110.0
 21
6.0
 31
0.0
  0
LINE
  5
81
100
AcDbEntity
  8
ANCON-BOLT
100
AcDbLine
 10
-135.5
 20
8.0
 30
0.0
 11
-114.5
 21
8.0
 31
0.0
  0
LINE
  5
82
100
AcDbEntity
  8
ANCON-BOLT
100
AcDbLine
 10
-133.65625
 20
8.0
 30
0.0
 11
-116.34375
 21
8.0
 31
0.0
  0
LINE
  5
83
100
AcDbEntity
  8
ANCON-MASONRY
100
AcDbLine
 10
-140.0
 20
10.0
 30
0.0
 11
-133.65625
 21
10.0
 31
0.0
  0
LINE
  5
84
100
AcDbEntity
  8
ANCON-BOLT
100
AcDbLine
 10
-140.0
 20
6.0
 30
0.0
 11
-140.0
 21
8.0
 31
0.0
  0
LINE
  5
85
100
AcDbEntity
  8
ANCON-BOLT
100
AcDbLine
 10
-133.65625
 20
8.0
 30
0.0
 11
-133.65625
 21
12.75
 31
0.0
  0
LINE
  5
86
100
AcDbEntity
  8
ANCON-BOLT
100
AcDbLine
 10
-129.322113
 20
8.0
 30
0.0
 11
-129.322113
 21
12.75
 31
0.0
  0
ARC
  5
87
100
AcDbEntity
  8
ANCON-BOLT
100
AcDbCircle
 10
-131.489182
 20
11.496526
 30
0.0
 40
2.503474
100
AcDbArc
 50
30.045915
 51
149.954085
  0
LINE
  5
88
100
AcDbEntity
  8
ANCON-BOLT
100
AcDbLine
 10
-120.677887
 20
8.0
 30
0.0
 11
-120.677887
 21
12.75
 31
0.0
  0
LINE
  5
89
100
AcDbEntity
  8
ANCON-BOLT
100
AcDbLine
 10
-116.34375
 20
8.0
 30
0.0
 11
-116.34375
 21
12.75
 31
0.0
  0
ARC
  5
8A
100
AcDbEntity
  8
ANCON-BOLT
100
AcDbCircle
 10
-118.510818
 20
11.496526
 30
0.0
 40
2.503474
100
AcDbArc
 50
30.045915
 51
149.954085
  0
LINE
  5
8B
100
AcDbEntity
  8
ANCON-BOLT
100
AcDbLine
 10
-110.0
 20
6.0
 30
0.0
 11
-110.0
 21
8.0
 31
0.0
  0
LINE
  5
8C
100
AcDbEntity
  8
ANCON-WINDPOST
100
AcDbLine
 10
6.0
 20
-125.0
 30
0.0
 11
6.0
 21
0.0
 31
0.0
  0
LINE
  5
8D
100
AcDbEntity
  8
ANCON-WINDPOST
100
AcDbLine
 10
0.0
 20
-125.0
 30
0.0
 11
0.0
 21
0.0
 31
0.0
  0
LINE
  5
8E
100
AcDbEntity
  8
ANCON-MASONRY
100
AcDbLine
 10
202.5
 20
-75.0
 30
0.0
 11
202.5
 21
-140.0
 31
0.0
  0
LINE
  5
8F
100
AcDbEntity
  8
ANCON-MASONRY
100
AcDbLine
 10
100.0
 20
-75.0
 30
0.0
 11
100.0
 21
-140.0
 31
0.0
  0
LINE
  5
90
100
AcDbEntity
  8
ANCON-STRUC
100
AcDbLine
 10
0.0
 20
0.0
 30
0.0
 11
0.0
 21
-140.0
 31
0.0
  0
LINE
  5
91
100
AcDbEntity
  8
ANCON-WINDPOST
100
AcDbLine
 10
6.0
 20
-125.0
 30
0.0
 11
0.0
 21
-125.0
 31
0.0
  0
ARC
  5
92
100
AcDbEntity
  8
ANCON-BOLT
100
AcDbCircle
 10
5.902734
 20
-100.0
 30
0.0
 40
8.097266
100
AcDbArc
 50
327.739165
 51
32.260835
  0
LINE
  5
93
100
AcDbEntity
  8
ANCON-BOLT
100
AcDbLine
 10
14.0
 20
-106.489182
 30
0.0
 11
14.0
 21
-93.510818
 31
0.0
  0
LINE
  5
94
100
AcDbEntity
  8
ANCON-BOLT
100
AcDbLine
 10
8.0
 20
-108.65625
 30
0.0
 11
8.0
 21
-91.34375
 31
0.0
  0
LINE
  5
95
100
AcDbEntity
  8
ANCON-BOLT
100
AcDbLine
 10
-18.5
 20
-107.0
 30
0.0
 11
-18.5
 21
-93.0
 31
0.0
  0
LINE
  5
96
100
AcDbEntity
  8
ANCON-BOLT
100
AcDbLine
 10
8.0
 20
-110.5
 30
0.0
 11
8.0
 21
-89.5
 31
0.0
  0
LINE
  5
97
100
AcDbEntity
  8
ANCON-BOLT
100
AcDbLine
 10
8.0
 20
-115.0
 30
0.0
 11
8.0
 21
-85.0
 31
0.0
  0
LINE
  5
98
100
AcDbEntity
  8
ANCON-BOLT
100
AcDbLine
 10
6.0
 20
-115.0
 30
0.0
 11
6.0
 21
-85.0
 31
0.0
  0
LINE
  5
99
100
AcDbEntity
  8
ANCON-BOLT
100
AcDbLine
 10
0.0
 20
-107.0
 30
0.0
 11
-18.5
 21
-107.0
 31
0.0
  0
LINE
  5
9A
100
AcDbEntity
  8
ANCON-BOLT
100
AcDbLine
 10
6.0
 20
-115.0
 30
0.0
 11
8.0
 21
-115.0
 31
0.0
  0
ARC
  5
9B
100
AcDbEntity
  8
ANCON-BOLT
100
AcDbCircle
 10
11.496526
 20
-106.489182
 30
0.0
 40
2.503474
100
AcDbArc
 50
300.045915
 51
59.954085
  0
LINE
  5
9C
100
AcDbEntity
  8
ANCON-BOLT
100
AcDbLine
 10
8.0
 20
-108.65625
 30
0.0
 11
12.75
 21
-108.65625
 31
0.0
  0
LINE
  5
9D
100
AcDbEntity
  8
ANCON-BOLT
100
AcDbLine
 10
8.0
 20
-104.322113
 30
0.0
 11
12.75
 21
-104.322113
 31
0.0
  0
LINE
  5
9E
100
AcDbEntity
  8
ANCON-BOLT
100
AcDbLine
 10
0.0
 20
-93.0
 30
0.0
 11
-18.5
 21
-93.0
 31
0.0
  0
ARC
  5
9F
100
AcDbEntity
  8
ANCON-BOLT
100
AcDbCircle
 10
11.496526
 20
-93.510818
 30
0.0
 40
2.503474
100
AcDbArc
 50
300.045915
 51
59.954085
  0
LINE
  5
A0
100
AcDbEntity
  8
ANCON-BOLT
100
AcDbLine
 10
8.0
 20
-95.677887
 30
0.0
 11
12.75
 21
-95.677887
 31
0.0
  0
LINE
  5
A1
100
AcDbEntity
  8
ANCON-BOLT
100
AcDbLine
 10
6.0
 20
-85.0
 30
0.0
 11
8.0
 21
-85.0
 31
0.0
  0
LINE
  5
A2
100
AcDbEntity
  8
ANCON-BOLT
100
AcDbLine
 10
8.0
 20
-91.34375
 30
0.0
 11
12.75
 21
-91.34375
 31
0.0
  0
LINE
  5
A3
100
AcDbEntity
  8
ANCON-MASONRY
100
AcDbLine
 10
100.0
 20
85.0
 30
0.0
 11
202.5
 21
85.0
 31
0.0
  0
LINE
  5
A4
100
AcDbEntity
  8
ANCON-MASONRY
100
AcDbLine
 10
100.0
 20
10.0
 30
0.0
 11
202.5
 21
10.0
 31
0.0
  0
LINE
  5
A5
100
AcDbEntity
  8
ANCON-MASONRY
100
AcDbLine
 10
100.0
 20
75.0
 30
0.0
 11
202.5
 21
75.0
 31
0.0
  0
LINE
  5
A6
100
AcDbEntity
  8
ANCON-MASONRY
100
AcDbLine
 10
100.0
 20
-75.0
 30
0.0
 11
202.5
 21
-75.0
 31
0.0
  0
LINE
  5
A7
100
AcDbEntity
  8
ANCON-MASONRY
100
AcDbLine
 10
100.0
 20
-65.0
 30
0.0
 11
202.5
 21
-65.0
 31
0.0
  0
LINE
  5
A8
100
AcDbEntity
  8
ANCON-MASONRY
100
AcDbLine
 10
100.0
 20
0.0
 30
0.0
 11
202.5
 21
0.0
 31
0.0
  0
LINE
  5
A9
100
AcDbEntity
  8
ANCON-WINDPOST
100
AcDbLine
 10
21.0
 20
6.0
 30
0.0
 11
21.0
 21
0.0
 31
0.0
  0
LINE
  5
AA
100
AcDbEntity
  8
ANCON-MASONRY
100
AcDbLine
 10
100.0
 20
0.0
 30
0.0
 11
100.0
 21
-65.0
 31
0.0
  0
LINE
  5
AB
100
AcDbEntity
  8
ANCON-MASONRY
100
AcDbLine
 10
100.0
 20
75.0
 30
0.0
 11
100.0
 21
10.0
 31
0.0
  0
LINE
  5
AC
100
AcDbEntity
  8
ANCON-MASONRY
100
AcDbLine
 10
202.5
 20
0.0
 30
0.0
 11
202.5
 21
-65.0
 31
0.0
  0
LINE
  5
AD
100
AcDbEntity
  8
ANCON-MASONRY
100
AcDbLine
 10
202.5
 20
75.0
 30
0.0
 11
202.5
 21
10.0
 31
0.0
  0
LINE
  5
AE
100
AcDbEntity
  8
ANCON-MASONRY
100
AcDbLine
 10
-140.0
 20
235.0
 30
0.0
 11
0.0
 21
235.0
 31
0.0
  0
LINE
  5
AF
100
AcDbEntity
  8
ANCON-MASONRY
100
AcDbLine
 10
-140.0
 20
225.0
 30
0.0
 11
0.0
 21
225.0
 31
0.0
  0
LINE
  5
B0
100
AcDbEntity
  8
ANCON-MASONRY
100
AcDbLine
 10
-140.0
 20
300.0
 30
0.0
 11
-140.0
 21
235.0
 31
0.0
  0
LINE
  5
B1
100
AcDbEntity
  8
ANCON-WINDPOST
100
AcDbLine
 10
-58.0
 20
206.0
 30
0.0
 11
-58.0
 21
228.75
 31
0.0
  0
LINE
  5
B2
100
AcDbEntity
  8
ANCON-WINDPOST
100
AcDbLine
 10
-70.0
 20
206.0
 30
0.0
 11
-70.0
 21
228.75
 31
0.0
  0
ARC
  5
B3
100
AcDbEntity
  8
ANCON-WINDPOST
100
AcDbCircle
 10
-64.0
 20
206.0
 30
0.0
 40
6.0
100
AcDbArc
 50
180.0
 51
0.0
  0
LINE
  5
B4
100
AcDbEntity
  8
ANCON-TIE
100
AcDbLine
 10
-81.5
 20
231.25
 30
0.0
 11
-46.5
 21
231.25
 31
0.0
  0
LINE
  5
B6
100
AcDbEntity
  8
ANCON-TIE
100
AcDbLine
 10
-81.5
 20
228.75
 30
0.0
 11
-46.5
 21
228.75
 31
0.0
  0
LINE
  5
B7
100
AcDbEntity
  8
ANCON-WINDPOST
100
AcDbLine
 10
-70.0
 20
231.25
 30
0.0
 11
-70.0
 21
254.0
 31
0.0
  0
LINE
  5
B8
100
AcDbEntity
  8
ANCON-WINDPOST
100
AcDbLine
 10
-58.0
 20
231.25
 30
0.0
 11
-58.0
 21
254.0
 31
0.0
  0
LINE
  5
B9
100
AcDbEntity
  8
ANCON-TIE
100
AcDbLine
 10
-81.5
 20
228.75
 30
0.0
 11
-81.5
 21
231.25
 31
0.0
  0
LINE
  5
BA
100
AcDbEntity
  8
ANCON-TIE
100
AcDbLine
 10
-74.0
 20
228.75
 30
0.0
 11
-74.0
 21
231.25
 31
0.0
  0
ARC
  5
BB
100
AcDbEntity
  8
ANCON-WINDPOST
100
AcDbCircle
 10
-64.0
 20
254.0
 30
0.0
 40
6.0
100
AcDbArc
 50
0.0
 51
180.0
  0
LINE
  5
BC
100
AcDbEntity
  8
ANCON-TIE
100
AcDbLine
 10
-54.0
 20
228.75
 30
0.0
 11
-54.0
 21
231.25
 31
0.0
  0
LINE
  5
BD
100
AcDbEntity
  8
ANCON-TIE
100
AcDbLine
 10
-46.5
 20
228.75
 30
0.0
 11
-46.5
 21
231.25
 31
0.0
  0
LINE
  5
BE
100
AcDbEntity
  8
ANCON-MASONRY
100
AcDbLine
 10
0.0
 20
300.0
 30
0.0
 11
0.0
 21
235.0
 31
0.0
  0
LINE
  5
BF
100
AcDbEntity
  8
ANCON-MASONRY
100
AcDbLine
 10
202.5
 20
300.0
 30
0.0
 11
202.5
 21
235.0
 31
0.0
  0
LINE
  5
C0
100
AcDbEntity
  8
ANCON-MASONRY
100
AcDbLine
 10
100.0
 20
300.0
 30
0.0
 11
100.0
 21
235.0
 31
0.0
  0
LINE
  5
C1
100
AcDbEntity
  8
ANCON-TIE
100
AcDbLine
 10
82.5
 20
228.75
 30
0.0
 11
165.0
 21
228.75
 31
0.0
  0
LINE
  5
C2
100
AcDbEntity
  8
ANCON-TIE
100
AcDbLine
 10
82.5
 20
231.25
 30
0.0
 11
165.0
 21
231.25
 31
0.0
  0
LINE
  5
C3
100
AcDbEntity
  8
ANCON-MASONRY
100
AcDbLine
 10
100.0
 20
235.0
 30
0.0
 11
202.5
 21
235.0
 31
0.0
  0
LINE
  5
C4
100
AcDbEntity
  8
ANCON-MASONRY
100
AcDbLine
 10
100.0
 20
160.0
 30
0.0
 11
202.5
 21
160.0
 31
0.0
  0
LINE
  5
C5
100
AcDbEntity
  8
ANCON-MASONRY
100
AcDbLine
 10
100.0
 20
225.0
 30
0.0
 11
202.5
 21
225.0
 31
0.0
  0
LINE
  5
C6
100
AcDbEntity
  8
ANCON-MASONRY
100
AcDbLine
 10
100.0
 20
150.0
 30
0.0
 11
202.5
 21
150.0
 31
0.0
  0
LINE
  5
C7
100
AcDbEntity
  8
ANCON-MASONRY
100
AcDbLine
 10
100.0
 20
225.0
 30
0.0
 11
100.0
 21
160.0
 31
0.0
  0
LINE
  5
C8
100
AcDbEntity
  8
ANCON-TIE
100
AcDbLine
 10
16.0
 20
228.75
 30
0.0
 11
67.5
 21
228.75
 31
0.0
  0
LINE
  5
C9
100
AcDbEntity
  8
ANCON-TIE
100
AcDbLine
 10
16.0
 20
231.25
 30
0.0
 11
67.5
 21
231.25
 31
0.0
  0
LINE
  5
CA
100
AcDbEntity
  8
ANCON-TIE
100
AcDbLine
 10
3.75
 20
228.75
 30
0.0
 11
10.0
 21
228.75
 31
0.0
  0
LINE
  5
CB
100
AcDbEntity
  8
ANCON-TIE
100
AcDbLine
 10
3.75
 20
231.25
 30
0.0
 11
10.0
 21
231.25
 31
0.0
  0
LINE
  5
CC
100
AcDbEntity
  8
ANCON-TIE
100
AcDbLine
 10
3.75
 20
231.25
 30
0.0
 11
3.75
 21
228.75
 31
0.0
  0
LINE
  5
CD
100
AcDbEntity
  8
ANCON-TIE
100
AcDbLine
 10
16.25
 20
228.75
 30
0.0
 11
16.25
 21
231.25
 31
0.0
  0
LINE
  5
CE
100
AcDbEntity
  8
ANCON-TIE
100
AcDbLine
 10
9.75
 20
228.75
 30
0.0
 11
9.75
 21
231.25
 31
0.0
  0
LINE
  5
CF
100
AcDbEntity
  8
ANCON-TIE
100
AcDbLine
 10
67.5
 20
228.75
 30
0.0
 11
75.0
 21
224.75
 31
0.0
  0
LINE
  5
D0
100
AcDbEntity
  8
ANCON-TIE
100
AcDbLine
 10
67.5
 20
231.25
 30
0.0
 11
75.0
 21
227.25
 31
0.0
  0
LINE
  5
D1
100
AcDbEntity
  8
ANCON-TIE
100
AcDbLine
 10
75.0
 20
224.75
 30
0.0
 11
82.5
 21
228.75
 31
0.0
  0
LINE
  5
D2
100
AcDbEntity
  8
ANCON-TIE
100
AcDbLine
 10
75.0
 20
227.25
 30
0.0
 11
82.5
 21
231.25
 31
0.0
  0
LINE
  5
D3
100
AcDbEntity
  8
ANCON-MASONRY
100
AcDbLine
 10
202.5
 20
225.0
 30
0.0
 11
202.5
 21
160.0
 31
0.0
  0
LINE
  5
D4
100
AcDbEntity
  8
ANCON-TIE
100
AcDbLine
 10
165.0
 20
231.25
 30
0.0
 11
165.0
 21
228.75
 31
0.0
  0
TEXT
  5
D5
100
AcDbEntity
  8
ANCON-TEXT
100
AcDbText
 10
273.220718
 20
16.022747
 30
0.0
 40
9.0
  1
long post and a wind load (UDL) of 11.4 kilonewtons.
  7
ROMANS
100
AcDbText
  0
TEXT
  5
D7
100
AcDbEntity
  8
ANCON-TEXT
100
AcDbText
 10
273.220718
 20
30.594176
 30
0.0
 40
9.0
  1
Ancon Building Products will design a system to a 2.5 metre
  7
ROMANS
100
AcDbText
  0
TEXT
  5
D8
100
AcDbEntity
  8
ANCON-TEXT
100
AcDbText
 10
273.220718
 20
45.165604
 30
0.0
 40
9.0
  1
by the height/wind load (UDL) ie. WP2F/2.5/11.4
  7
ROMANS
100
AcDbText
  0
TEXT
  5
D9
100
AcDbEntity
  8
ANCON-TEXT
100
AcDbText
 10
273.220718
 20
59.737033
 30
0.0
 40
9.0
  1
Ancon WP2F can be specified
  7
ROMANS
100
AcDbText
  0
TEXT
  5
DA
100
AcDbEntity
  8
ANCON-TEXT
100
AcDbText
 10
273.220718
 20
102.808765
 30
0.0
 40
9.0
  1
Ancon windpost type WP2F
  7
ROMANS
100
AcDbText
  0
ENDSEC
  0
SECTION
  2
OBJECTS
  0
DICTIONARY
  5
1A
100
AcDbDictionary
  3
ACAD_GROUP
350
18
  3
ACAD_MLINESTYLE
350
19
  0
DICTIONARY
  5
18
102
{ACAD_REACTORS
330
1A
102
}
100
AcDbDictionary
  0
DICTIONARY
  5
19
102
{ACAD_REACTORS
330
1A
102
}
100
AcDbDictionary
  3
STANDARD
350
1C
  0
MLINESTYLE
  5
1C
102
{ACAD_REACTORS
330
19
102
}
100
AcDbMlineStyle
  2
STANDARD
 70
     0
  3

 62
   256
 51
90.0
 52
90.0
 71
     2
 49
0.5
 62
   256
  6
BYLAYER
 49
-0.5
 62
   256
  6
BYLAYER
  0
ENDSEC
  0
EOF
