  0
SECTION
  2
HEADER
  9
$ACADVER
  1
AC1015
  9
$ACADMAINTVER
 70
    10
  9
$DWGCODEPAGE
  3
ANSI_1252
  9
$INSBASE
 10
0.0
 20
0.0
 30
0.0
  9
$EXTMIN
 10
-150.0107129999999
 20
-75.0
 30
0.0
  9
$EXTMAX
 10
735.2038722857147
 20
365.0
 30
0.0
  9
$LIMMIN
 10
0.0
 20
0.0
  9
$LIMMAX
 10
420.0
 20
297.0
  9
$ORTHOMODE
 70
     1
  9
$REGENMODE
 70
     1
  9
$FILLMODE
 70
     1
  9
$QTEXTMODE
 70
     0
  9
$MIRRTEXT
 70
     1
  9
$LTSCALE
 40
1.0
  9
$ATTMODE
 70
     1
  9
$TEXTSIZE
 40
9.0
  9
$TRACEWID
 40
10.0
  9
$TEXTSTYLE
  7
ROMANS
  9
$CLAYER
  8
ANCON-CHANNEL
  9
$CELTYPE
  6
BYLAYER
  9
$CECOLOR
 62
   256
  9
$CELTSCALE
 40
1.0
  9
$DISPSILH
 70
     0
  9
$DIMSCALE
 40
5.0
  9
$DIMASZ
 40
0.0
  9
$DIMEXO
 40
4.5
  9
$DIMDLI
 40
0.0
  9
$DIMRND
 40
1.0
  9
$DIMDLE
 40
1.25
  9
$DIMEXE
 40
1.5
  9
$DIMTP
 40
0.0
  9
$DIMTM
 40
0.0
  9
$DIMTXT
 40
1.8
  9
$DIMCEN
 40
0.0
  9
$DIMTSZ
 40
1.0
  9
$DIMTOL
 70
     0
  9
$DIMLIM
 70
     0
  9
$DIMTIH
 70
     0
  9
$DIMTOH
 70
     0
  9
$DIMSE1
 70
     0
  9
$DIMSE2
 70
     0
  9
$DIMTAD
 70
     1
  9
$DIMZIN
 70
    12
  9
$DIMBLK
  1

  9
$DIMASO
 70
     1
  9
$DIMSHO
 70
     0
  9
$DIMPOST
  1

  9
$DIMAPOST
  1

  9
$DIMALT
 70
     0
  9
$DIMALTD
 70
     2
  9
$DIMALTF
 40
0.04
  9
$DIMLFAC
 40
1.0
  9
$DIMTOFL
 70
     0
  9
$DIMTVP
 40
0.0
  9
$DIMTIX
 70
     0
  9
$DIMSOXD
 70
     0
  9
$DIMSAH
 70
     0
  9
$DIMBLK1
  1

  9
$DIMBLK2
  1

  9
$DIMSTYLE
  2
1-5
  9
$DIMCLRD
 70
     0
  9
$DIMCLRE
 70
     0
  9
$DIMCLRT
 70
     0
  9
$DIMTFAC
 40
1.25
  9
$DIMGAP
 40
0.1
  9
$DIMJUST
 70
     0
  9
$DIMSD1
 70
     0
  9
$DIMSD2
 70
     0
  9
$DIMTOLJ
 70
     1
  9
$DIMTZIN
 70
    12
  9
$DIMALTZ
 70
    12
  9
$DIMALTTZ
 70
    12
  9
$DIMUPT
 70
     0
  9
$DIMDEC
 70
     2
  9
$DIMTDEC
 70
     2
  9
$DIMALTU
 70
     2
  9
$DIMALTTD
 70
     2
  9
$DIMTXSTY
  7
ROMANS
  9
$DIMAUNIT
 70
     0
  9
$DIMADEC
 70
     0
  9
$DIMALTRND
 40
0.0
  9
$DIMAZIN
 70
     0
  9
$DIMDSEP
 70
    46
  9
$DIMATFIT
 70
     3
  9
$DIMFRAC
 70
     0
  9
$DIMLDRBLK
  1

  9
$DIMLUNIT
 70
     2
  9
$DIMLWD
 70
    -2
  9
$DIMLWE
 70
    -2
  9
$DIMTMOVE
 70
     0
  9
$LUNITS
 70
     2
  9
$LUPREC
 70
     2
  9
$SKETCHINC
 40
1.0
  9
$FILLETRAD
 40
0.0
  9
$AUNITS
 70
     0
  9
$AUPREC
 70
     4
  9
$MENU
  1
C:\ACADWIN\SUPPORT\ACAD
  9
$ELEVATION
 40
0.0
  9
$PELEVATION
 40
0.0
  9
$THICKNESS
 40
0.0
  9
$LIMCHECK
 70
     0
  9
$CHAMFERA
 40
0.0
  9
$CHAMFERB
 40
0.0
  9
$CHAMFERC
 40
0.0
  9
$CHAMFERD
 40
0.0
  9
$SKPOLY
 70
     0
  9
$TDCREATE
 40
2450427.482995949
  9
$TDUCREATE
 40
2450427.441329282
  9
$TDUPDATE
 40
2452486.843408911
  9
$TDUUPDATE
 40
2452486.801742245
  9
$TDINDWG
 40
0.1159607639
  9
$TDUSRTIMER
 40
0.1159607639
  9
$USRTIMER
 70
     1
  9
$ANGBASE
 50
0.0
  9
$ANGDIR
 70
     0
  9
$PDMODE
 70
     0
  9
$PDSIZE
 40
0.0
  9
$PLINEWID
 40
0.0
  9
$SPLFRAME
 70
     0
  9
$SPLINETYPE
 70
     6
  9
$SPLINESEGS
 70
     8
  9
$HANDSEED
  5
364
  9
$SURFTAB1
 70
    18
  9
$SURFTAB2
 70
    18
  9
$SURFTYPE
 70
     6
  9
$SURFU
 70
    18
  9
$SURFV
 70
    18
  9
$UCSBASE
  2

  9
$UCSNAME
  2

  9
$UCSORG
 10
0.0
 20
0.0
 30
0.0
  9
$UCSXDIR
 10
1.0
 20
0.0
 30
0.0
  9
$UCSYDIR
 10
0.0
 20
1.0
 30
0.0
  9
$UCSORTHOREF
  2

  9
$UCSORTHOVIEW
 70
     0
  9
$UCSORGTOP
 10
0.0
 20
0.0
 30
0.0
  9
$UCSORGBOTTOM
 10
0.0
 20
0.0
 30
0.0
  9
$UCSORGLEFT
 10
0.0
 20
0.0
 30
0.0
  9
$UCSORGRIGHT
 10
0.0
 20
0.0
 30
0.0
  9
$UCSORGFRONT
 10
0.0
 20
0.0
 30
0.0
  9
$UCSORGBACK
 10
0.0
 20
0.0
 30
0.0
  9
$PUCSBASE
  2

  9
$PUCSNAME
  2

  9
$PUCSORG
 10
0.0
 20
0.0
 30
0.0
  9
$PUCSXDIR
 10
1.0
 20
0.0
 30
0.0
  9
$PUCSYDIR
 10
0.0
 20
1.0
 30
0.0
  9
$PUCSORTHOREF
  2

  9
$PUCSORTHOVIEW
 70
     0
  9
$PUCSORGTOP
 10
0.0
 20
0.0
 30
0.0
  9
$PUCSORGBOTTOM
 10
0.0
 20
0.0
 30
0.0
  9
$PUCSORGLEFT
 10
0.0
 20
0.0
 30
0.0
  9
$PUCSORGRIGHT
 10
0.0
 20
0.0
 30
0.0
  9
$PUCSORGFRONT
 10
0.0
 20
0.0
 30
0.0
  9
$PUCSORGBACK
 10
0.0
 20
0.0
 30
0.0
  9
$USERI1
 70
     0
  9
$USERI2
 70
     0
  9
$USERI3
 70
     0
  9
$USERI4
 70
     0
  9
$USERI5
 70
     0
  9
$USERR1
 40
0.0
  9
$USERR2
 40
0.0
  9
$USERR3
 40
0.0
  9
$USERR4
 40
0.0
  9
$USERR5
 40
0.0
  9
$WORLDVIEW
 70
     1
  9
$SHADEDGE
 70
     3
  9
$SHADEDIF
 70
    70
  9
$TILEMODE
 70
     1
  9
$MAXACTVP
 70
    16
  9
$PINSBASE
 10
0.0
 20
0.0
 30
0.0
  9
$PLIMCHECK
 70
     0
  9
$PEXTMIN
 10
1.000000000000000E+20
 20
1.000000000000000E+20
 30
1.000000000000000E+20
  9
$PEXTMAX
 10
-1.000000000000000E+20
 20
-1.000000000000000E+20
 30
-1.000000000000000E+20
  9
$PLIMMIN
 10
0.0
 20
0.0
  9
$PLIMMAX
 10
420.0
 20
297.0
  9
$UNITMODE
 70
     0
  9
$VISRETAIN
 70
     0
  9
$PLINEGEN
 70
     0
  9
$PSLTSCALE
 70
     1
  9
$TREEDEPTH
 70
  3020
  9
$CMLSTYLE
  2
STANDARD
  9
$CMLJUST
 70
     0
  9
$CMLSCALE
 40
1.0
  9
$PROXYGRAPHICS
 70
     1
  9
$MEASUREMENT
 70
     0
  9
$CELWEIGHT
370
    -1
  9
$ENDCAPS
280
     0
  9
$JOINSTYLE
280
     0
  9
$LWDISPLAY
290
     0
  9
$INSUNITS
 70
     0
  9
$HYPERLINKBASE
  1

  9
$STYLESHEET
  1

  9
$XEDIT
290
     1
  9
$CEPSNTYPE
380
     0
  9
$PSTYLEMODE
290
     1
  9
$FINGERPRINTGUID
  2
{092F0DAD-A3F2-11D6-AAC6-0010A4A25215}
  9
$VERSIONGUID
  2
{092F0DC5-A3F2-11D6-AAC6-0010A4A25215}
  9
$EXTNAMES
290
     1
  9
$PSVPSCALE
 40
0.0
  9
$OLESTARTUP
290
     0
  0
ENDSEC
  0
SECTION
  2
CLASSES
  0
CLASS
  1
DICTIONARYVAR
  2
AcDbDictionaryVar
  3
AutoCAD 2000
 90
        0
280
     0
281
     0
  0
CLASS
  1
LWPOLYLINE
  2
AcDbPolyline
  3
AutoCAD 2000
 90
    32768
280
     0
281
     1
  0
CLASS
  1
ACDBDICTIONARYWDFLT
  2
AcDbDictionaryWithDefault
  3
AutoCAD 2000
 90
        0
280
     0
281
     0
  0
CLASS
  1
ACDBPLACEHOLDER
  2
AcDbPlaceHolder
  3
AutoCAD 2000
 90
        0
280
     0
281
     0
  0
CLASS
  1
LAYOUT
  2
AcDbLayout
  3
AutoCAD 2000
 90
        0
280
     0
281
     0
  0
ENDSEC
  0
SECTION
  2
TABLES
  0
TABLE
  2
VPORT
  5
8
330
0
100
AcDbSymbolTable
 70
     4
  0
VPORT
  5
363
330
8
100
AcDbSymbolTableRecord
100
AcDbViewportTableRecord
  2
*Active
 70
     0
 10
0.0
 20
0.0
 11
1.0
 21
1.0
 12
281.5280815868859
 22
141.4701309957072
 13
0.0
 23
0.0
 14
5.0
 24
5.0
 15
10.0
 25
10.0
 16
0.0
 26
0.0
 36
1.0
 17
0.0
 27
0.0
 37
0.0
 40
578.8107458441345
 41
1.768089053803339
 42
50.0
 43
0.0
 44
0.0
 50
0.0
 51
0.0
 71
     0
 72
 20000
 73
     1
 74
     1
 75
     0
 76
     0
 77
     0
 78
     0
281
     0
 65
     1
110
0.0
120
0.0
130
0.0
111
1.0
121
0.0
131
0.0
112
0.0
122
1.0
132
0.0
 79
     0
146
0.0
  0
ENDTAB
  0
TABLE
  2
LTYPE
  5
5
330
0
100
AcDbSymbolTable
 70
     2
  0
LTYPE
  5
11
330
5
100
AcDbSymbolTableRecord
100
AcDbLinetypeTableRecord
  2
BYBLOCK
 70
     0
  3

 72
    65
 73
     0
 40
0.0
  0
LTYPE
  5
12
330
5
100
AcDbSymbolTableRecord
100
AcDbLinetypeTableRecord
  2
BYLAYER
 70
     0
  3

 72
    65
 73
     0
 40
0.0
  0
LTYPE
  5
13
330
5
100
AcDbSymbolTableRecord
100
AcDbLinetypeTableRecord
  2
CONTINUOUS
 70
     0
  3
Solid line
 72
    65
 73
     0
 40
0.0
  0
LTYPE
  5
194
330
5
100
AcDbSymbolTableRecord
100
AcDbLinetypeTableRecord
  2
HIDDEN1_02
 70
     0
  3
__ __ __ __ __ __ __ __ __ __ __ __ __ __ __ __
 72
    65
 73
     2
 40
10.0
 49
6.0
 74
     0
 49
-4.0
 74
     0
  0
ENDTAB
  0
TABLE
  2
LAYER
  5
2
330
0
100
AcDbSymbolTable
 70
    14
  0
LAYER
  5
E
330
2
100
AcDbSymbolTableRecord
100
AcDbLayerTableRecord
  2
0
 70
     0
 62
     7
  6
CONTINUOUS
370
    -3
390
176
  0
LAYER
  5
2A
330
2
100
AcDbSymbolTableRecord
100
AcDbLayerTableRecord
  2
ANCON-ORIGIN
 70
     0
 62
     1
  6
CONTINUOUS
370
    -3
390
176
  0
LAYER
  5
2B
330
2
100
AcDbSymbolTableRecord
100
AcDbLayerTableRecord
  2
ANCON-SUPPORT
 70
     0
 62
     3
  6
CONTINUOUS
370
    -3
390
176
  0
LAYER
  5
2C
330
2
100
AcDbSymbolTableRecord
100
AcDbLayerTableRecord
  2
ANCON-STRUC
 70
     0
 62
     2
  6
CONTINUOUS
370
    -3
390
176
  0
LAYER
  5
2D
330
2
100
AcDbSymbolTableRecord
100
AcDbLayerTableRecord
  2
ANCON-MASONRY
 70
     0
 62
     1
  6
CONTINUOUS
370
    -3
390
176
  0
LAYER
  5
2E
330
2
100
AcDbSymbolTableRecord
100
AcDbLayerTableRecord
  2
DEFPOINTS
 70
     0
 62
     7
  6
CONTINUOUS
290
     0
370
    -3
390
176
  0
LAYER
  5
2F
330
2
100
AcDbSymbolTableRecord
100
AcDbLayerTableRecord
  2
ANCON-DIM
 70
     0
 62
     1
  6
CONTINUOUS
370
    -3
390
176
  0
LAYER
  5
30
330
2
100
AcDbSymbolTableRecord
100
AcDbLayerTableRecord
  2
ANCON-CHANNEL
 70
     0
 62
     1
  6
CONTINUOUS
370
    -3
390
176
  0
LAYER
  5
31
330
2
100
AcDbSymbolTableRecord
100
AcDbLayerTableRecord
  2
ANCON-TEXT
 70
     0
 62
     6
  6
CONTINUOUS
370
    -3
390
176
  0
LAYER
  5
32
330
2
100
AcDbSymbolTableRecord
100
AcDbLayerTableRecord
  2
ANCON-TIE
 70
     0
 62
     1
  6
CONTINUOUS
370
    -3
390
176
  0
LAYER
  5
33
330
2
100
AcDbSymbolTableRecord
100
AcDbLayerTableRecord
  2
GENTEXT
 70
     0
 62
     2
  6
CONTINUOUS
370
    -3
390
176
  0
LAYER
  5
195
330
2
100
AcDbSymbolTableRecord
100
AcDbLayerTableRecord
  2
DANCON
 70
     0
 62
     4
  6
CONTINUOUS
370
    -3
390
176
  0
LAYER
  5
196
330
2
100
AcDbSymbolTableRecord
100
AcDbLayerTableRecord
  2
ANCON
 70
     0
 62
     4
  6
CONTINUOUS
370
    -3
390
176
  0
LAYER
  5
197
330
2
100
AcDbSymbolTableRecord
100
AcDbLayerTableRecord
  2
HID
 70
     0
 62
     4
  6
HIDDEN1_02
370
    -3
390
176
  0
ENDTAB
  0
TABLE
  2
STYLE
  5
3
330
0
100
AcDbSymbolTable
 70
     2
  0
STYLE
  5
F
330
3
100
AcDbSymbolTableRecord
100
AcDbTextStyleTableRecord
  2
STANDARD
 70
     0
 40
0.0
 41
1.0
 50
0.0
 71
     0
 42
3.0
  3
txt.shx
  4

  0
STYLE
  5
24
330
3
100
AcDbSymbolTableRecord
100
AcDbTextStyleTableRecord
  2
ROMANS
 70
     0
 40
0.0
 41
1.0
 50
0.0
 71
     0
 42
9.0
  3
romans
  4

  0
ENDTAB
  0
TABLE
  2
VIEW
  5
6
330
0
100
AcDbSymbolTable
 70
     0
  0
ENDTAB
  0
TABLE
  2
UCS
  5
7
330
0
100
AcDbSymbolTable
 70
     0
  0
ENDTAB
  0
TABLE
  2
APPID
  5
9
330
0
100
AcDbSymbolTable
 70
     1
  0
APPID
  5
10
330
9
100
AcDbSymbolTableRecord
100
AcDbRegAppTableRecord
  2
ACAD
 70
     0
  0
ENDTAB
  0
TABLE
  2
DIMSTYLE
  5
A
330
0
100
AcDbSymbolTable
 70
     1
100
AcDbDimStyleTable
 71
     0
  0
DIMSTYLE
105
27
330
A
100
AcDbSymbolTableRecord
100
AcDbDimStyleTableRecord
  2
1-5
 70
     0
 40
5.0
 41
0.0
 42
4.5
 43
0.0
 44
1.5
 45
1.0
 46
1.25
 73
     0
 74
     0
 77
     1
 78
    12
140
1.8
141
0.0
142
1.0
143
0.04
146
1.25
147
0.1
271
     2
272
     2
284
    12
285
    12
286
    12
340
24
  0
ENDTAB
  0
TABLE
  2
BLOCK_RECORD
  5
1
330
0
100
AcDbSymbolTable
 70
     4
  0
BLOCK_RECORD
  5
17
330
1
100
AcDbSymbolTableRecord
100
AcDbBlockTableRecord
  2
*MODEL_SPACE
340
179
  0
BLOCK_RECORD
  5
14
330
1
100
AcDbSymbolTableRecord
100
AcDbBlockTableRecord
  2
*PAPER_SPACE
340
17A
  0
BLOCK_RECORD
  5
1C
330
1
100
AcDbSymbolTableRecord
100
AcDbBlockTableRecord
  2
OR
340
0
  0
BLOCK_RECORD
  5
17D
330
1
100
AcDbSymbolTableRecord
100
AcDbBlockTableRecord
  2
new bracket
340
0
102
{BLKREFS
331
188
102
}
  0
BLOCK_RECORD
  5
198
330
1
100
AcDbSymbolTableRecord
100
AcDbBlockTableRecord
  2
Chanel13
340
0
102
{BLKREFS
331
1E5
102
}
  0
BLOCK_RECORD
  5
230
330
1
100
AcDbSymbolTableRecord
100
AcDbBlockTableRecord
  2
a_mdc_rsupport
340
0
  0
ENDTAB
  0
ENDSEC
  0
SECTION
  2
BLOCKS
  0
BLOCK
  5
36
330
17
100
AcDbEntity
  8
0
100
AcDbBlockBegin
  2
*MODEL_SPACE
 70
     0
 10
0.0
 20
0.0
 30
0.0
  3
*MODEL_SPACE
  1

  0
ENDBLK
  5
37
330
17
100
AcDbEntity
  8
0
100
AcDbBlockEnd
  0
BLOCK
  5
34
330
14
100
AcDbEntity
 67
     1
  8
0
100
AcDbBlockBegin
  2
*PAPER_SPACE
 70
     0
 10
0.0
 20
0.0
 30
0.0
  3
*PAPER_SPACE
  1

  0
ENDBLK
  5
35
330
14
100
AcDbEntity
 67
     1
  8
0
100
AcDbBlockEnd
  0
BLOCK
  5
3A
330
1C
100
AcDbEntity
  8
0
100
AcDbBlockBegin
  2
OR
 70
     0
 10
0.0
 20
0.0
 30
0.0
  3
OR
  1

  0
LWPOLYLINE
  5
3B
330
1C
100
AcDbEntity
  8
ANCON-ORIGIN
100
AcDbPolyline
 90
        5
 70
     0
 43
0.0
 10
-10.173261
 20
-6.213916999999999
 10
-10.173261
 20
6.213916999999999
 10
10.173261
 20
-6.213916999999999
 10
10.173261
 20
6.213916999999999
 10
-10.173261
 20
-6.213916999999999
  0
ENDBLK
  5
42
330
1C
100
AcDbEntity
  8
0
100
AcDbBlockEnd
  0
BLOCK
  5
186
330
17D
100
AcDbEntity
  8
0
100
AcDbBlockBegin
  2
new bracket
 70
     0
 10
0.0
 20
0.0
 30
0.0
  3
new bracket
  1

  0
LINE
  5
17E
330
17D
100
AcDbEntity
  8
ANCON-SUPPORT
100
AcDbLine
 10
85.99999999999864
 20
44.4999999999989
 30
0.0
 11
85.99999999999864
 21
-77.50000000000013
 31
0.0
  0
ARC
  5
17F
330
17D
100
AcDbEntity
  8
ANCON-SUPPORT
100
AcDbCircle
 10
102.4401703387375
 20
34.5
 30
0.0
 40
10.0
100
AcDbArc
 50
0.0
 51
90.0
  0
LINE
  5
180
330
17D
100
AcDbEntity
  8
ANCON-SUPPORT
100
AcDbLine
 10
112.4401703387375
 20
-5.500000000000021
 30
0.0
 11
112.4401703387375
 21
34.5
 31
0.0
  0
LINE
  5
181
330
17D
100
AcDbEntity
  8
ANCON-SUPPORT
100
AcDbLine
 10
102.4401703387375
 20
44.5
 30
0.0
 11
81.99999999999864
 21
44.49999999999997
 31
0.0
  0
LINE
  5
182
330
17D
100
AcDbEntity
  8
ANCON-SUPPORT
100
AcDbLine
 10
81.99999999999864
 20
44.4999999999989
 30
0.0
 11
81.99999999999864
 21
-77.50000000000013
 31
0.0
  0
LINE
  5
183
330
17D
100
AcDbEntity
  8
ANCON-SUPPORT
100
AcDbLine
 10
136.9999999999986
 20
-77.50000000000013
 30
0.0
 11
81.99999999999864
 21
-77.50000000000013
 31
0.0
  0
LINE
  5
184
330
17D
100
AcDbEntity
  8
ANCON-SUPPORT
100
AcDbLine
 10
112.4401703387375
 20
-5.500000000000021
 30
0.0
 11
136.9743726001791
 21
-27.4999999999989
 31
0.0
  0
LINE
  5
185
330
17D
100
AcDbEntity
  8
ANCON-SUPPORT
100
AcDbLine
 10
136.9743726001791
 20
-27.4999999999989
 30
0.0
 11
136.9743726001784
 21
-76.93736450254205
 31
0.0
  0
ENDBLK
  5
187
330
17D
100
AcDbEntity
  8
0
100
AcDbBlockEnd
  0
BLOCK
  5
1E3
330
198
100
AcDbEntity
  8
0
100
AcDbBlockBegin
  2
Chanel13
 70
     0
 10
0.0
 20
0.0
 30
0.0
  3
Chanel13
  1

  0
LINE
  5
199
330
198
100
AcDbEntity
  8
DANCON
100
AcDbLine
 10
-13.5
 20
5.0
 30
0.0
 11
-83.54403618259629
 21
5.0
 31
0.0
  0
LINE
  5
19A
330
198
100
AcDbEntity
  8
DANCON
100
AcDbLine
 10
-4.750126841496694
 20
11.79896486544748
 30
0.0
 11
-16.2500422804992
 21
5.157988288482556
 31
0.0
  0
LINE
  5
19B
330
198
100
AcDbEntity
  8
DANCON
100
AcDbLine
 10
-6.000338243990881
 20
13.96390630785936
 30
0.0
 11
-17.50025368299338
 21
7.322929730894429
 31
0.0
  0
LINE
  5
19C
330
198
100
AcDbEntity
  8
DANCON
100
AcDbLine
 10
-13.5
 20
5.0
 30
0.0
 11
-16.44115680106915
 21
5.0
 31
0.0
  0
LINE
  5
19D
330
198
100
AcDbEntity
  8
DANCON
100
AcDbLine
 10
-16.44115680106915
 20
5.0
 30
0.0
 11
-17.53296911004645
 21
5.0
 31
0.0
  0
ARC
  5
19E
330
198
100
AcDbEntity
  8
DANCON
100
AcDbCircle
 10
-16.0
 20
4.725000000000363
 30
0.0
 40
0.5
100
AcDbArc
 50
120.0055946682702
 51
180.0
  0
ARC
  5
19F
330
198
100
AcDbEntity
  8
DANCON
100
AcDbCircle
 10
-4.0
 20
10.5
 30
0.0
 40
1.5
100
AcDbArc
 50
0.0
 51
120.0055946682702
  0
ARC
  5
1A0
330
198
100
AcDbEntity
  8
DANCON
100
AcDbCircle
 10
-4.0
 20
10.5
 30
0.0
 40
4.0
100
AcDbArc
 50
0.0
 51
120.0055946682702
  0
LINE
  5
1A1
330
198
100
AcDbEntity
  8
DANCON
100
AcDbLine
 10
-2.5
 20
7.210000000000036
 30
0.0
 11
0.0
 21
7.210000000000036
 31
0.0
  0
LINE
  5
1A2
330
198
100
AcDbEntity
  8
DANCON
100
AcDbLine
 10
-2.5
 20
10.5
 30
0.0
 11
-2.5
 21
7.210000000000036
 31
0.0
  0
LINE
  5
1A3
330
198
100
AcDbEntity
  8
DANCON
100
AcDbLine
 10
0.0
 20
10.5
 30
0.0
 11
0.0
 21
7.210000000000036
 31
0.0
  0
ARC
  5
1A4
330
198
100
AcDbEntity
  8
DANCON
100
AcDbCircle
 10
-4.0
 20
-10.5
 30
0.0
 40
1.5
100
AcDbArc
 50
239.9944053317297
 51
0.0
  0
LINE
  5
1A5
330
198
100
AcDbEntity
  8
DANCON
100
AcDbLine
 10
-17.50025368299338
 20
-7.322929730894429
 30
0.0
 11
-6.000338243990881
 21
-13.96390630785936
 31
0.0
  0
ARC
  5
1A6
330
198
100
AcDbEntity
  8
DANCON
100
AcDbCircle
 10
-4.0
 20
-10.5
 30
0.0
 40
4.0
100
AcDbArc
 50
239.9944053317297
 51
0.0
  0
LINE
  5
1A7
330
198
100
AcDbEntity
  8
DANCON
100
AcDbLine
 10
-16.2500422804992
 20
-5.157988288482556
 30
0.0
 11
-4.750126841496694
 21
-11.79896486544748
 31
0.0
  0
LINE
  5
1A8
330
198
100
AcDbEntity
  8
DANCON
100
AcDbLine
 10
-13.5
 20
-5.0
 30
0.0
 11
-16.41758232721258
 21
-5.0
 31
0.0
  0
LINE
  5
1A9
330
198
100
AcDbEntity
  8
DANCON
100
AcDbLine
 10
-16.41758232721258
 20
-5.0
 30
0.0
 11
-17.53296911004645
 21
-5.0
 31
0.0
  0
ARC
  5
1AA
330
198
100
AcDbEntity
  8
DANCON
100
AcDbCircle
 10
-16.0
 20
-4.725000000000363
 30
0.0
 40
0.5
100
AcDbArc
 50
180.0
 51
239.9944053317297
  0
LINE
  5
1AB
330
198
100
AcDbEntity
  8
DANCON
100
AcDbLine
 10
-18.12726019059164
 20
-5.0
 30
0.0
 11
-18.98736924400054
 21
-5.0
 31
0.0
  0
ARC
  5
1AC
330
198
100
AcDbEntity
  8
DANCON
100
AcDbCircle
 10
-16.0
 20
-4.725000000000363
 30
0.0
 40
3.0
100
AcDbArc
 50
180.0
 51
239.9944053317297
  0
LINE
  5
1AD
330
198
100
AcDbEntity
  8
DANCON
100
AcDbLine
 10
-2.5
 20
-7.210000000000036
 30
0.0
 11
0.0
 21
-7.210000000000036
 31
0.0
  0
LINE
  5
1AE
330
198
100
AcDbEntity
  8
DANCON
100
AcDbLine
 10
0.0
 20
-7.210000000000036
 30
0.0
 11
0.0
 21
-10.5
 31
0.0
  0
LINE
  5
1AF
330
198
100
AcDbEntity
  8
DANCON
100
AcDbLine
 10
-2.5
 20
-7.210000000000036
 30
0.0
 11
-2.5
 21
-10.5
 31
0.0
  0
LINE
  5
1B0
330
198
100
AcDbEntity
  8
DANCON
100
AcDbLine
 10
-83.54403618259629
 20
-5.0
 30
0.0
 11
-13.5
 21
-5.0
 31
0.0
  0
LINE
  5
1B1
330
198
100
AcDbEntity
  8
DANCON
100
AcDbLine
 10
-83.54403618259629
 20
5.0
 30
0.0
 11
-83.54403618259629
 21
-5.0
 31
0.0
  0
LINE
  5
1B2
330
198
100
AcDbEntity
  8
DANCON
100
AcDbLine
 10
-72.48044734660107
 20
2.5
 30
0.0
 11
-72.48044734660107
 21
-2.5
 31
0.0
  0
LINE
  5
1B3
330
198
100
AcDbEntity
  8
DANCON
100
AcDbLine
 10
-70.48044734660106
 20
2.5
 30
0.0
 11
-70.48044734660106
 21
-2.5
 31
0.0
  0
LINE
  5
1B4
330
198
100
AcDbEntity
  8
DANCON
100
AcDbLine
 10
-71.48044734660107
 20
3.5
 30
0.0
 11
-71.48044734660107
 21
-3.5
 31
0.0
  0
LINE
  5
1B5
330
198
100
AcDbEntity
  8
DANCON
100
AcDbLine
 10
-61.30000000000155
 20
2.5
 30
0.0
 11
-61.30000000000155
 21
-2.5
 31
0.0
  0
LINE
  5
1B6
330
198
100
AcDbEntity
  8
DANCON
100
AcDbLine
 10
-59.30000000000155
 20
2.5
 30
0.0
 11
-59.30000000000155
 21
-2.5
 31
0.0
  0
LINE
  5
1B7
330
198
100
AcDbEntity
  8
DANCON
100
AcDbLine
 10
-60.30000000000154
 20
3.5
 30
0.0
 11
-60.30000000000154
 21
-3.5
 31
0.0
  0
LINE
  5
1B8
330
198
100
AcDbEntity
  8
DANCON
100
AcDbLine
 10
-50.70000000000209
 20
2.5
 30
0.0
 11
-50.70000000000209
 21
-2.5
 31
0.0
  0
LINE
  5
1B9
330
198
100
AcDbEntity
  8
DANCON
100
AcDbLine
 10
-48.70000000000209
 20
2.5
 30
0.0
 11
-48.70000000000209
 21
-2.5
 31
0.0
  0
LINE
  5
1BA
330
198
100
AcDbEntity
  8
DANCON
100
AcDbLine
 10
-37.72519003201796
 20
2.5
 30
0.0
 11
-37.72519003201796
 21
-2.5
 31
0.0
  0
LINE
  5
1BB
330
198
100
AcDbEntity
  8
DANCON
100
AcDbLine
 10
-39.72519003201796
 20
2.5
 30
0.0
 11
-39.72519003201796
 21
-2.5
 31
0.0
  0
LINE
  5
1BC
330
198
100
AcDbEntity
  8
DANCON
100
AcDbLine
 10
-49.70000000000209
 20
3.5
 30
0.0
 11
-49.70000000000209
 21
-3.5
 31
0.0
  0
LINE
  5
1BD
330
198
100
AcDbEntity
  8
DANCON
100
AcDbLine
 10
-38.72519003201796
 20
3.5
 30
0.0
 11
-38.72519003201796
 21
-3.5
 31
0.0
  0
LINE
  5
1BE
330
198
100
AcDbEntity
  8
DANCON
100
AcDbLine
 10
-18.98244518579213
 20
5.0
 30
0.0
 11
-24.7795359965603
 21
5.0
 31
0.0
  0
LINE
  5
1BF
330
198
100
AcDbEntity
  8
DANCON
100
AcDbLine
 10
-18.98736924400054
 20
-5.0
 30
0.0
 11
-25.9924071751393
 21
-5.0
 31
0.0
  0
LINE
  5
1C0
330
198
100
AcDbEntity
  8
DANCON
100
AcDbLine
 10
-27.95687423868776
 20
2.5
 30
0.0
 11
-27.95687423868776
 21
-2.5
 31
0.0
  0
LINE
  5
1C1
330
198
100
AcDbEntity
  8
DANCON
100
AcDbLine
 10
-29.95687423868776
 20
2.5
 30
0.0
 11
-29.95687423868776
 21
-2.5
 31
0.0
  0
LINE
  5
1C2
330
198
100
AcDbEntity
  8
DANCON
100
AcDbLine
 10
-28.95687423868776
 20
3.5
 30
0.0
 11
-28.95687423868776
 21
-3.5
 31
0.0
  0
LINE
  5
1C3
330
198
100
AcDbEntity
  8
DANCON
100
AcDbLine
 10
-18.12726019059164
 20
5.0
 30
0.0
 11
-18.98244518579213
 21
5.0
 31
0.0
  0
ARC
  5
1C4
330
198
100
AcDbEntity
  8
DANCON
100
AcDbCircle
 10
-16.0
 20
4.725000000000363
 30
0.0
 40
3.0
100
AcDbArc
 50
120.0055946682702
 51
180.0
  0
LINE
  5
1C5
330
198
100
AcDbEntity
  8
HID
100
AcDbLine
 10
-16.0
 20
5.0
 30
0.0
 11
-16.0
 21
-5.0
 31
0.0
  0
LINE
  5
1C6
330
198
100
AcDbEntity
  8
DANCON
100
AcDbLine
 10
-16.5
 20
-4.725000000000363
 30
0.0
 11
-16.5
 21
4.725000000000363
 31
0.0
  0
LINE
  5
1C7
330
198
100
AcDbEntity
  8
DANCON
100
AcDbLine
 10
-19.0
 20
-4.725000000000363
 30
0.0
 11
-19.0
 21
4.725000000000363
 31
0.0
  0
LINE
  5
1C8
330
198
100
AcDbEntity
  8
DANCON
100
AcDbLine
 10
-13.5
 20
-5.0
 30
0.0
 11
-13.5
 21
5.0
 31
0.0
  0
LINE
  5
1C9
330
198
100
AcDbEntity
  8
DANCON
100
AcDbLine
 10
-13.5
 20
-5.0
 30
0.0
 11
-13.5
 21
5.0
 31
0.0
  0
LINE
  5
1CA
330
198
100
AcDbEntity
  8
DANCON
 62
     1
100
AcDbLine
 10
-102.9187930197019
 20
0.0
 30
0.0
 11
46.27757637401595
 21
0.0
 31
0.0
  0
LINE
  5
1CB
330
198
100
AcDbEntity
  8
DANCON
100
AcDbLine
 10
17.68361471931984
 20
-10.40827499999977
 30
0.0
 11
24.44711471931987
 21
-10.40827499999977
 31
0.0
  0
LINE
  5
1CC
330
198
100
AcDbEntity
  8
DANCON
100
AcDbLine
 10
17.68361471931984
 20
-5.196909127127582
 30
0.0
 11
24.44711471932032
 21
-5.196909127127582
 31
0.0
  0
LINE
  5
1CD
330
198
100
AcDbEntity
  8
DANCON
100
AcDbLine
 10
17.68361471931939
 20
5.196909127127582
 30
0.0
 11
24.44711471932009
 21
5.196909127127582
 31
0.0
  0
LINE
  5
1CE
330
198
100
AcDbEntity
  8
DANCON
100
AcDbLine
 10
17.68361471931984
 20
10.40827500000068
 30
0.0
 11
24.44711471932055
 21
10.40827500000068
 31
0.0
  0
LINE
  5
1CF
330
198
100
AcDbEntity
  8
DANCON
100
AcDbLine
 10
16.18061471931992
 20
12.52499999999963
 30
0.0
 11
16.18061471931969
 21
-12.52499999999963
 31
0.0
  0
LINE
  5
1D0
330
198
100
AcDbEntity
  8
DANCON
100
AcDbLine
 10
12.97421471931966
 20
12.52499999999963
 30
0.0
 11
12.97421471931966
 21
-12.52499999999963
 31
0.0
  0
LINE
  5
1D1
330
198
100
AcDbEntity
  8
DANCON
100
AcDbLine
 10
12.97421471931966
 20
-12.52499999999963
 30
0.0
 11
16.18061471931969
 21
-12.52499999999963
 31
0.0
  0
ARC
  5
1D2
330
198
100
AcDbEntity
  8
DANCON
100
AcDbCircle
 10
19.19079188672947
 20
7.802592063564588
 30
0.0
 40
3.010177167409811
100
AcDbArc
 50
120.0459147637288
 51
239.9540852362711
  0
LINE
  5
1D3
330
198
100
AcDbEntity
  8
DANCON
100
AcDbLine
 10
16.18061471931992
 20
7.802592063564588
 30
0.0
 11
16.18061471931992
 21
-7.802592063563679
 31
0.0
  0
ARC
  5
1D4
330
198
100
AcDbEntity
  8
DANCON
100
AcDbCircle
 10
25.91676690682027
 20
0.0
 30
0.0
 40
9.736152187499891
100
AcDbArc
 50
147.7391653073573
 51
212.2608346926426
  0
ARC
  5
1D5
330
198
100
AcDbEntity
  8
DANCON
100
AcDbCircle
 10
19.19079188673015
 20
-7.802592063563679
 30
0.0
 40
3.010177167409903
100
AcDbArc
 50
120.0459147637372
 51
239.9540852362711
  0
LINE
  5
1D6
330
198
100
AcDbEntity
  8
DANCON
100
AcDbLine
 10
12.97421471931966
 20
12.52499999999963
 30
0.0
 11
16.18061471931969
 21
12.52499999999963
 31
0.0
  0
LINE
  5
1D7
330
198
100
AcDbEntity
  8
DANCON
100
AcDbLine
 10
25.95011471932002
 20
-5.509000000000014
 30
0.0
 11
41.90217097724132
 21
-5.509000000000014
 31
0.0
  0
LINE
  5
1D8
330
198
100
AcDbEntity
  8
DANCON
100
AcDbLine
 10
25.95011471931991
 20
-4.509000000000014
 30
0.0
 11
42.90217097724132
 21
-4.509000000000014
 31
0.0
  0
LINE
  5
1D9
330
198
100
AcDbEntity
  8
DANCON
100
AcDbLine
 10
25.95011471931991
 20
5.509000000000014
 30
0.0
 11
41.90217097724143
 21
5.509000000000014
 31
0.0
  0
LINE
  5
1DA
330
198
100
AcDbEntity
  8
DANCON
100
AcDbLine
 10
25.95011471931991
 20
4.509000000000014
 30
0.0
 11
42.90217097724132
 21
4.509000000000014
 31
0.0
  0
ARC
  5
1DB
330
198
100
AcDbEntity
  8
DANCON
100
AcDbCircle
 10
22.93993755190956
 20
7.802592063563679
 30
0.0
 40
3.010177167410298
100
AcDbArc
 50
300.0459147637372
 51
59.95408523626838
  0
LINE
  5
1DC
330
198
100
AcDbEntity
  8
DANCON
100
AcDbLine
 10
25.95011471931991
 20
7.802592063563679
 30
0.0
 11
25.95011471931991
 21
-7.802592063563679
 31
0.0
  0
ARC
  5
1DD
330
198
100
AcDbEntity
  8
DANCON
100
AcDbCircle
 10
16.21396253182001
 20
0.0
 30
0.0
 40
9.736152187499891
100
AcDbArc
 50
327.7391653073573
 51
32.26083469264267
  0
ARC
  5
1DE
330
198
100
AcDbEntity
  8
DANCON
100
AcDbCircle
 10
22.93993755191013
 20
-7.802592063563679
 30
0.0
 40
3.010177167409903
100
AcDbArc
 50
300.0459147637288
 51
59.95408523626274
  0
LINE
  5
1DF
330
198
100
AcDbEntity
  8
DANCON
100
AcDbLine
 10
41.90217097724132
 20
5.509000000000014
 30
0.0
 11
41.90217097724132
 21
-5.509000000000014
 31
0.0
  0
LINE
  5
1E0
330
198
100
AcDbEntity
  8
DANCON
100
AcDbLine
 10
42.90217097724132
 20
4.509000000000014
 30
0.0
 11
42.90217097724132
 21
-4.509000000000014
 31
0.0
  0
LINE
  5
1E1
330
198
100
AcDbEntity
  8
DANCON
100
AcDbLine
 10
41.90217097724132
 20
-5.509000000000014
 30
0.0
 11
42.90217097724132
 21
-4.509000000000014
 31
0.0
  0
LINE
  5
1E2
330
198
100
AcDbEntity
  8
DANCON
100
AcDbLine
 10
41.90217097724132
 20
5.509000000000014
 30
0.0
 11
42.90217097724132
 21
4.509000000000014
 31
0.0
  0
ENDBLK
  5
1E4
330
198
100
AcDbEntity
  8
0
100
AcDbBlockEnd
  0
BLOCK
  5
2D8
330
230
100
AcDbEntity
  8
0
100
AcDbBlockBegin
  2
a_mdc_rsupport
 70
     0
 10
0.0
 20
0.0
 30
0.0
  3
a_mdc_rsupport
  1

  0
MTEXT
  5
2DB
330
230
100
AcDbEntity
  8
ANCON-TEXT
100
AcDbMText
 10
241.5902879999999
 20
105.830959
 30
0.0
 40
9.0
 41
507.73
 71
     1
 72
     5
  1
This system is suitable for cavities in the 50mm - 155mm range
  7
ROMANS
 73
     1
 44
1.0
  0
TEXT
  5
2DC
330
230
100
AcDbEntity
  8
ANCON-TEXT
100
AcDbText
 10
241.918158
 20
157.305577
 30
0.0
 40
9.0
  1
and carry 5.6 kilonewtons load per metre run.
  7
ROMANS
100
AcDbText
  0
TEXT
  5
2DD
330
230
100
AcDbEntity
  8
ANCON-TEXT
100
AcDbText
 10
241.918158
 20
171.8770059999999
 30
0.0
 40
9.0
  1
Ancon Building Products will design a system to suit a 75mm cavity
  7
ROMANS
100
AcDbText
  0
TEXT
  5
2DE
330
230
100
AcDbEntity
  8
ANCON-TEXT
100
AcDbText
 10
241.918158
 20
186.448434
 30
0.0
 40
9.0
  1
cavity width/load from masonry ie. MDC/R/75/5.6
  7
ROMANS
100
AcDbText
  0
TEXT
  5
2DF
330
230
100
AcDbEntity
  8
ANCON-TEXT
100
AcDbText
 10
241.918158
 20
201.019863
 30
0.0
 40
9.0
  1
Ancon MDC/R Systems can be specified by the
  7
ROMANS
100
AcDbText
  0
LINE
  5
2E0
330
230
100
AcDbEntity
  8
ANCON-SUPPORT
100
AcDbLine
 10
0.0256273998202232
 20
157.4373645025419
 30
0.0
 11
0.0256273998202232
 21
10.43736450254192
 31
0.0
  0
LINE
  5
2E1
330
230
100
AcDbEntity
  8
ANCON-SUPPORT
100
AcDbLine
 10
4.025627399820223
 20
157.4373645025419
 30
0.0
 11
4.025627399820223
 21
10.43736450254192
 31
0.0
  0
LINE
  5
2E2
330
230
100
AcDbEntity
  8
ANCON-SUPPORT
100
AcDbLine
 10
30.4657977385591
 20
107.4373645025429
 30
0.0
 11
30.4657977385591
 21
147.437364502543
 31
0.0
  0
LINE
  5
2E3
330
230
100
AcDbEntity
  8
ANCON-STRUC
100
AcDbLine
 10
0.0
 20
0.0
 30
0.0
 11
0.0
 21
365.0
 31
0.0
  0
ARC
  5
2E4
330
230
100
AcDbEntity
  8
ANCON-CHANNEL
100
AcDbCircle
 10
13.99135023241069
 20
112.6347724389793
 30
0.0
 40
3.010177167409903
100
AcDbArc
 50
300.0459147637286
 51
59.95408523626259
  0
ARC
  5
2E5
330
230
100
AcDbEntity
  8
ANCON-CHANNEL
100
AcDbCircle
 10
7.265375212320577
 20
120.4373645025429
 30
0.0
 40
9.736152187499891
100
AcDbArc
 50
327.739165307357
 51
32.26083469264298
  0
ARC
  5
2E6
330
230
100
AcDbEntity
  8
ANCON-CHANNEL
100
AcDbCircle
 10
13.99135023241012
 20
128.2399565661066
 30
0.0
 40
3.010177167410298
100
AcDbArc
 50
300.0459147637374
 51
59.95408523626844
  0
LINE
  5
2E7
330
230
100
AcDbEntity
  8
ANCON-SUPPORT
100
AcDbLine
 10
55.02562739982022
 20
10.43736450254192
 30
0.0
 11
0.0256273998202232
 21
10.43736450254192
 31
0.0
  0
LINE
  5
2E8
330
230
100
AcDbEntity
  8
ANCON-STRUC
100
AcDbLine
 10
0.0
 20
0.0
 30
0.0
 11
-150.0107129999999
 21
0.0
 31
0.0
  0
LINE
  5
2E9
330
230
100
AcDbEntity
  8
ANCON-CHANNEL
100
AcDbLine
 10
-83.54403618259629
 20
115.4373645025429
 30
0.0
 11
-13.5
 21
115.4373645025429
 31
0.0
  0
LINE
  5
2EA
330
230
100
AcDbEntity
  8
ANCON-CHANNEL
100
AcDbLine
 10
-13.5
 20
125.4373645025429
 30
0.0
 11
-83.54403618259629
 21
125.4373645025429
 31
0.0
  0
LINE
  5
2EB
330
230
100
AcDbEntity
  8
ANCON-CHANNEL
100
AcDbLine
 10
-71.48044734660107
 20
123.937364502543
 30
0.0
 11
-71.48044734660107
 21
116.9373645025429
 31
0.0
  0
LINE
  5
2EC
330
230
100
AcDbEntity
  8
ANCON-CHANNEL
100
AcDbLine
 10
-70.48044734660106
 20
122.937364502543
 30
0.0
 11
-70.48044734660106
 21
117.9373645025429
 31
0.0
  0
LINE
  5
2ED
330
230
100
AcDbEntity
  8
ANCON-CHANNEL
100
AcDbLine
 10
-72.48044734660107
 20
122.937364502543
 30
0.0
 11
-72.48044734660107
 21
117.9373645025429
 31
0.0
  0
LINE
  5
2EE
330
230
100
AcDbEntity
  8
ANCON-CHANNEL
100
AcDbLine
 10
-83.54403618259629
 20
125.4373645025429
 30
0.0
 11
-83.54403618259629
 21
115.4373645025429
 31
0.0
  0
LINE
  5
2EF
330
230
100
AcDbEntity
  8
ANCON-CHANNEL
100
AcDbLine
 10
-60.30000000000154
 20
123.937364502543
 30
0.0
 11
-60.30000000000154
 21
116.9373645025429
 31
0.0
  0
LINE
  5
2F0
330
230
100
AcDbEntity
  8
ANCON-CHANNEL
100
AcDbLine
 10
-59.30000000000155
 20
122.937364502543
 30
0.0
 11
-59.30000000000155
 21
117.9373645025429
 31
0.0
  0
LINE
  5
2F1
330
230
100
AcDbEntity
  8
ANCON-CHANNEL
100
AcDbLine
 10
-61.30000000000155
 20
122.937364502543
 30
0.0
 11
-61.30000000000155
 21
117.9373645025429
 31
0.0
  0
ARC
  5
2F2
330
230
100
AcDbEntity
  8
ANCON-CHANNEL
100
AcDbCircle
 10
10.24220456723071
 20
112.6347724389793
 30
0.0
 40
3.010177167409903
100
AcDbArc
 50
120.0459147637374
 51
239.9540852362713
  0
LINE
  5
2F3
330
230
100
AcDbEntity
  8
ANCON-CHANNEL
100
AcDbLine
 10
4.025627399820223
 20
132.9623645025426
 30
0.0
 11
4.025627399820223
 21
107.9123645025433
 31
0.0
  0
LINE
  5
2F4
330
230
100
AcDbEntity
  8
ANCON-CHANNEL
100
AcDbLine
 10
7.232027399820481
 20
132.9623645025426
 30
0.0
 11
7.232027399820253
 21
107.9123645025433
 31
0.0
  0
LINE
  5
2F5
330
230
100
AcDbEntity
  8
ANCON-CHANNEL
100
AcDbLine
 10
-2.5
 20
113.2273645025429
 30
0.0
 11
-2.5
 21
109.9373645025429
 31
0.0
  0
LINE
  5
2F6
330
230
100
AcDbEntity
  8
ANCON-CHANNEL
100
AcDbLine
 10
0.0
 20
113.2273645025429
 30
0.0
 11
0.0
 21
109.9373645025429
 31
0.0
  0
LINE
  5
2F7
330
230
100
AcDbEntity
  8
ANCON-CHANNEL
100
AcDbLine
 10
-16.2500422804992
 20
115.2793762140604
 30
0.0
 11
-4.750126841496694
 21
108.6383996370954
 31
0.0
  0
LINE
  5
2F8
330
230
100
AcDbEntity
  8
ANCON-CHANNEL
100
AcDbLine
 10
-17.50025368299338
 20
113.1144347716485
 30
0.0
 11
-6.000338243990881
 21
106.4734581946836
 31
0.0
  0
ARC
  5
2F9
330
230
100
AcDbEntity
  8
ANCON-CHANNEL
100
AcDbCircle
 10
-4.0
 20
109.9373645025429
 30
0.0
 40
4.0
100
AcDbArc
 50
239.9944053317297
 51
0.0
  0
ARC
  5
2FA
330
230
100
AcDbEntity
  8
ANCON-CHANNEL
100
AcDbCircle
 10
-4.0
 20
109.9373645025429
 30
0.0
 40
1.5
100
AcDbArc
 50
239.9944053317297
 51
0.0
  0
LINE
  5
2FB
330
230
100
AcDbEntity
  8
ANCON-CHANNEL
100
AcDbLine
 10
4.025627399820223
 20
107.9123645025433
 30
0.0
 11
7.232027399820253
 21
107.9123645025433
 31
0.0
  0
LINE
  5
2FC
330
230
100
AcDbEntity
  8
ANCON-CHANNEL
100
AcDbLine
 10
8.73502739982041
 20
110.0290895025432
 30
0.0
 11
15.49852739982043
 21
110.0290895025432
 31
0.0
  0
ARC
  5
2FD
330
230
100
AcDbEntity
  8
ANCON-CHANNEL
100
AcDbCircle
 10
-16.0
 20
125.1623645025433
 30
0.0
 40
3.0
100
AcDbArc
 50
120.0055946682702
 51
180.0
  0
LINE
  5
2FE
330
230
100
AcDbEntity
  8
ANCON-CHANNEL
100
AcDbLine
 10
-18.12726019059164
 20
125.4373645025429
 30
0.0
 11
-18.98244518579213
 21
125.4373645025429
 31
0.0
  0
ARC
  5
2FF
330
230
100
AcDbEntity
  8
ANCON-CHANNEL
100
AcDbCircle
 10
-16.0
 20
115.7123645025426
 30
0.0
 40
3.0
100
AcDbArc
 50
180.0
 51
239.9944053317297
  0
LINE
  5
300
330
230
100
AcDbEntity
  8
ANCON-CHANNEL
100
AcDbLine
 10
-18.12726019059164
 20
115.4373645025429
 30
0.0
 11
-18.98736924400054
 21
115.4373645025429
 31
0.0
  0
LINE
  5
301
330
230
100
AcDbEntity
  8
ANCON-CHANNEL
100
AcDbLine
 10
-38.72519003201796
 20
123.937364502543
 30
0.0
 11
-38.72519003201796
 21
116.9373645025429
 31
0.0
  0
LINE
  5
302
330
230
100
AcDbEntity
  8
ANCON-CHANNEL
100
AcDbLine
 10
-49.70000000000209
 20
123.937364502543
 30
0.0
 11
-49.70000000000209
 21
116.9373645025429
 31
0.0
  0
LINE
  5
303
330
230
100
AcDbEntity
  8
ANCON-CHANNEL
100
AcDbLine
 10
-39.72519003201796
 20
122.937364502543
 30
0.0
 11
-39.72519003201796
 21
117.9373645025429
 31
0.0
  0
LINE
  5
304
330
230
100
AcDbEntity
  8
ANCON-CHANNEL
100
AcDbLine
 10
-37.72519003201796
 20
122.937364502543
 30
0.0
 11
-37.72519003201796
 21
117.9373645025429
 31
0.0
  0
LINE
  5
305
330
230
100
AcDbEntity
  8
ANCON-CHANNEL
100
AcDbLine
 10
-48.70000000000209
 20
122.937364502543
 30
0.0
 11
-48.70000000000209
 21
117.9373645025429
 31
0.0
  0
LINE
  5
306
330
230
100
AcDbEntity
  8
ANCON-CHANNEL
100
AcDbLine
 10
-50.70000000000209
 20
122.937364502543
 30
0.0
 11
-50.70000000000209
 21
117.9373645025429
 31
0.0
  0
LINE
  5
307
330
230
100
AcDbEntity
  8
ANCON-CHANNEL
100
AcDbLine
 10
-19.0
 20
115.7123645025426
 30
0.0
 11
-19.0
 21
125.1623645025433
 31
0.0
  0
LINE
  5
308
330
230
100
AcDbEntity
  8
ANCON-CHANNEL
100
AcDbLine
 10
-28.95687423868776
 20
123.937364502543
 30
0.0
 11
-28.95687423868776
 21
116.9373645025429
 31
0.0
  0
LINE
  5
309
330
230
100
AcDbEntity
  8
ANCON-CHANNEL
100
AcDbLine
 10
-29.95687423868776
 20
122.937364502543
 30
0.0
 11
-29.95687423868776
 21
117.9373645025429
 31
0.0
  0
LINE
  5
30A
330
230
100
AcDbEntity
  8
ANCON-CHANNEL
100
AcDbLine
 10
-27.95687423868776
 20
122.937364502543
 30
0.0
 11
-27.95687423868776
 21
117.9373645025429
 31
0.0
  0
LINE
  5
30B
330
230
100
AcDbEntity
  8
ANCON-CHANNEL
100
AcDbLine
 10
-18.98736924400054
 20
115.4373645025429
 30
0.0
 11
-25.9924071751393
 21
115.4373645025429
 31
0.0
  0
LINE
  5
30C
330
230
100
AcDbEntity
  8
ANCON-CHANNEL
100
AcDbLine
 10
-18.98244518579213
 20
125.4373645025429
 30
0.0
 11
-24.7795359965603
 21
125.4373645025429
 31
0.0
  0
LINE
  5
30D
330
230
100
AcDbEntity
  8
ANCON-CHANNEL
100
AcDbLine
 10
7.232027399820481
 20
128.2399565661076
 30
0.0
 11
7.232027399820481
 21
112.6347724389793
 31
0.0
  0
ARC
  5
30E
330
230
100
AcDbEntity
  8
ANCON-CHANNEL
100
AcDbCircle
 10
10.24220456723003
 20
128.2399565661076
 30
0.0
 40
3.010177167409811
100
AcDbArc
 50
120.0459147637286
 51
239.9540852362713
  0
LINE
  5
30F
330
230
100
AcDbEntity
  8
ANCON-CHANNEL
100
AcDbLine
 10
0.0
 20
130.937364502543
 30
0.0
 11
0.0
 21
127.647364502543
 31
0.0
  0
LINE
  5
310
330
230
100
AcDbEntity
  8
ANCON-CHANNEL
100
AcDbLine
 10
-2.5
 20
130.937364502543
 30
0.0
 11
-2.5
 21
127.647364502543
 31
0.0
  0
LINE
  5
311
330
230
100
AcDbEntity
  8
ANCON-CHANNEL
100
AcDbLine
 10
-6.000338243990881
 20
134.4012708104023
 30
0.0
 11
-17.50025368299338
 21
127.7602942334374
 31
0.0
  0
LINE
  5
312
330
230
100
AcDbEntity
  8
ANCON-CHANNEL
100
AcDbLine
 10
-4.750126841496694
 20
132.2363293679905
 30
0.0
 11
-16.2500422804992
 21
125.5953527910255
 31
0.0
  0
LINE
  5
313
330
230
100
AcDbEntity
  8
ANCON-CHANNEL
100
AcDbLine
 10
-2.5
 20
113.2273645025429
 30
0.0
 11
0.0
 21
113.2273645025429
 31
0.0
  0
LINE
  5
314
330
230
100
AcDbEntity
  8
ANCON-CHANNEL
100
AcDbLine
 10
-2.5
 20
127.647364502543
 30
0.0
 11
0.0
 21
127.647364502543
 31
0.0
  0
LINE
  5
315
330
230
100
AcDbEntity
  8
ANCON-CHANNEL
100
AcDbLine
 10
-13.5
 20
115.4373645025429
 30
0.0
 11
-13.5
 21
125.4373645025429
 31
0.0
  0
LINE
  5
316
330
230
100
AcDbEntity
  8
ANCON-CHANNEL
100
AcDbLine
 10
-13.5
 20
115.4373645025429
 30
0.0
 11
-13.5
 21
125.4373645025429
 31
0.0
  0
LINE
  5
317
330
230
100
AcDbEntity
  8
ANCON-CHANNEL
100
AcDbLine
 10
-16.5
 20
115.7123645025426
 30
0.0
 11
-16.5
 21
125.1623645025433
 31
0.0
  0
LINE
  5
318
330
230
100
AcDbEntity
  8
ANCON-CHANNEL
100
AcDbLine
 10
-16.0
 20
125.4373645025429
 30
0.0
 11
-16.0
 21
115.4373645025429
 31
0.0
  0
ARC
  5
319
330
230
100
AcDbEntity
  8
ANCON-CHANNEL
100
AcDbCircle
 10
-16.0
 20
115.7123645025426
 30
0.0
 40
0.5
100
AcDbArc
 50
180.0
 51
239.9944053317297
  0
LINE
  5
31A
330
230
100
AcDbEntity
  8
ANCON-CHANNEL
100
AcDbLine
 10
-16.41758232721258
 20
115.4373645025429
 30
0.0
 11
-17.53296911004645
 21
115.4373645025429
 31
0.0
  0
LINE
  5
31B
330
230
100
AcDbEntity
  8
ANCON-CHANNEL
100
AcDbLine
 10
-13.5
 20
115.4373645025429
 30
0.0
 11
-16.41758232721258
 21
115.4373645025429
 31
0.0
  0
ARC
  5
31C
330
230
100
AcDbEntity
  8
ANCON-CHANNEL
100
AcDbCircle
 10
-16.0
 20
125.1623645025433
 30
0.0
 40
0.5
100
AcDbArc
 50
120.0055946682702
 51
180.0
  0
LINE
  5
31D
330
230
100
AcDbEntity
  8
ANCON-CHANNEL
100
AcDbLine
 10
-16.44115680106915
 20
125.4373645025429
 30
0.0
 11
-17.53296911004645
 21
125.4373645025429
 31
0.0
  0
LINE
  5
31E
330
230
100
AcDbEntity
  8
ANCON-CHANNEL
100
AcDbLine
 10
-13.5
 20
125.4373645025429
 30
0.0
 11
-16.44115680106915
 21
125.4373645025429
 31
0.0
  0
ARC
  5
31F
330
230
100
AcDbEntity
  8
ANCON-CHANNEL
100
AcDbCircle
 10
16.96817958732083
 20
120.4373645025429
 30
0.0
 40
9.736152187499891
100
AcDbArc
 50
147.739165307357
 51
212.2608346926429
  0
LINE
  5
320
330
230
100
AcDbEntity
  8
ANCON-CHANNEL
100
AcDbLine
 10
8.73502739982041
 20
115.2404553754154
 30
0.0
 11
15.49852739982088
 21
115.2404553754154
 31
0.0
  0
LINE
  5
321
330
230
100
AcDbEntity
  8
ANCON-CHANNEL
100
AcDbLine
 10
8.735027399819955
 20
125.6342736296705
 30
0.0
 11
15.49852739982066
 21
125.6342736296705
 31
0.0
  0
ARC
  5
322
330
230
100
AcDbEntity
  8
ANCON-CHANNEL
100
AcDbCircle
 10
-4.0
 20
130.937364502543
 30
0.0
 40
4.0
100
AcDbArc
 50
0.0
 51
120.0055946682702
  0
ARC
  5
323
330
230
100
AcDbEntity
  8
ANCON-CHANNEL
100
AcDbCircle
 10
-4.0
 20
130.937364502543
 30
0.0
 40
1.5
100
AcDbArc
 50
0.0
 51
120.0055946682702
  0
LINE
  5
324
330
230
100
AcDbEntity
  8
ANCON-CHANNEL
100
AcDbLine
 10
4.025627399820223
 20
132.9623645025426
 30
0.0
 11
7.232027399820253
 21
132.9623645025426
 31
0.0
  0
LINE
  5
325
330
230
100
AcDbEntity
  8
ANCON-CHANNEL
100
AcDbLine
 10
8.73502739982041
 20
130.8456395025436
 30
0.0
 11
15.49852739982111
 21
130.8456395025436
 31
0.0
  0
LINE
  5
326
330
230
100
AcDbEntity
  8
ANCON-MASONRY
100
AcDbLine
 10
177.5
 20
0.0
 30
0.0
 11
177.5
 21
65.0
 31
0.0
  0
LINE
  5
327
330
230
100
AcDbEntity
  8
ANCON-MASONRY
100
AcDbLine
 10
75.0
 20
0.0
 30
0.0
 11
75.0
 21
65.0
 31
0.0
  0
LINE
  5
328
330
230
100
AcDbEntity
  8
ANCON-MASONRY
100
AcDbLine
 10
75.0
 20
-10.0
 30
0.0
 11
177.5
 21
-10.0
 31
0.0
  0
LINE
  5
329
330
230
100
AcDbEntity
  8
ANCON-MASONRY
100
AcDbLine
 10
75.0
 20
0.0
 30
0.0
 11
177.5
 21
0.0
 31
0.0
  0
LINE
  5
32A
330
230
100
AcDbEntity
  8
ANCON-MASONRY
100
AcDbLine
 10
75.0
 20
-75.0
 30
0.0
 11
75.0
 21
-10.0
 31
0.0
  0
LINE
  5
32B
330
230
100
AcDbEntity
  8
ANCON-MASONRY
100
AcDbLine
 10
177.5
 20
-75.0
 30
0.0
 11
177.5
 21
-10.0
 31
0.0
  0
LINE
  5
32C
330
230
100
AcDbEntity
  8
ANCON-MASONRY
100
AcDbLine
 10
152.5
 20
75.0
 30
0.0
 11
177.5
 21
75.0
 31
0.0
  0
LINE
  5
32D
330
230
100
AcDbEntity
  8
ANCON-MASONRY
100
AcDbLine
 10
75.0
 20
140.0
 30
0.0
 11
177.5
 21
140.0
 31
0.0
  0
LINE
  5
32E
330
230
100
AcDbEntity
  8
ANCON-MASONRY
100
AcDbLine
 10
152.5
 20
75.0
 30
0.0
 11
177.5
 21
75.0
 31
0.0
  0
LINE
  5
32F
330
230
100
AcDbEntity
  8
ANCON-MASONRY
100
AcDbLine
 10
75.0
 20
65.0
 30
0.0
 11
177.5
 21
65.0
 31
0.0
  0
LINE
  5
330
330
230
100
AcDbEntity
  8
ANCON-SUPPORT
100
AcDbLine
 10
30.4657977385591
 20
107.4373645025429
 30
0.0
 11
55.02562739982022
 21
60.43736450254193
 31
0.0
  0
LINE
  5
331
330
230
100
AcDbEntity
  8
ANCON-MASONRY
100
AcDbLine
 10
152.5
 20
75.0
 30
0.0
 11
152.5
 21
90.0
 31
0.0
  0
ARC
  5
332
330
230
100
AcDbEntity
  8
ANCON-SUPPORT
100
AcDbCircle
 10
69.0
 20
67.0
 30
0.0
 40
14.0
100
AcDbArc
 50
90.0
 51
180.0
  0
ARC
  5
333
330
230
100
AcDbEntity
  8
ANCON-SUPPORT
100
AcDbCircle
 10
69.0
 20
67.0
 30
0.0
 40
8.0
100
AcDbArc
 50
90.0
 51
180.0
  0
LINE
  5
334
330
230
100
AcDbEntity
  8
ANCON-SUPPORT
100
AcDbLine
 10
145.0
 20
75.0
 30
0.0
 11
145.0
 21
81.0
 31
0.0
  0
LINE
  5
335
330
230
100
AcDbEntity
  8
ANCON-SUPPORT
100
AcDbLine
 10
69.0
 20
75.0
 30
0.0
 11
145.0
 21
75.0
 31
0.0
  0
LINE
  5
336
330
230
100
AcDbEntity
  8
ANCON-SUPPORT
100
AcDbLine
 10
55.02562739982022
 20
60.43736450254193
 30
0.0
 11
55.0
 21
11.0
 31
0.0
  0
LINE
  5
337
330
230
100
AcDbEntity
  8
ANCON-SUPPORT
100
AcDbLine
 10
61.0
 20
11.0
 30
0.0
 11
61.0
 21
67.0
 31
0.0
  0
LINE
  5
338
330
230
100
AcDbEntity
  8
ANCON-SUPPORT
100
AcDbLine
 10
55.0
 20
11.0
 30
0.0
 11
55.0
 21
67.0
 31
0.0
  0
LINE
  5
339
330
230
100
AcDbEntity
  8
ANCON-SUPPORT
100
AcDbLine
 10
55.0
 20
11.0
 30
0.0
 11
61.0
 21
11.0
 31
0.0
  0
LINE
  5
33A
330
230
100
AcDbEntity
  8
ANCON-MASONRY
100
AcDbLine
 10
75.0
 20
90.0
 30
0.0
 11
152.5
 21
90.0
 31
0.0
  0
LINE
  5
33B
330
230
100
AcDbEntity
  8
ANCON-SUPPORT
100
AcDbLine
 10
69.0
 20
81.0
 30
0.0
 11
145.0
 21
81.0
 31
0.0
  0
LINE
  5
33C
330
230
100
AcDbEntity
  8
ANCON-MASONRY
100
AcDbLine
 10
75.0
 20
90.0
 30
0.0
 11
75.0
 21
140.0
 31
0.0
  0
LINE
  5
33D
330
230
100
AcDbEntity
  8
ANCON-CHANNEL
100
AcDbLine
 10
17.00152739982047
 20
128.2399565661066
 30
0.0
 11
17.00152739982047
 21
112.6347724389793
 31
0.0
  0
LINE
  5
33E
330
230
100
AcDbEntity
  8
ANCON-CHANNEL
100
AcDbLine
 10
26.92766002240603
 20
124.946364502543
 30
0.0
 11
26.92766002240603
 21
115.9283645025429
 31
0.0
  0
LINE
  5
33F
330
230
100
AcDbEntity
  8
ANCON-CHANNEL
100
AcDbLine
 10
25.92766002240603
 20
125.946364502543
 30
0.0
 11
25.92766002240603
 21
114.9283645025429
 31
0.0
  0
LINE
  5
340
330
230
100
AcDbEntity
  8
ANCON-CHANNEL
100
AcDbLine
 10
17.00152739982047
 20
115.9283645025429
 30
0.0
 11
26.92766002240603
 21
115.9283645025429
 31
0.0
  0
LINE
  5
341
330
230
100
AcDbEntity
  8
ANCON-CHANNEL
100
AcDbLine
 10
17.00152739982058
 20
114.9283645025429
 30
0.0
 11
25.92766002240603
 21
114.9283645025429
 31
0.0
  0
LINE
  5
342
330
230
100
AcDbEntity
  8
ANCON-CHANNEL
100
AcDbLine
 10
25.92766002240603
 20
114.9283645025429
 30
0.0
 11
26.92766002240603
 21
115.9283645025429
 31
0.0
  0
LINE
  5
343
330
230
100
AcDbEntity
  8
ANCON-CHANNEL
100
AcDbLine
 10
17.00152739982047
 20
124.946364502543
 30
0.0
 11
26.92766002240603
 21
124.946364502543
 31
0.0
  0
LINE
  5
344
330
230
100
AcDbEntity
  8
ANCON-CHANNEL
100
AcDbLine
 10
17.00152739982047
 20
125.946364502543
 30
0.0
 11
25.92766002240614
 21
125.946364502543
 31
0.0
  0
LINE
  5
345
330
230
100
AcDbEntity
  8
ANCON-CHANNEL
100
AcDbLine
 10
25.92766002240603
 20
125.946364502543
 30
0.0
 11
26.92766002240603
 21
124.946364502543
 31
0.0
  0
LINE
  5
346
330
230
100
AcDbEntity
  8
ANCON-MASONRY
100
AcDbLine
 10
177.5
 20
75.0
 30
0.0
 11
177.5
 21
140.0
 31
0.0
  0
LINE
  5
347
330
230
100
AcDbEntity
  8
ANCON-SUPPORT
100
AcDbLine
 10
20.4657977385591
 20
157.4373645025429
 30
0.0
 11
0.0256273998202232
 21
157.4373645025429
 31
0.0
  0
LINE
  5
348
330
230
100
AcDbEntity
  8
ANCON-TIE
100
AcDbLine
 10
35.0
 20
293.75
 30
0.0
 11
0.0
 21
293.75
 31
0.0
  0
LINE
  5
349
330
230
100
AcDbEntity
  8
ANCON-TIE
100
AcDbLine
 10
35.0
 20
296.25
 30
0.0
 11
0.0
 21
296.25
 31
0.0
  0
LINE
  5
34A
330
230
100
AcDbEntity
  8
ANCON-CHANNEL
100
AcDbLine
 10
-11.0
 20
345.0
 30
0.0
 11
-11.0
 21
245.0
 31
0.0
  0
LINE
  5
34B
330
230
100
AcDbEntity
  8
ANCON-CHANNEL
100
AcDbLine
 10
0.0
 20
345.0
 30
0.0
 11
0.0
 21
245.0
 31
0.0
  0
LINE
  5
34C
330
230
100
AcDbEntity
  8
ANCON-CHANNEL
100
AcDbLine
 10
-18.0
 20
345.0
 30
0.0
 11
-18.0
 21
245.0
 31
0.0
  0
LINE
  5
34D
330
230
100
AcDbEntity
  8
ANCON-CHANNEL
100
AcDbLine
 10
0.0
 20
245.0
 30
0.0
 11
-18.0
 21
245.0
 31
0.0
  0
LINE
  5
34E
330
230
100
AcDbEntity
  8
ANCON-CHANNEL
100
AcDbLine
 10
0.0
 20
345.0
 30
0.0
 11
-18.0
 21
345.0
 31
0.0
  0
LINE
  5
34F
330
230
100
AcDbEntity
  8
ANCON-MASONRY
100
AcDbLine
 10
177.5
 20
225.0
 30
0.0
 11
177.5
 21
290.0
 31
0.0
  0
LINE
  5
350
330
230
100
AcDbEntity
  8
ANCON-MASONRY
100
AcDbLine
 10
75.0
 20
225.0
 30
0.0
 11
75.0
 21
290.0
 31
0.0
  0
LINE
  5
351
330
230
100
AcDbEntity
  8
ANCON-MASONRY
100
AcDbLine
 10
75.0
 20
225.0
 30
0.0
 11
177.5
 21
225.0
 31
0.0
  0
LINE
  5
352
330
230
100
AcDbEntity
  8
ANCON-MASONRY
100
AcDbLine
 10
75.0
 20
150.0
 30
0.0
 11
177.5
 21
150.0
 31
0.0
  0
LINE
  5
353
330
230
100
AcDbEntity
  8
ANCON-MASONRY
100
AcDbLine
 10
75.0
 20
215.0
 30
0.0
 11
177.5
 21
215.0
 31
0.0
  0
LINE
  5
354
330
230
100
AcDbEntity
  8
ANCON-MASONRY
100
AcDbLine
 10
75.0
 20
150.0
 30
0.0
 11
75.0
 21
215.0
 31
0.0
  0
ARC
  5
355
330
230
100
AcDbEntity
  8
ANCON-SUPPORT
100
AcDbCircle
 10
20.4657977385591
 20
147.437364502543
 30
0.0
 40
10.0
100
AcDbArc
 50
0.0
 51
90.0
  0
LINE
  5
356
330
230
100
AcDbEntity
  8
ANCON-MASONRY
100
AcDbLine
 10
177.5
 20
150.0
 30
0.0
 11
177.5
 21
215.0
 31
0.0
  0
LINE
  5
357
330
230
100
AcDbEntity
  8
ANCON-MASONRY
100
AcDbLine
 10
75.0
 20
300.0
 30
0.0
 11
177.5
 21
300.0
 31
0.0
  0
LINE
  5
358
330
230
100
AcDbEntity
  8
ANCON-MASONRY
100
AcDbLine
 10
75.0
 20
290.0
 30
0.0
 11
177.5
 21
290.0
 31
0.0
  0
LINE
  5
359
330
230
100
AcDbEntity
  8
ANCON-MASONRY
100
AcDbLine
 10
75.0
 20
300.0
 30
0.0
 11
75.0
 21
365.0
 31
0.0
  0
LINE
  5
35A
330
230
100
AcDbEntity
  8
ANCON-TIE
100
AcDbLine
 10
140.0
 20
293.75
 30
0.0
 11
65.0
 21
293.75
 31
0.0
  0
LINE
  5
35B
330
230
100
AcDbEntity
  8
ANCON-TIE
100
AcDbLine
 10
140.0
 20
296.25
 30
0.0
 11
65.0
 21
296.25
 31
0.0
  0
LINE
  5
35C
330
230
100
AcDbEntity
  8
ANCON-TIE
100
AcDbLine
 10
50.0
 20
289.7499999999999
 30
0.0
 11
65.0
 21
293.75
 31
0.0
  0
LINE
  5
35D
330
230
100
AcDbEntity
  8
ANCON-TIE
100
AcDbLine
 10
50.0
 20
292.2499999999999
 30
0.0
 11
65.0
 21
296.25
 31
0.0
  0
LINE
  5
35E
330
230
100
AcDbEntity
  8
ANCON-TIE
100
AcDbLine
 10
35.0
 20
293.75
 30
0.0
 11
50.0
 21
289.7499999999999
 31
0.0
  0
LINE
  5
35F
330
230
100
AcDbEntity
  8
ANCON-TIE
100
AcDbLine
 10
35.0
 20
296.25
 30
0.0
 11
50.0
 21
292.2499999999999
 31
0.0
  0
LINE
  5
360
330
230
100
AcDbEntity
  8
ANCON-TIE
100
AcDbLine
 10
140.0
 20
296.25
 30
0.0
 11
140.0
 21
293.75
 31
0.0
  0
LINE
  5
361
330
230
100
AcDbEntity
  8
ANCON-MASONRY
100
AcDbLine
 10
177.5
 20
300.0
 30
0.0
 11
177.5
 21
365.0
 31
0.0
  0
ENDBLK
  5
2D9
330
230
100
AcDbEntity
  8
0
100
AcDbBlockEnd
  0
ENDSEC
  0
SECTION
  2
ENTITIES
  0
LINE
  5
97
330
17
100
AcDbEntity
  8
ANCON-STRUC
100
AcDbLine
 10
0.0
 20
0.0
 30
0.0
 11
0.0
 21
365.0
 31
0.0
  0
LINE
  5
98
330
17
100
AcDbEntity
  8
ANCON-STRUC
100
AcDbLine
 10
0.0
 20
0.0
 30
0.0
 11
-150.0107129999999
 21
0.0
 31
0.0
  0
LINE
  5
99
330
17
100
AcDbEntity
  8
ANCON-MASONRY
100
AcDbLine
 10
75.0
 20
0.0
 30
0.0
 11
75.0
 21
65.0
 31
0.0
  0
LINE
  5
9A
330
17
100
AcDbEntity
  8
ANCON-MASONRY
100
AcDbLine
 10
177.5
 20
0.0
 30
0.0
 11
177.5
 21
65.0
 31
0.0
  0
LINE
  5
9B
330
17
100
AcDbEntity
  8
ANCON-MASONRY
100
AcDbLine
 10
75.0
 20
0.0
 30
0.0
 11
177.5
 21
0.0
 31
0.0
  0
LINE
  5
9C
330
17
100
AcDbEntity
  8
ANCON-MASONRY
100
AcDbLine
 10
75.0
 20
65.0
 30
0.0
 11
177.5
 21
65.0
 31
0.0
  0
LINE
  5
9D
330
17
100
AcDbEntity
  8
ANCON-MASONRY
100
AcDbLine
 10
152.5
 20
75.0
 30
0.0
 11
177.5
 21
75.0
 31
0.0
  0
LINE
  5
9E
330
17
100
AcDbEntity
  8
ANCON-MASONRY
100
AcDbLine
 10
75.0
 20
140.0
 30
0.0
 11
177.5
 21
140.0
 31
0.0
  0
LINE
  5
9F
330
17
100
AcDbEntity
  8
ANCON-MASONRY
100
AcDbLine
 10
75.0
 20
90.0
 30
0.0
 11
75.0
 21
140.0
 31
0.0
  0
LINE
  5
A0
330
17
100
AcDbEntity
  8
ANCON-MASONRY
100
AcDbLine
 10
177.5
 20
75.0
 30
0.0
 11
177.5
 21
140.0
 31
0.0
  0
LINE
  5
A1
330
17
100
AcDbEntity
  8
ANCON-MASONRY
100
AcDbLine
 10
75.0
 20
215.0
 30
0.0
 11
177.5
 21
215.0
 31
0.0
  0
LINE
  5
A2
330
17
100
AcDbEntity
  8
ANCON-MASONRY
100
AcDbLine
 10
75.0
 20
150.0
 30
0.0
 11
177.5
 21
150.0
 31
0.0
  0
LINE
  5
A3
330
17
100
AcDbEntity
  8
ANCON-MASONRY
100
AcDbLine
 10
75.0
 20
150.0
 30
0.0
 11
75.0
 21
215.0
 31
0.0
  0
LINE
  5
A4
330
17
100
AcDbEntity
  8
ANCON-MASONRY
100
AcDbLine
 10
177.5
 20
150.0
 30
0.0
 11
177.5
 21
215.0
 31
0.0
  0
LINE
  5
A5
330
17
100
AcDbEntity
  8
ANCON-MASONRY
100
AcDbLine
 10
75.0
 20
290.0
 30
0.0
 11
177.5
 21
290.0
 31
0.0
  0
LINE
  5
A6
330
17
100
AcDbEntity
  8
ANCON-MASONRY
100
AcDbLine
 10
75.0
 20
225.0
 30
0.0
 11
177.5
 21
225.0
 31
0.0
  0
LINE
  5
A7
330
17
100
AcDbEntity
  8
ANCON-MASONRY
100
AcDbLine
 10
75.0
 20
225.0
 30
0.0
 11
75.0
 21
290.0
 31
0.0
  0
LINE
  5
A8
330
17
100
AcDbEntity
  8
ANCON-MASONRY
100
AcDbLine
 10
177.5
 20
225.0
 30
0.0
 11
177.5
 21
290.0
 31
0.0
  0
LINE
  5
AF
330
17
100
AcDbEntity
  8
ANCON-SUPPORT
100
AcDbLine
 10
55.0
 20
11.0
 30
0.0
 11
55.0
 21
67.0
 31
0.0
  0
LINE
  5
B0
330
17
100
AcDbEntity
  8
ANCON-SUPPORT
100
AcDbLine
 10
69.0
 20
81.0
 30
0.0
 11
145.0
 21
81.0
 31
0.0
  0
LINE
  5
B1
330
17
100
AcDbEntity
  8
ANCON-SUPPORT
100
AcDbLine
 10
61.0
 20
11.0
 30
0.0
 11
61.0
 21
67.0
 31
0.0
  0
LINE
  5
B2
330
17
100
AcDbEntity
  8
ANCON-SUPPORT
100
AcDbLine
 10
69.0
 20
75.0
 30
0.0
 11
145.0
 21
75.0
 31
0.0
  0
LINE
  5
B3
330
17
100
AcDbEntity
  8
ANCON-SUPPORT
100
AcDbLine
 10
55.0
 20
11.0
 30
0.0
 11
61.0
 21
11.0
 31
0.0
  0
LINE
  5
B4
330
17
100
AcDbEntity
  8
ANCON-SUPPORT
100
AcDbLine
 10
145.0
 20
75.0
 30
0.0
 11
145.0
 21
81.0
 31
0.0
  0
ARC
  5
B5
330
17
100
AcDbEntity
  8
ANCON-SUPPORT
100
AcDbCircle
 10
69.0
 20
67.0
 30
0.0
 40
8.0
100
AcDbArc
 50
90.0
 51
180.0
  0
ARC
  5
B6
330
17
100
AcDbEntity
  8
ANCON-SUPPORT
100
AcDbCircle
 10
69.0
 20
67.0
 30
0.0
 40
14.0
100
AcDbArc
 50
90.0
 51
180.0
  0
LINE
  5
B7
330
17
100
AcDbEntity
  8
ANCON-MASONRY
100
AcDbLine
 10
75.0
 20
-10.0
 30
0.0
 11
177.5
 21
-10.0
 31
0.0
  0
LINE
  5
B8
330
17
100
AcDbEntity
  8
ANCON-MASONRY
100
AcDbLine
 10
75.0
 20
-75.0
 30
0.0
 11
75.0
 21
-10.0
 31
0.0
  0
LINE
  5
B9
330
17
100
AcDbEntity
  8
ANCON-MASONRY
100
AcDbLine
 10
177.5
 20
-75.0
 30
0.0
 11
177.5
 21
-10.0
 31
0.0
  0
TEXT
  5
BA
330
17
100
AcDbEntity
  8
ANCON-TEXT
100
AcDbText
 10
-388.353881
 20
114.7642759999999
 30
0.0
 40
9.0
  1

  7
ROMANS
100
AcDbText
  0
TEXT
  5
BB
330
17
100
AcDbEntity
  8
ANCON-TEXT
100
AcDbText
 10
-388.353881
 20
100.407172
 30
0.0
 40
9.0
  1

  7
ROMANS
100
AcDbText
  0
LINE
  5
120
330
17
100
AcDbEntity
  8
ANCON-MASONRY
100
AcDbLine
 10
75.0
 20
300.0
 30
0.0
 11
177.5
 21
300.0
 31
0.0
  0
LINE
  5
121
330
17
100
AcDbEntity
  8
ANCON-MASONRY
100
AcDbLine
 10
75.0
 20
300.0
 30
0.0
 11
75.0
 21
365.0
 31
0.0
  0
LINE
  5
122
330
17
100
AcDbEntity
  8
ANCON-MASONRY
100
AcDbLine
 10
177.5
 20
300.0
 30
0.0
 11
177.5
 21
365.0
 31
0.0
  0
LINE
  5
123
330
17
100
AcDbEntity
  8
ANCON-CHANNEL
100
AcDbLine
 10
0.0
 20
245.0
 30
0.0
 11
-18.0
 21
245.0
 31
0.0
  0
LINE
  5
124
330
17
100
AcDbEntity
  8
ANCON-CHANNEL
100
AcDbLine
 10
0.0
 20
345.0
 30
0.0
 11
-18.0
 21
345.0
 31
0.0
  0
LINE
  5
125
330
17
100
AcDbEntity
  8
ANCON-CHANNEL
100
AcDbLine
 10
-18.0
 20
345.0
 30
0.0
 11
-18.0
 21
245.0
 31
0.0
  0
LINE
  5
126
330
17
100
AcDbEntity
  8
ANCON-CHANNEL
100
AcDbLine
 10
0.0
 20
345.0
 30
0.0
 11
0.0
 21
245.0
 31
0.0
  0
LINE
  5
127
330
17
100
AcDbEntity
  8
ANCON-CHANNEL
100
AcDbLine
 10
-11.0
 20
345.0
 30
0.0
 11
-11.0
 21
245.0
 31
0.0
  0
LINE
  5
128
330
17
100
AcDbEntity
  8
ANCON-TIE
100
AcDbLine
 10
140.0
 20
296.25
 30
0.0
 11
65.0
 21
296.25
 31
0.0
  0
LINE
  5
129
330
17
100
AcDbEntity
  8
ANCON-TIE
100
AcDbLine
 10
140.0
 20
293.75
 30
0.0
 11
65.0
 21
293.75
 31
0.0
  0
LINE
  5
12A
330
17
100
AcDbEntity
  8
ANCON-TIE
100
AcDbLine
 10
140.0
 20
296.25
 30
0.0
 11
140.0
 21
293.75
 31
0.0
  0
LINE
  5
12B
330
17
100
AcDbEntity
  8
ANCON-TIE
100
AcDbLine
 10
35.0
 20
296.25
 30
0.0
 11
0.0
 21
296.25
 31
0.0
  0
LINE
  5
12C
330
17
100
AcDbEntity
  8
ANCON-TIE
100
AcDbLine
 10
35.0
 20
293.75
 30
0.0
 11
0.0
 21
293.75
 31
0.0
  0
LINE
  5
12D
330
17
100
AcDbEntity
  8
ANCON-TIE
100
AcDbLine
 10
35.0
 20
296.25
 30
0.0
 11
50.0
 21
292.2499999999999
 31
0.0
  0
LINE
  5
12E
330
17
100
AcDbEntity
  8
ANCON-TIE
100
AcDbLine
 10
50.0
 20
292.2499999999999
 30
0.0
 11
65.0
 21
296.25
 31
0.0
  0
LINE
  5
12F
330
17
100
AcDbEntity
  8
ANCON-TIE
100
AcDbLine
 10
50.0
 20
289.7499999999999
 30
0.0
 11
65.0
 21
293.75
 31
0.0
  0
LINE
  5
130
330
17
100
AcDbEntity
  8
ANCON-TIE
100
AcDbLine
 10
35.0
 20
293.75
 30
0.0
 11
50.0
 21
289.7499999999999
 31
0.0
  0
TEXT
  5
131
330
17
100
AcDbEntity
  8
GENTEXT
100
AcDbText
 10
787.8674599999999
 20
408.490406
 30
0.0
 40
9.0
  1

  7
ROMANS
100
AcDbText
  0
TEXT
  5
132
330
17
100
AcDbEntity
  8
ANCON-TEXT
100
AcDbText
 10
146.4484969999999
 20
5.913549999999999
 30
0.0
 40
9.0
  1

  7
ROMANS
100
AcDbText
  0
TEXT
  5
133
330
17
100
AcDbEntity
  8
ANCON-TEXT
100
AcDbText
 10
146.4484969999999
 20
-8.443552999999999
 30
0.0
 40
9.0
  1

  7
ROMANS
100
AcDbText
  0
TEXT
  5
157
330
17
100
AcDbEntity
  8
ANCON-TEXT
100
AcDbText
 10
305.784133
 20
-233.604074
 30
0.0
 40
9.0
  1

  7
ROMANS
100
AcDbText
  0
TEXT
  5
15F
330
17
100
AcDbEntity
  8
ANCON-TEXT
100
AcDbText
 10
305.784133
 20
-174.789879
 30
0.0
 40
9.0
  1

  7
ROMANS
100
AcDbText
  0
TEXT
  5
160
330
17
100
AcDbEntity
  8
ANCON-TEXT
100
AcDbText
 10
241.918158
 20
201.019863
 30
0.0
 40
9.0
  1
Ancon MDC/R Systems can be specified by the
  7
ROMANS
100
AcDbText
  0
TEXT
  5
161
330
17
100
AcDbEntity
  8
ANCON-TEXT
100
AcDbText
 10
241.918158
 20
186.448434
 30
0.0
 40
9.0
  1
cavity width/load from masonry ie. MDC/R/75/5.6
  7
ROMANS
100
AcDbText
  0
TEXT
  5
162
330
17
100
AcDbEntity
  8
ANCON-TEXT
100
AcDbText
 10
241.918158
 20
171.8770059999999
 30
0.0
 40
9.0
  1
Ancon Building Products will design a system to suit a 75mm cavity
  7
ROMANS
100
AcDbText
  0
TEXT
  5
163
330
17
100
AcDbEntity
  8
ANCON-TEXT
100
AcDbText
 10
241.918158
 20
157.305577
 30
0.0
 40
9.0
  1
and carry 5.6 kilonewtons load per metre run.
  7
ROMANS
100
AcDbText
  0
LINE
  5
164
330
17
100
AcDbEntity
  8
ANCON-MASONRY
100
AcDbLine
 10
75.0
 20
90.0
 30
0.0
 11
152.5
 21
90.0
 31
0.0
  0
LINE
  5
165
330
17
100
AcDbEntity
  8
ANCON-MASONRY
100
AcDbLine
 10
152.5
 20
75.0
 30
0.0
 11
152.5
 21
90.0
 31
0.0
  0
LINE
  5
166
330
17
100
AcDbEntity
  8
ANCON-MASONRY
100
AcDbLine
 10
152.5
 20
75.0
 30
0.0
 11
177.5
 21
75.0
 31
0.0
  0
MTEXT
  5
16A
330
17
100
AcDbEntity
  8
ANCON-TEXT
100
AcDbMText
 10
241.5902879999999
 20
105.830959
 30
0.0
 40
9.0
 41
507.73
 71
     1
 72
     5
  1
This system is suitable for cavities in the 50mm - 155mm range
  7
ROMANS
 73
     1
 44
1.0
  0
LINE
  5
189
330
17
100
AcDbEntity
  8
ANCON-SUPPORT
100
AcDbLine
 10
4.0
 20
158.0
 30
0.0
 11
4.0
 21
11.0
 31
0.0
  0
ARC
  5
18A
330
17
100
AcDbEntity
  8
ANCON-SUPPORT
100
AcDbCircle
 10
20.44017033873888
 20
148.000000000001
 30
0.0
 40
10.0
100
AcDbArc
 50
0.0
 51
90.0
  0
LINE
  5
18B
330
17
100
AcDbEntity
  8
ANCON-SUPPORT
100
AcDbLine
 10
30.44017033873888
 20
108.000000000001
 30
0.0
 11
30.44017033873888
 21
148.000000000001
 31
0.0
  0
LINE
  5
18C
330
17
100
AcDbEntity
  8
ANCON-SUPPORT
100
AcDbLine
 10
20.44017033873888
 20
158.000000000001
 30
0.0
 11
0.0
 21
158.000000000001
 31
0.0
  0
LINE
  5
18D
330
17
100
AcDbEntity
  8
ANCON-SUPPORT
100
AcDbLine
 10
0.0
 20
158.0
 30
0.0
 11
0.0
 21
11.0
 31
0.0
  0
LINE
  5
18E
330
17
100
AcDbEntity
  8
ANCON-SUPPORT
100
AcDbLine
 10
55.0
 20
11.0
 30
0.0
 11
0.0
 21
11.0
 31
0.0
  0
LINE
  5
18F
330
17
100
AcDbEntity
  8
ANCON-SUPPORT
100
AcDbLine
 10
30.44017033873888
 20
108.000000000001
 30
0.0
 11
55.0
 21
61.0
 31
0.0
  0
LINE
  5
190
330
17
100
AcDbEntity
  8
ANCON-SUPPORT
100
AcDbLine
 10
55.02562739982022
 20
60.43736450254193
 30
0.0
 11
55.0
 21
11.0
 31
0.0
  0
LINE
  5
1E6
330
17
100
AcDbEntity
  8
ANCON-CHANNEL
100
AcDbLine
 10
-13.52562739982022
 20
126.000000000001
 30
0.0
 11
-83.56966358241653
 21
126.000000000001
 31
0.0
  0
LINE
  5
1E7
330
17
100
AcDbEntity
  8
ANCON-CHANNEL
100
AcDbLine
 10
-4.775754241316917
 20
132.7989648654485
 30
0.0
 11
-16.27566968031942
 21
126.1579882884836
 31
0.0
  0
LINE
  5
1E8
330
17
100
AcDbEntity
  8
ANCON-CHANNEL
100
AcDbLine
 10
-6.025965643811105
 20
134.9639063078604
 30
0.0
 11
-17.52588108281361
 21
128.3229297308955
 31
0.0
  0
LINE
  5
1E9
330
17
100
AcDbEntity
  8
ANCON-CHANNEL
100
AcDbLine
 10
-13.52562739982022
 20
126.000000000001
 30
0.0
 11
-16.46678420088937
 21
126.000000000001
 31
0.0
  0
LINE
  5
1EA
330
17
100
AcDbEntity
  8
ANCON-CHANNEL
100
AcDbLine
 10
-16.46678420088937
 20
126.000000000001
 30
0.0
 11
-17.55859650986667
 21
126.000000000001
 31
0.0
  0
ARC
  5
1EB
330
17
100
AcDbEntity
  8
ANCON-CHANNEL
100
AcDbCircle
 10
-16.02562739982022
 20
125.7250000000014
 30
0.0
 40
0.5
100
AcDbArc
 50
120.0055946682702
 51
180.0
  0
ARC
  5
1EC
330
17
100
AcDbEntity
  8
ANCON-CHANNEL
100
AcDbCircle
 10
-4.025627399820223
 20
131.500000000001
 30
0.0
 40
1.5
100
AcDbArc
 50
0.0
 51
120.0055946682702
  0
ARC
  5
1ED
330
17
100
AcDbEntity
  8
ANCON-CHANNEL
100
AcDbCircle
 10
-4.025627399820223
 20
131.500000000001
 30
0.0
 40
4.0
100
AcDbArc
 50
0.0
 51
120.0055946682702
  0
LINE
  5
1EE
330
17
100
AcDbEntity
  8
ANCON-CHANNEL
100
AcDbLine
 10
-2.525627399820223
 20
128.2100000000011
 30
0.0
 11
-0.0256273998202232
 21
128.2100000000011
 31
0.0
  0
LINE
  5
1EF
330
17
100
AcDbEntity
  8
ANCON-CHANNEL
100
AcDbLine
 10
-2.525627399820223
 20
131.500000000001
 30
0.0
 11
-2.525627399820223
 21
128.2100000000011
 31
0.0
  0
LINE
  5
1F0
330
17
100
AcDbEntity
  8
ANCON-CHANNEL
100
AcDbLine
 10
-0.0256273998202232
 20
131.500000000001
 30
0.0
 11
-0.0256273998202232
 21
128.2100000000011
 31
0.0
  0
ARC
  5
1F1
330
17
100
AcDbEntity
  8
ANCON-CHANNEL
100
AcDbCircle
 10
-4.025627399820223
 20
110.500000000001
 30
0.0
 40
1.5
100
AcDbArc
 50
239.9944053317297
 51
0.0
  0
LINE
  5
1F2
330
17
100
AcDbEntity
  8
ANCON-CHANNEL
100
AcDbLine
 10
-17.52588108281361
 20
113.6770702691066
 30
0.0
 11
-6.025965643811105
 21
107.0360936921417
 31
0.0
  0
ARC
  5
1F3
330
17
100
AcDbEntity
  8
ANCON-CHANNEL
100
AcDbCircle
 10
-4.025627399820223
 20
110.500000000001
 30
0.0
 40
4.0
100
AcDbArc
 50
239.9944053317297
 51
0.0
  0
LINE
  5
1F4
330
17
100
AcDbEntity
  8
ANCON-CHANNEL
100
AcDbLine
 10
-16.27566968031942
 20
115.8420117115185
 30
0.0
 11
-4.775754241316917
 21
109.2010351345535
 31
0.0
  0
LINE
  5
1F5
330
17
100
AcDbEntity
  8
ANCON-CHANNEL
100
AcDbLine
 10
-13.52562739982022
 20
116.000000000001
 30
0.0
 11
-16.44320972703281
 21
116.000000000001
 31
0.0
  0
LINE
  5
1F6
330
17
100
AcDbEntity
  8
ANCON-CHANNEL
100
AcDbLine
 10
-16.44320972703281
 20
116.000000000001
 30
0.0
 11
-17.55859650986667
 21
116.000000000001
 31
0.0
  0
ARC
  5
1F7
330
17
100
AcDbEntity
  8
ANCON-CHANNEL
100
AcDbCircle
 10
-16.02562739982022
 20
116.2750000000007
 30
0.0
 40
0.5
100
AcDbArc
 50
180.0
 51
239.9944053317297
  0
LINE
  5
1F8
330
17
100
AcDbEntity
  8
ANCON-CHANNEL
100
AcDbLine
 10
-18.15288759041186
 20
116.000000000001
 30
0.0
 11
-19.01299664382077
 21
116.000000000001
 31
0.0
  0
ARC
  5
1F9
330
17
100
AcDbEntity
  8
ANCON-CHANNEL
100
AcDbCircle
 10
-16.02562739982022
 20
116.2750000000007
 30
0.0
 40
3.0
100
AcDbArc
 50
180.0
 51
239.9944053317297
  0
LINE
  5
1FA
330
17
100
AcDbEntity
  8
ANCON-CHANNEL
100
AcDbLine
 10
-2.525627399820223
 20
113.790000000001
 30
0.0
 11
-0.0256273998202232
 21
113.790000000001
 31
0.0
  0
LINE
  5
1FB
330
17
100
AcDbEntity
  8
ANCON-CHANNEL
100
AcDbLine
 10
-0.0256273998202232
 20
113.790000000001
 30
0.0
 11
-0.0256273998202232
 21
110.500000000001
 31
0.0
  0
LINE
  5
1FC
330
17
100
AcDbEntity
  8
ANCON-CHANNEL
100
AcDbLine
 10
-2.525627399820223
 20
113.790000000001
 30
0.0
 11
-2.525627399820223
 21
110.500000000001
 31
0.0
  0
LINE
  5
1FD
330
17
100
AcDbEntity
  8
ANCON-CHANNEL
100
AcDbLine
 10
-83.56966358241653
 20
116.000000000001
 30
0.0
 11
-13.52562739982022
 21
116.000000000001
 31
0.0
  0
LINE
  5
1FE
330
17
100
AcDbEntity
  8
ANCON-CHANNEL
100
AcDbLine
 10
-83.56966358241653
 20
126.000000000001
 30
0.0
 11
-83.56966358241653
 21
116.000000000001
 31
0.0
  0
LINE
  5
1FF
330
17
100
AcDbEntity
  8
ANCON-CHANNEL
100
AcDbLine
 10
-72.50607474642129
 20
123.500000000001
 30
0.0
 11
-72.50607474642129
 21
118.500000000001
 31
0.0
  0
LINE
  5
200
330
17
100
AcDbEntity
  8
ANCON-CHANNEL
100
AcDbLine
 10
-70.50607474642129
 20
123.500000000001
 30
0.0
 11
-70.50607474642129
 21
118.500000000001
 31
0.0
  0
LINE
  5
201
330
17
100
AcDbEntity
  8
ANCON-CHANNEL
100
AcDbLine
 10
-71.50607474642129
 20
124.500000000001
 30
0.0
 11
-71.50607474642129
 21
117.500000000001
 31
0.0
  0
LINE
  5
202
330
17
100
AcDbEntity
  8
ANCON-CHANNEL
100
AcDbLine
 10
-61.32562739982176
 20
123.500000000001
 30
0.0
 11
-61.32562739982176
 21
118.500000000001
 31
0.0
  0
LINE
  5
203
330
17
100
AcDbEntity
  8
ANCON-CHANNEL
100
AcDbLine
 10
-59.32562739982177
 20
123.500000000001
 30
0.0
 11
-59.32562739982177
 21
118.500000000001
 31
0.0
  0
LINE
  5
204
330
17
100
AcDbEntity
  8
ANCON-CHANNEL
100
AcDbLine
 10
-60.32562739982177
 20
124.500000000001
 30
0.0
 11
-60.32562739982177
 21
117.500000000001
 31
0.0
  0
LINE
  5
205
330
17
100
AcDbEntity
  8
ANCON-CHANNEL
100
AcDbLine
 10
-50.72562739982231
 20
123.500000000001
 30
0.0
 11
-50.72562739982231
 21
118.500000000001
 31
0.0
  0
LINE
  5
206
330
17
100
AcDbEntity
  8
ANCON-CHANNEL
100
AcDbLine
 10
-48.72562739982232
 20
123.500000000001
 30
0.0
 11
-48.72562739982232
 21
118.500000000001
 31
0.0
  0
LINE
  5
207
330
17
100
AcDbEntity
  8
ANCON-CHANNEL
100
AcDbLine
 10
-37.75081743183818
 20
123.500000000001
 30
0.0
 11
-37.75081743183818
 21
118.500000000001
 31
0.0
  0
LINE
  5
208
330
17
100
AcDbEntity
  8
ANCON-CHANNEL
100
AcDbLine
 10
-39.75081743183818
 20
123.500000000001
 30
0.0
 11
-39.75081743183818
 21
118.500000000001
 31
0.0
  0
LINE
  5
209
330
17
100
AcDbEntity
  8
ANCON-CHANNEL
100
AcDbLine
 10
-49.72562739982231
 20
124.500000000001
 30
0.0
 11
-49.72562739982231
 21
117.500000000001
 31
0.0
  0
LINE
  5
20A
330
17
100
AcDbEntity
  8
ANCON-CHANNEL
100
AcDbLine
 10
-38.75081743183818
 20
124.500000000001
 30
0.0
 11
-38.75081743183818
 21
117.500000000001
 31
0.0
  0
LINE
  5
20B
330
17
100
AcDbEntity
  8
ANCON-CHANNEL
100
AcDbLine
 10
-19.00807258561235
 20
126.000000000001
 30
0.0
 11
-24.80516339638052
 21
126.000000000001
 31
0.0
  0
LINE
  5
20C
330
17
100
AcDbEntity
  8
ANCON-CHANNEL
100
AcDbLine
 10
-19.01299664382077
 20
116.000000000001
 30
0.0
 11
-26.01803457495952
 21
116.000000000001
 31
0.0
  0
LINE
  5
20D
330
17
100
AcDbEntity
  8
ANCON-CHANNEL
100
AcDbLine
 10
-27.98250163850798
 20
123.500000000001
 30
0.0
 11
-27.98250163850798
 21
118.500000000001
 31
0.0
  0
LINE
  5
20E
330
17
100
AcDbEntity
  8
ANCON-CHANNEL
100
AcDbLine
 10
-29.98250163850798
 20
123.500000000001
 30
0.0
 11
-29.98250163850798
 21
118.500000000001
 31
0.0
  0
LINE
  5
20F
330
17
100
AcDbEntity
  8
ANCON-CHANNEL
100
AcDbLine
 10
-28.98250163850798
 20
124.500000000001
 30
0.0
 11
-28.98250163850798
 21
117.500000000001
 31
0.0
  0
LINE
  5
210
330
17
100
AcDbEntity
  8
ANCON-CHANNEL
100
AcDbLine
 10
-18.15288759041186
 20
126.000000000001
 30
0.0
 11
-19.00807258561235
 21
126.000000000001
 31
0.0
  0
ARC
  5
211
330
17
100
AcDbEntity
  8
ANCON-CHANNEL
100
AcDbCircle
 10
-16.02562739982022
 20
125.7250000000014
 30
0.0
 40
3.0
100
AcDbArc
 50
120.0055946682702
 51
180.0
  0
LINE
  5
212
330
17
100
AcDbEntity
  8
ANCON-CHANNEL
100
AcDbLine
 10
-16.02562739982022
 20
126.000000000001
 30
0.0
 11
-16.02562739982022
 21
116.000000000001
 31
0.0
  0
LINE
  5
213
330
17
100
AcDbEntity
  8
ANCON-CHANNEL
100
AcDbLine
 10
-16.52562739982022
 20
116.2750000000007
 30
0.0
 11
-16.52562739982022
 21
125.7250000000014
 31
0.0
  0
LINE
  5
214
330
17
100
AcDbEntity
  8
ANCON-CHANNEL
100
AcDbLine
 10
-19.02562739982022
 20
116.2750000000007
 30
0.0
 11
-19.02562739982022
 21
125.7250000000014
 31
0.0
  0
LINE
  5
215
330
17
100
AcDbEntity
  8
ANCON-CHANNEL
100
AcDbLine
 10
-13.52562739982022
 20
116.000000000001
 30
0.0
 11
-13.52562739982022
 21
126.000000000001
 31
0.0
  0
LINE
  5
216
330
17
100
AcDbEntity
  8
ANCON-CHANNEL
100
AcDbLine
 10
-13.52562739982022
 20
116.000000000001
 30
0.0
 11
-13.52562739982022
 21
126.000000000001
 31
0.0
  0
LINE
  5
218
330
17
100
AcDbEntity
  8
ANCON-CHANNEL
100
AcDbLine
 10
8.709400000000186
 20
110.5917250000012
 30
0.0
 11
15.4729000000002
 21
110.5917250000012
 31
0.0
  0
LINE
  5
219
330
17
100
AcDbEntity
  8
ANCON-CHANNEL
100
AcDbLine
 10
8.709400000000186
 20
115.8030908728734
 30
0.0
 11
15.47290000000066
 21
115.8030908728734
 31
0.0
  0
LINE
  5
21A
330
17
100
AcDbEntity
  8
ANCON-CHANNEL
100
AcDbLine
 10
8.709399999999732
 20
126.1969091271286
 30
0.0
 11
15.47290000000043
 21
126.1969091271286
 31
0.0
  0
LINE
  5
21B
330
17
100
AcDbEntity
  8
ANCON-CHANNEL
100
AcDbLine
 10
8.709400000000186
 20
131.4082750000017
 30
0.0
 11
15.47290000000089
 21
131.4082750000017
 31
0.0
  0
LINE
  5
21C
330
17
100
AcDbEntity
  8
ANCON-CHANNEL
100
AcDbLine
 10
7.206400000000257
 20
133.5250000000007
 30
0.0
 11
7.20640000000003
 21
108.4750000000014
 31
0.0
  0
LINE
  5
21D
330
17
100
AcDbEntity
  8
ANCON-CHANNEL
100
AcDbLine
 10
4.0
 20
133.5250000000007
 30
0.0
 11
4.0
 21
108.4750000000014
 31
0.0
  0
LINE
  5
21E
330
17
100
AcDbEntity
  8
ANCON-CHANNEL
100
AcDbLine
 10
4.0
 20
108.4750000000014
 30
0.0
 11
7.20640000000003
 21
108.4750000000014
 31
0.0
  0
ARC
  5
21F
330
17
100
AcDbEntity
  8
ANCON-CHANNEL
100
AcDbCircle
 10
10.21657716740981
 20
128.8025920635656
 30
0.0
 40
3.010177167409811
100
AcDbArc
 50
120.0459147637286
 51
239.9540852362713
  0
LINE
  5
220
330
17
100
AcDbEntity
  8
ANCON-CHANNEL
100
AcDbLine
 10
7.206400000000257
 20
128.8025920635656
 30
0.0
 11
7.206400000000257
 21
113.1974079364373
 31
0.0
  0
ARC
  5
221
330
17
100
AcDbEntity
  8
ANCON-CHANNEL
100
AcDbCircle
 10
16.9425521875006
 20
121.000000000001
 30
0.0
 40
9.736152187499891
100
AcDbArc
 50
147.739165307357
 51
212.2608346926429
  0
ARC
  5
222
330
17
100
AcDbEntity
  8
ANCON-CHANNEL
100
AcDbCircle
 10
10.21657716741049
 20
113.1974079364373
 30
0.0
 40
3.010177167409903
100
AcDbArc
 50
120.0459147637374
 51
239.9540852362713
  0
LINE
  5
223
330
17
100
AcDbEntity
  8
ANCON-CHANNEL
100
AcDbLine
 10
4.0
 20
133.5250000000007
 30
0.0
 11
7.20640000000003
 21
133.5250000000007
 31
0.0
  0
LINE
  5
224
330
17
100
AcDbEntity
  8
ANCON-CHANNEL
100
AcDbLine
 10
16.97590000000036
 20
115.491000000001
 30
0.0
 11
25.9020326225858
 21
115.491000000001
 31
0.0
  0
LINE
  5
225
330
17
100
AcDbEntity
  8
ANCON-CHANNEL
100
AcDbLine
 10
16.97590000000025
 20
116.491000000001
 30
0.0
 11
26.9020326225858
 21
116.491000000001
 31
0.0
  0
LINE
  5
226
330
17
100
AcDbEntity
  8
ANCON-CHANNEL
100
AcDbLine
 10
16.97590000000025
 20
126.509000000001
 30
0.0
 11
25.90203262258592
 21
126.509000000001
 31
0.0
  0
LINE
  5
227
330
17
100
AcDbEntity
  8
ANCON-CHANNEL
100
AcDbLine
 10
16.97590000000025
 20
125.509000000001
 30
0.0
 11
26.9020326225858
 21
125.509000000001
 31
0.0
  0
ARC
  5
228
330
17
100
AcDbEntity
  8
ANCON-CHANNEL
100
AcDbCircle
 10
13.9657228325899
 20
128.8025920635647
 30
0.0
 40
3.010177167410298
100
AcDbArc
 50
300.0459147637374
 51
59.95408523626844
  0
LINE
  5
229
330
17
100
AcDbEntity
  8
ANCON-CHANNEL
100
AcDbLine
 10
16.97590000000025
 20
128.8025920635647
 30
0.0
 11
16.97590000000025
 21
113.1974079364373
 31
0.0
  0
ARC
  5
22A
330
17
100
AcDbEntity
  8
ANCON-CHANNEL
100
AcDbCircle
 10
7.239747812500354
 20
121.000000000001
 30
0.0
 40
9.736152187499891
100
AcDbArc
 50
327.739165307357
 51
32.26083469264298
  0
ARC
  5
22B
330
17
100
AcDbEntity
  8
ANCON-CHANNEL
100
AcDbCircle
 10
13.96572283259047
 20
113.1974079364373
 30
0.0
 40
3.010177167409903
100
AcDbArc
 50
300.0459147637286
 51
59.95408523626259
  0
LINE
  5
22C
330
17
100
AcDbEntity
  8
ANCON-CHANNEL
100
AcDbLine
 10
25.9020326225858
 20
126.509000000001
 30
0.0
 11
25.9020326225858
 21
115.491000000001
 31
0.0
  0
LINE
  5
22D
330
17
100
AcDbEntity
  8
ANCON-CHANNEL
100
AcDbLine
 10
26.9020326225858
 20
125.509000000001
 30
0.0
 11
26.9020326225858
 21
116.491000000001
 31
0.0
  0
LINE
  5
22E
330
17
100
AcDbEntity
  8
ANCON-CHANNEL
100
AcDbLine
 10
25.9020326225858
 20
115.491000000001
 30
0.0
 11
26.9020326225858
 21
116.491000000001
 31
0.0
  0
LINE
  5
22F
330
17
100
AcDbEntity
  8
ANCON-CHANNEL
100
AcDbLine
 10
25.9020326225858
 20
126.509000000001
 30
0.0
 11
26.9020326225858
 21
125.509000000001
 31
0.0
  0
VIEWPORT
  5
95
330
14
100
AcDbEntity
 67
     1
  8
0
100
AcDbViewport
 10
6.124108
 20
4.5
 30
0.0
 40
12.248217
 41
9.0
 68
    -1
 69
     1
 12
6.124108
 22
4.5
 13
0.0
 23
0.0
 14
1.0
 24
1.0
 15
0.0
 25
0.0
 16
0.0
 26
0.0
 36
1.0
 17
0.0
 27
0.0
 37
0.0
 42
50.0
 43
0.0
 44
0.0
 45
9.0
 50
0.0
 51
0.0
 72
   100
 90
    32800
  1

281
     0
 71
     1
 74
     0
110
0.0
120
0.0
130
0.0
111
1.0
121
0.0
131
0.0
112
0.0
122
1.0
132
0.0
 79
     0
146
0.0
  0
ENDSEC
  0
SECTION
  2
OBJECTS
  0
DICTIONARY
  5
C
330
0
100
AcDbDictionary
281
     1
  3
ACAD_GROUP
350
D
  3
ACAD_LAYOUT
350
177
  3
ACAD_MLINESTYLE
350
1A
  3
ACAD_PLOTSETTINGS
350
178
  3
ACAD_PLOTSTYLENAME
350
175
  3
ACDBVARIABLEDICTIONARY
350
38
  0
DICTIONARY
  5
D
102
{ACAD_REACTORS
330
C
102
}
330
C
100
AcDbDictionary
281
     1
  0
DICTIONARY
  5
177
102
{ACAD_REACTORS
330
C
102
}
330
C
100
AcDbDictionary
281
     1
  3
Layout1
350
17A
  3
Model
350
179
  0
DICTIONARY
  5
1A
102
{ACAD_REACTORS
330
C
102
}
330
C
100
AcDbDictionary
281
     1
  3
STANDARD
350
1B
  0
DICTIONARY
  5
178
102
{ACAD_REACTORS
330
C
102
}
330
C
100
AcDbDictionary
281
     1
  0
ACDBDICTIONARYWDFLT
  5
175
102
{ACAD_REACTORS
330
C
102
}
330
C
100
AcDbDictionary
281
     1
  3
Normal
350
176
100
AcDbDictionaryWithDefault
340
176
  0
DICTIONARY
  5
38
102
{ACAD_REACTORS
330
C
102
}
330
C
100
AcDbDictionary
281
     1
  3
DIMADEC
350
39
  0
LAYOUT
  5
17A
102
{ACAD_REACTORS
330
177
102
}
330
177
100
AcDbPlotSettings
  1

  2
Ancon 2
  4

  6

 40
0.0
 41
0.0
 42
0.0
 43
0.0
 44
0.0
 45
0.0
 46
0.0
 47
0.0
 48
0.0
 49
0.0
140
0.0
141
0.0
142
1.0
143
1.0
 70
   688
 72
     0
 73
     0
 74
     5
  7

 75
    16
147
1.0
148
0.0
149
0.0
100
AcDbLayout
  1
Layout1
 70
     1
 71
     1
 10
0.0
 20
0.0
 11
420.0
 21
297.0
 12
0.0
 22
0.0
 32
0.0
 14
1.000000000000000E+20
 24
1.000000000000000E+20
 34
1.000000000000000E+20
 15
-1.000000000000000E+20
 25
-1.000000000000000E+20
 35
-1.000000000000000E+20
146
0.0
 13
0.0
 23
0.0
 33
0.0
 16
1.0
 26
0.0
 36
0.0
 17
0.0
 27
1.0
 37
0.0
 76
     0
330
14
  0
LAYOUT
  5
179
102
{ACAD_REACTORS
330
177
102
}
330
177
100
AcDbPlotSettings
  1

  2
Ancon 2
  4

  6

 40
0.0
 41
0.0
 42
0.0
 43
0.0
 44
0.0
 45
0.0
 46
0.0
 47
0.0
 48
0.0
 49
0.0
140
0.0
141
0.0
142
1.0
143
1.0
 70
  1712
 72
     0
 73
     0
 74
     0
  7

 75
     0
147
1.0
148
0.0
149
0.0
100
AcDbLayout
  1
Model
 70
     1
 71
     0
 10
0.0
 20
0.0
 11
12.0
 21
9.0
 12
0.0
 22
0.0
 32
0.0
 14
0.0
 24
0.0
 34
0.0
 15
0.0
 25
0.0
 35
0.0
146
0.0
 13
0.0
 23
0.0
 33
0.0
 16
1.0
 26
0.0
 36
0.0
 17
0.0
 27
1.0
 37
0.0
 76
     0
330
17
  0
MLINESTYLE
  5
1B
102
{ACAD_REACTORS
330
1A
102
}
330
1A
100
AcDbMlineStyle
  2
STANDARD
 70
     0
  3

 62
   256
 51
90.0
 52
90.0
 71
     2
 49
0.5
 62
   256
  6
BYLAYER
 49
-0.5
 62
   256
  6
BYLAYER
  0
ACDBPLACEHOLDER
  5
176
102
{ACAD_REACTORS
330
175
102
}
330
175
  0
DICTIONARYVAR
  5
39
102
{ACAD_REACTORS
330
38
102
}
330
38
100
DictionaryVariables
280
     0
  1
4
  0
ENDSEC
  0
EOF
