  0
SECTION
  2
HEADER
  9
$ACADVER
  1
AC1015
  9
$ACADMAINTVER
 70
    10
  9
$DWGCODEPAGE
  3
ANSI_1252
  9
$INSBASE
 10
0.0
 20
0.0
 30
0.0
  9
$EXTMIN
 10
-217.745235
 20
-365.0
 30
0.0
  9
$EXTMAX
 10
703.6783812857152
 20
225.0
 30
0.0
  9
$LIMMIN
 10
0.0
 20
0.0
  9
$LIMMAX
 10
420.0
 20
297.0
  9
$ORTHOMODE
 70
     1
  9
$REGENMODE
 70
     1
  9
$FILLMODE
 70
     1
  9
$QTEXTMODE
 70
     0
  9
$MIRRTEXT
 70
     1
  9
$LTSCALE
 40
1.0
  9
$ATTMODE
 70
     1
  9
$TEXTSIZE
 40
9.0
  9
$TRACEWID
 40
10.0
  9
$TEXTSTYLE
  7
ROMANS
  9
$CLAYER
  8
ANCON-TEXT
  9
$CELTYPE
  6
BYLAYER
  9
$CECOLOR
 62
   256
  9
$CELTSCALE
 40
1.0
  9
$DISPSILH
 70
     0
  9
$DIMSCALE
 40
5.0
  9
$DIMASZ
 40
0.0
  9
$DIMEXO
 40
4.5
  9
$DIMDLI
 40
0.0
  9
$DIMRND
 40
1.0
  9
$DIMDLE
 40
1.25
  9
$DIMEXE
 40
1.5
  9
$DIMTP
 40
0.0
  9
$DIMTM
 40
0.0
  9
$DIMTXT
 40
1.8
  9
$DIMCEN
 40
0.0
  9
$DIMTSZ
 40
1.0
  9
$DIMTOL
 70
     0
  9
$DIMLIM
 70
     0
  9
$DIMTIH
 70
     0
  9
$DIMTOH
 70
     0
  9
$DIMSE1
 70
     0
  9
$DIMSE2
 70
     0
  9
$DIMTAD
 70
     1
  9
$DIMZIN
 70
    12
  9
$DIMBLK
  1

  9
$DIMASO
 70
     1
  9
$DIMSHO
 70
     0
  9
$DIMPOST
  1

  9
$DIMAPOST
  1

  9
$DIMALT
 70
     0
  9
$DIMALTD
 70
     2
  9
$DIMALTF
 40
0.04
  9
$DIMLFAC
 40
1.0
  9
$DIMTOFL
 70
     0
  9
$DIMTVP
 40
0.0
  9
$DIMTIX
 70
     0
  9
$DIMSOXD
 70
     0
  9
$DIMSAH
 70
     0
  9
$DIMBLK1
  1

  9
$DIMBLK2
  1

  9
$DIMSTYLE
  2
1-5
  9
$DIMCLRD
 70
     0
  9
$DIMCLRE
 70
     0
  9
$DIMCLRT
 70
     0
  9
$DIMTFAC
 40
1.25
  9
$DIMGAP
 40
0.1
  9
$DIMJUST
 70
     0
  9
$DIMSD1
 70
     0
  9
$DIMSD2
 70
     0
  9
$DIMTOLJ
 70
     1
  9
$DIMTZIN
 70
    12
  9
$DIMALTZ
 70
    12
  9
$DIMALTTZ
 70
    12
  9
$DIMUPT
 70
     0
  9
$DIMDEC
 70
     2
  9
$DIMTDEC
 70
     2
  9
$DIMALTU
 70
     2
  9
$DIMALTTD
 70
     2
  9
$DIMTXSTY
  7
ROMANS
  9
$DIMAUNIT
 70
     0
  9
$DIMADEC
 70
     0
  9
$DIMALTRND
 40
0.0
  9
$DIMAZIN
 70
     0
  9
$DIMDSEP
 70
    46
  9
$DIMATFIT
 70
     3
  9
$DIMFRAC
 70
     0
  9
$DIMLDRBLK
  1

  9
$DIMLUNIT
 70
     2
  9
$DIMLWD
 70
    -2
  9
$DIMLWE
 70
    -2
  9
$DIMTMOVE
 70
     0
  9
$LUNITS
 70
     2
  9
$LUPREC
 70
     2
  9
$SKETCHINC
 40
1.0
  9
$FILLETRAD
 40
0.0
  9
$AUNITS
 70
     0
  9
$AUPREC
 70
     4
  9
$MENU
  1
C:\ACADWIN\SUPPORT\ACAD
  9
$ELEVATION
 40
0.0
  9
$PELEVATION
 40
0.0
  9
$THICKNESS
 40
0.0
  9
$LIMCHECK
 70
     0
  9
$CHAMFERA
 40
0.0
  9
$CHAMFERB
 40
0.0
  9
$CHAMFERC
 40
0.0
  9
$CHAMFERD
 40
0.0
  9
$SKPOLY
 70
     0
  9
$TDCREATE
 40
2450427.482995949
  9
$TDUCREATE
 40
2450427.441329282
  9
$TDUPDATE
 40
2452486.851628588
  9
$TDUUPDATE
 40
2452486.809961921
  9
$TDINDWG
 40
0.1197395833
  9
$TDUSRTIMER
 40
0.1197395833
  9
$USRTIMER
 70
     1
  9
$ANGBASE
 50
0.0
  9
$ANGDIR
 70
     0
  9
$PDMODE
 70
     0
  9
$PDSIZE
 40
0.0
  9
$PLINEWID
 40
0.0
  9
$SPLFRAME
 70
     0
  9
$SPLINETYPE
 70
     6
  9
$SPLINESEGS
 70
     8
  9
$HANDSEED
  5
3C4
  9
$SURFTAB1
 70
    18
  9
$SURFTAB2
 70
    18
  9
$SURFTYPE
 70
     6
  9
$SURFU
 70
    18
  9
$SURFV
 70
    18
  9
$UCSBASE
  2

  9
$UCSNAME
  2

  9
$UCSORG
 10
0.0
 20
0.0
 30
0.0
  9
$UCSXDIR
 10
1.0
 20
0.0
 30
0.0
  9
$UCSYDIR
 10
0.0
 20
1.0
 30
0.0
  9
$UCSORTHOREF
  2

  9
$UCSORTHOVIEW
 70
     0
  9
$UCSORGTOP
 10
0.0
 20
0.0
 30
0.0
  9
$UCSORGBOTTOM
 10
0.0
 20
0.0
 30
0.0
  9
$UCSORGLEFT
 10
0.0
 20
0.0
 30
0.0
  9
$UCSORGRIGHT
 10
0.0
 20
0.0
 30
0.0
  9
$UCSORGFRONT
 10
0.0
 20
0.0
 30
0.0
  9
$UCSORGBACK
 10
0.0
 20
0.0
 30
0.0
  9
$PUCSBASE
  2

  9
$PUCSNAME
  2

  9
$PUCSORG
 10
0.0
 20
0.0
 30
0.0
  9
$PUCSXDIR
 10
1.0
 20
0.0
 30
0.0
  9
$PUCSYDIR
 10
0.0
 20
1.0
 30
0.0
  9
$PUCSORTHOREF
  2

  9
$PUCSORTHOVIEW
 70
     0
  9
$PUCSORGTOP
 10
0.0
 20
0.0
 30
0.0
  9
$PUCSORGBOTTOM
 10
0.0
 20
0.0
 30
0.0
  9
$PUCSORGLEFT
 10
0.0
 20
0.0
 30
0.0
  9
$PUCSORGRIGHT
 10
0.0
 20
0.0
 30
0.0
  9
$PUCSORGFRONT
 10
0.0
 20
0.0
 30
0.0
  9
$PUCSORGBACK
 10
0.0
 20
0.0
 30
0.0
  9
$USERI1
 70
     0
  9
$USERI2
 70
     0
  9
$USERI3
 70
     0
  9
$USERI4
 70
     0
  9
$USERI5
 70
     0
  9
$USERR1
 40
0.0
  9
$USERR2
 40
0.0
  9
$USERR3
 40
0.0
  9
$USERR4
 40
0.0
  9
$USERR5
 40
0.0
  9
$WORLDVIEW
 70
     1
  9
$SHADEDGE
 70
     3
  9
$SHADEDIF
 70
    70
  9
$TILEMODE
 70
     1
  9
$MAXACTVP
 70
    16
  9
$PINSBASE
 10
0.0
 20
0.0
 30
0.0
  9
$PLIMCHECK
 70
     0
  9
$PEXTMIN
 10
1.000000000000000E+20
 20
1.000000000000000E+20
 30
1.000000000000000E+20
  9
$PEXTMAX
 10
-1.000000000000000E+20
 20
-1.000000000000000E+20
 30
-1.000000000000000E+20
  9
$PLIMMIN
 10
0.0
 20
0.0
  9
$PLIMMAX
 10
420.0
 20
297.0
  9
$UNITMODE
 70
     0
  9
$VISRETAIN
 70
     0
  9
$PLINEGEN
 70
     0
  9
$PSLTSCALE
 70
     1
  9
$TREEDEPTH
 70
  3020
  9
$CMLSTYLE
  2
STANDARD
  9
$CMLJUST
 70
     0
  9
$CMLSCALE
 40
1.0
  9
$PROXYGRAPHICS
 70
     1
  9
$MEASUREMENT
 70
     0
  9
$CELWEIGHT
370
    -1
  9
$ENDCAPS
280
     0
  9
$JOINSTYLE
280
     0
  9
$LWDISPLAY
290
     0
  9
$INSUNITS
 70
     0
  9
$HYPERLINKBASE
  1

  9
$STYLESHEET
  1

  9
$XEDIT
290
     1
  9
$CEPSNTYPE
380
     0
  9
$PSTYLEMODE
290
     1
  9
$FINGERPRINTGUID
  2
{092F0DCC-A3F2-11D6-AAC6-0010A4A25215}
  9
$VERSIONGUID
  2
{092F0DDD-A3F2-11D6-AAC6-0010A4A25215}
  9
$EXTNAMES
290
     1
  9
$PSVPSCALE
 40
0.0
  9
$OLESTARTUP
290
     0
  0
ENDSEC
  0
SECTION
  2
CLASSES
  0
CLASS
  1
DICTIONARYVAR
  2
AcDbDictionaryVar
  3
AutoCAD 2000
 90
        0
280
     0
281
     0
  0
CLASS
  1
LWPOLYLINE
  2
AcDbPolyline
  3
AutoCAD 2000
 90
    32768
280
     0
281
     1
  0
CLASS
  1
ACDBDICTIONARYWDFLT
  2
AcDbDictionaryWithDefault
  3
AutoCAD 2000
 90
        0
280
     0
281
     0
  0
CLASS
  1
ACDBPLACEHOLDER
  2
AcDbPlaceHolder
  3
AutoCAD 2000
 90
        0
280
     0
281
     0
  0
CLASS
  1
LAYOUT
  2
AcDbLayout
  3
AutoCAD 2000
 90
        0
280
     0
281
     0
  0
ENDSEC
  0
SECTION
  2
TABLES
  0
TABLE
  2
VPORT
  5
8
330
0
100
AcDbSymbolTable
 70
     3
  0
VPORT
  5
3C3
330
8
100
AcDbSymbolTableRecord
100
AcDbViewportTableRecord
  2
*Active
 70
     0
 10
0.0
 20
0.0
 11
1.0
 21
1.0
 12
227.9287272368842
 22
-69.26932835530141
 13
0.0
 23
0.0
 14
5.0
 24
5.0
 15
10.0
 25
10.0
 16
0.0
 26
0.0
 36
1.0
 17
0.0
 27
0.0
 37
0.0
 40
808.1645652813982
 41
1.768089053803339
 42
50.0
 43
0.0
 44
0.0
 50
0.0
 51
0.0
 71
     0
 72
 20000
 73
     1
 74
     1
 75
     0
 76
     0
 77
     0
 78
     0
281
     0
 65
     1
110
0.0
120
0.0
130
0.0
111
1.0
121
0.0
131
0.0
112
0.0
122
1.0
132
0.0
 79
     0
146
0.0
  0
ENDTAB
  0
TABLE
  2
LTYPE
  5
5
330
0
100
AcDbSymbolTable
 70
     2
  0
LTYPE
  5
11
330
5
100
AcDbSymbolTableRecord
100
AcDbLinetypeTableRecord
  2
BYBLOCK
 70
     0
  3

 72
    65
 73
     0
 40
0.0
  0
LTYPE
  5
12
330
5
100
AcDbSymbolTableRecord
100
AcDbLinetypeTableRecord
  2
BYLAYER
 70
     0
  3

 72
    65
 73
     0
 40
0.0
  0
LTYPE
  5
13
330
5
100
AcDbSymbolTableRecord
100
AcDbLinetypeTableRecord
  2
CONTINUOUS
 70
     0
  3
Solid line
 72
    65
 73
     0
 40
0.0
  0
LTYPE
  5
22E
330
5
100
AcDbSymbolTableRecord
100
AcDbLinetypeTableRecord
  2
HIDDEN1_02
 70
     0
  3
__ __ __ __ __ __ __ __ __ __ __ __ __ __ __ __
 72
    65
 73
     2
 40
10.0
 49
6.0
 74
     0
 49
-4.0
 74
     0
  0
ENDTAB
  0
TABLE
  2
LAYER
  5
2
330
0
100
AcDbSymbolTable
 70
    14
  0
LAYER
  5
E
330
2
100
AcDbSymbolTableRecord
100
AcDbLayerTableRecord
  2
0
 70
     0
 62
     7
  6
CONTINUOUS
370
    -3
390
183
  0
LAYER
  5
2C
330
2
100
AcDbSymbolTableRecord
100
AcDbLayerTableRecord
  2
ANCON-ORIGIN
 70
     0
 62
     1
  6
CONTINUOUS
370
    -3
390
183
  0
LAYER
  5
2D
330
2
100
AcDbSymbolTableRecord
100
AcDbLayerTableRecord
  2
ANCON-SUPPORT
 70
     0
 62
     3
  6
CONTINUOUS
370
    -3
390
183
  0
LAYER
  5
2E
330
2
100
AcDbSymbolTableRecord
100
AcDbLayerTableRecord
  2
ANCON-STRUC
 70
     0
 62
     2
  6
CONTINUOUS
370
    -3
390
183
  0
LAYER
  5
2F
330
2
100
AcDbSymbolTableRecord
100
AcDbLayerTableRecord
  2
ANCON-MASONRY
 70
     0
 62
     1
  6
CONTINUOUS
370
    -3
390
183
  0
LAYER
  5
30
330
2
100
AcDbSymbolTableRecord
100
AcDbLayerTableRecord
  2
DEFPOINTS
 70
     0
 62
     7
  6
CONTINUOUS
290
     0
370
    -3
390
183
  0
LAYER
  5
31
330
2
100
AcDbSymbolTableRecord
100
AcDbLayerTableRecord
  2
ANCON-DIM
 70
     0
 62
     1
  6
CONTINUOUS
370
    -3
390
183
  0
LAYER
  5
32
330
2
100
AcDbSymbolTableRecord
100
AcDbLayerTableRecord
  2
ANCON-CHANNEL
 70
     0
 62
     1
  6
CONTINUOUS
370
    -3
390
183
  0
LAYER
  5
33
330
2
100
AcDbSymbolTableRecord
100
AcDbLayerTableRecord
  2
ANCON-TEXT
 70
     0
 62
     6
  6
CONTINUOUS
370
    -3
390
183
  0
LAYER
  5
34
330
2
100
AcDbSymbolTableRecord
100
AcDbLayerTableRecord
  2
ANCON-TIE
 70
     0
 62
     1
  6
CONTINUOUS
370
    -3
390
183
  0
LAYER
  5
35
330
2
100
AcDbSymbolTableRecord
100
AcDbLayerTableRecord
  2
GENTEXT
 70
     0
 62
     2
  6
CONTINUOUS
370
    -3
390
183
  0
LAYER
  5
22F
330
2
100
AcDbSymbolTableRecord
100
AcDbLayerTableRecord
  2
DANCON
 70
     0
 62
     4
  6
CONTINUOUS
370
    -3
390
183
  0
LAYER
  5
230
330
2
100
AcDbSymbolTableRecord
100
AcDbLayerTableRecord
  2
ANCON
 70
     0
 62
     4
  6
CONTINUOUS
370
    -3
390
183
  0
LAYER
  5
231
330
2
100
AcDbSymbolTableRecord
100
AcDbLayerTableRecord
  2
HID
 70
     0
 62
     4
  6
HIDDEN1_02
370
    -3
390
183
  0
ENDTAB
  0
TABLE
  2
STYLE
  5
3
330
0
100
AcDbSymbolTable
 70
     2
  0
STYLE
  5
F
330
3
100
AcDbSymbolTableRecord
100
AcDbTextStyleTableRecord
  2
STANDARD
 70
     0
 40
0.0
 41
1.0
 50
0.0
 71
     0
 42
3.0
  3
txt.shx
  4

  0
STYLE
  5
26
330
3
100
AcDbSymbolTableRecord
100
AcDbTextStyleTableRecord
  2
ROMANS
 70
     0
 40
0.0
 41
1.0
 50
0.0
 71
     0
 42
9.0
  3
romans
  4

  0
ENDTAB
  0
TABLE
  2
VIEW
  5
6
330
0
100
AcDbSymbolTable
 70
     0
  0
ENDTAB
  0
TABLE
  2
UCS
  5
7
330
0
100
AcDbSymbolTable
 70
     0
  0
ENDTAB
  0
TABLE
  2
APPID
  5
9
330
0
100
AcDbSymbolTable
 70
     1
  0
APPID
  5
10
330
9
100
AcDbSymbolTableRecord
100
AcDbRegAppTableRecord
  2
ACAD
 70
     0
  0
ENDTAB
  0
TABLE
  2
DIMSTYLE
  5
A
330
0
100
AcDbSymbolTable
 70
     2
100
AcDbDimStyleTable
 71
     1
340
29
  0
DIMSTYLE
105
29
330
A
100
AcDbSymbolTableRecord
100
AcDbDimStyleTableRecord
  2
1-5
 70
     0
 40
5.0
 41
0.0
 42
4.5
 43
0.0
 44
1.5
 45
1.0
 46
1.25
 73
     0
 74
     0
 77
     1
 78
    12
140
1.8
141
0.0
142
1.0
143
0.04
146
1.25
147
0.1
271
     2
272
     2
284
    12
285
    12
286
    12
340
26
  0
DIMSTYLE
105
18B
330
A
100
AcDbSymbolTableRecord
100
AcDbDimStyleTableRecord
  2
STANDARD
 70
     0
340
F
  0
ENDTAB
  0
TABLE
  2
BLOCK_RECORD
  5
1
330
0
100
AcDbSymbolTable
 70
     4
  0
BLOCK_RECORD
  5
17
330
1
100
AcDbSymbolTableRecord
100
AcDbBlockTableRecord
  2
*MODEL_SPACE
340
186
  0
BLOCK_RECORD
  5
14
330
1
100
AcDbSymbolTableRecord
100
AcDbBlockTableRecord
  2
*PAPER_SPACE
340
187
  0
BLOCK_RECORD
  5
1C
330
1
100
AcDbSymbolTableRecord
100
AcDbBlockTableRecord
  2
OR
340
0
  0
BLOCK_RECORD
  5
18C
330
1
100
AcDbSymbolTableRecord
100
AcDbBlockTableRecord
  2
30channel
340
0
102
{BLKREFS
331
1DE
102
}
  0
BLOCK_RECORD
  5
232
330
1
100
AcDbSymbolTableRecord
100
AcDbBlockTableRecord
  2
Chanel13
340
0
  0
BLOCK_RECORD
  5
280
330
1
100
AcDbSymbolTableRecord
100
AcDbBlockTableRecord
  2
a_mdc_isupport
340
0
  0
ENDTAB
  0
ENDSEC
  0
SECTION
  2
BLOCKS
  0
BLOCK
  5
38
330
17
100
AcDbEntity
  8
0
100
AcDbBlockBegin
  2
*MODEL_SPACE
 70
     0
 10
0.0
 20
0.0
 30
0.0
  3
*MODEL_SPACE
  1

  0
ENDBLK
  5
39
330
17
100
AcDbEntity
  8
0
100
AcDbBlockEnd
  0
BLOCK
  5
36
330
14
100
AcDbEntity
 67
     1
  8
0
100
AcDbBlockBegin
  2
*PAPER_SPACE
 70
     0
 10
0.0
 20
0.0
 30
0.0
  3
*PAPER_SPACE
  1

  0
ENDBLK
  5
37
330
14
100
AcDbEntity
 67
     1
  8
0
100
AcDbBlockEnd
  0
BLOCK
  5
3C
330
1C
100
AcDbEntity
  8
0
100
AcDbBlockBegin
  2
OR
 70
     0
 10
0.0
 20
0.0
 30
0.0
  3
OR
  1

  0
LWPOLYLINE
  5
3D
330
1C
100
AcDbEntity
  8
ANCON-ORIGIN
100
AcDbPolyline
 90
        5
 70
     0
 43
0.0
 10
-10.173261
 20
-6.213916999999999
 10
-10.173261
 20
6.213916999999999
 10
10.173261
 20
-6.213916999999999
 10
10.173261
 20
6.213916999999999
 10
-10.173261
 20
-6.213916999999999
  0
ENDBLK
  5
44
330
1C
100
AcDbEntity
  8
0
100
AcDbBlockEnd
  0
BLOCK
  5
1DC
330
18C
100
AcDbEntity
  8
0
100
AcDbBlockBegin
  2
30channel
 70
     0
 10
0.0
 20
0.0
 30
0.0
  3
30channel
  1

  0
TEXT
  5
18D
330
18C
100
AcDbEntity
  8
ANCON-TEXT
100
AcDbText
 10
-388.3538807824293
 20
-45.23572445620127
 30
0.0
 40
9.0
  1

  7
ROMANS
100
AcDbText
  0
TEXT
  5
18E
330
18C
100
AcDbEntity
  8
ANCON-TEXT
100
AcDbText
 10
-388.3538807824293
 20
-59.59282782648878
 30
0.0
 40
9.0
  1

  7
ROMANS
100
AcDbText
  0
TEXT
  5
18F
330
18C
100
AcDbEntity
  8
ANCON-TEXT
100
AcDbText
 10
-333.3312888541478
 20
-30.5001404103975
 30
0.0
 40
9.0
  1

  7
ROMANS
100
AcDbText
  0
TEXT
  5
190
330
18C
100
AcDbEntity
  8
ANCON-TEXT
100
AcDbText
 10
-333.3312888541478
 20
13.21414530388827
 30
0.0
 40
9.0
  1
STANDARD EDGE : 75mm
  7
ROMANS
100
AcDbText
  0
TEXT
  5
191
330
18C
100
AcDbEntity
  8
ANCON-TEXT
100
AcDbText
 10
-333.3312888541478
 20
27.78557387531682
 30
0.0
 40
9.0
  1
ANCON 30/20 CAST-IN CHANNEL
  7
ROMANS
100
AcDbText
  0
LINE
  5
192
330
18C
100
AcDbEntity
  8
ANCON-CHANNEL
100
AcDbLine
 10
-284.8827690584341
 20
61.33809506595651
 30
0.0
 11
-284.8827690584341
 21
72.85165908403107
 31
0.0
  0
LINE
  5
193
330
18C
100
AcDbEntity
  8
ANCON-CHANNEL
100
AcDbLine
 10
-270.7594500359755
 20
63.95330328856516
 30
0.0
 11
-270.7594500359755
 21
67.78446787575103
 31
0.0
  0
LINE
  5
194
330
18C
100
AcDbEntity
  8
ANCON-CHANNEL
100
AcDbLine
 10
-271.7594500359755
 20
64.37379761831403
 30
0.0
 11
-271.7594500359755
 21
66.56970877590964
 31
0.0
  0
LINE
  5
195
330
18C
100
AcDbEntity
  8
ANCON-CHANNEL
100
AcDbLine
 10
-270.7594500359755
 20
61.33809506595652
 30
0.0
 11
-270.7594500359755
 21
63.29920329505552
 31
0.0
  0
LINE
  5
196
330
18C
100
AcDbEntity
  8
ANCON-CHANNEL
100
AcDbLine
 10
-269.7594500359755
 20
61.33809506595651
 30
0.0
 11
-269.7594500359755
 21
63.25248078397692
 31
0.0
  0
LINE
  5
197
330
18C
100
AcDbEntity
  8
ANCON-CHANNEL
100
AcDbLine
 10
-269.7594500359755
 20
64.65412717147995
 30
0.0
 11
-269.7594500359755
 21
67.78446787575103
 31
0.0
  0
LINE
  5
198
330
18C
100
AcDbEntity
  8
ANCON-CHANNEL
100
AcDbLine
 10
-269.7594500359755
 20
68.5787340241701
 30
0.0
 11
-269.7594500359755
 21
70.58775927243061
 31
0.0
  0
LINE
  5
199
330
18C
100
AcDbEntity
  8
ANCON-CHANNEL
100
AcDbLine
 10
-270.7594500359755
 20
68.25168333825207
 30
0.0
 11
-270.7594500359755
 21
70.40087336309551
 31
0.0
  0
LINE
  5
19A
330
18C
100
AcDbEntity
  8
ANCON-CHANNEL
100
AcDbLine
 10
-271.7594500359755
 20
67.17708901499356
 30
0.0
 11
-271.7594500359755
 21
68.90578471008814
 31
0.0
  0
LINE
  5
19B
330
18C
100
AcDbEntity
  8
ANCON-CHANNEL
100
AcDbLine
 10
-271.7594500359755
 20
69.55988608192427
 30
0.0
 11
-271.7594500359755
 21
72.85165908403107
 31
0.0
  0
LINE
  5
19C
330
18C
100
AcDbEntity
  8
ANCON-CHANNEL
100
AcDbLine
 10
-260.7140562725162
 20
63.95330328856516
 30
0.0
 11
-260.7140562725162
 21
67.78446787575103
 31
0.0
  0
LINE
  5
19D
330
18C
100
AcDbEntity
  8
ANCON-CHANNEL
100
AcDbLine
 10
-261.7140562725162
 20
64.37379761831403
 30
0.0
 11
-261.7140562725162
 21
66.56970877590964
 31
0.0
  0
LINE
  5
19E
330
18C
100
AcDbEntity
  8
ANCON-CHANNEL
100
AcDbLine
 10
-259.7140562725162
 20
61.33809506595651
 30
0.0
 11
-259.7140562725162
 21
63.25248078397692
 31
0.0
  0
LINE
  5
19F
330
18C
100
AcDbEntity
  8
ANCON-CHANNEL
100
AcDbLine
 10
-260.7140562725162
 20
61.33809506595652
 30
0.0
 11
-260.7140562725162
 21
63.29920329505552
 31
0.0
  0
LINE
  5
1A0
330
18C
100
AcDbEntity
  8
ANCON-CHANNEL
100
AcDbLine
 10
-260.7140562725162
 20
68.25168333825207
 30
0.0
 11
-260.7140562725162
 21
70.40087336309551
 31
0.0
  0
LINE
  5
1A1
330
18C
100
AcDbEntity
  8
ANCON-CHANNEL
100
AcDbLine
 10
-259.7140562725162
 20
68.5787340241701
 30
0.0
 11
-259.7140562725162
 21
70.58775927243061
 31
0.0
  0
LINE
  5
1A2
330
18C
100
AcDbEntity
  8
ANCON-CHANNEL
100
AcDbLine
 10
-259.7140562725162
 20
64.65412717147995
 30
0.0
 11
-259.7140562725162
 21
67.78446787575103
 31
0.0
  0
LINE
  5
1A3
330
18C
100
AcDbEntity
  8
ANCON-CHANNEL
100
AcDbLine
 10
-261.7140562725162
 20
67.17708901499356
 30
0.0
 11
-261.7140562725162
 21
68.90578471008814
 31
0.0
  0
LINE
  5
1A4
330
18C
100
AcDbEntity
  8
ANCON-CHANNEL
100
AcDbLine
 10
-261.7140562725162
 20
69.55988608192427
 30
0.0
 11
-261.7140562725162
 21
73.10169586768376
 31
0.0
  0
LINE
  5
1A5
330
18C
100
AcDbEntity
  8
ANCON-CHANNEL
100
AcDbLine
 10
-250.6686625090569
 20
63.95330328856516
 30
0.0
 11
-250.6686625090569
 21
67.78446787575103
 31
0.0
  0
LINE
  5
1A6
330
18C
100
AcDbEntity
  8
ANCON-CHANNEL
100
AcDbLine
 10
-251.6686625090569
 20
64.37379761831403
 30
0.0
 11
-251.6686625090569
 21
66.56970877590964
 31
0.0
  0
LINE
  5
1A7
330
18C
100
AcDbEntity
  8
ANCON-CHANNEL
100
AcDbLine
 10
-250.6686625090569
 20
61.33809506595652
 30
0.0
 11
-250.6686625090569
 21
63.29920329505552
 31
0.0
  0
LINE
  5
1A8
330
18C
100
AcDbEntity
  8
ANCON-CHANNEL
100
AcDbLine
 10
-249.6686625090569
 20
61.33809506595651
 30
0.0
 11
-249.6686625090569
 21
63.25248078397692
 31
0.0
  0
LINE
  5
1A9
330
18C
100
AcDbEntity
  8
ANCON-CHANNEL
100
AcDbLine
 10
-249.6686625090569
 20
64.65412717147995
 30
0.0
 11
-249.6686625090569
 21
67.78446787575103
 31
0.0
  0
LINE
  5
1AA
330
18C
100
AcDbEntity
  8
ANCON-CHANNEL
100
AcDbLine
 10
-249.6686625090569
 20
68.5787340241701
 30
0.0
 11
-249.6686625090569
 21
70.58775927243061
 31
0.0
  0
LINE
  5
1AB
330
18C
100
AcDbEntity
  8
ANCON-CHANNEL
100
AcDbLine
 10
-250.6686625090569
 20
68.25168333825207
 30
0.0
 11
-250.6686625090569
 21
70.40087336309551
 31
0.0
  0
LINE
  5
1AC
330
18C
100
AcDbEntity
  8
ANCON-CHANNEL
100
AcDbLine
 10
-251.6686625090569
 20
67.17708901499356
 30
0.0
 11
-251.6686625090569
 21
68.90578471008814
 31
0.0
  0
LINE
  5
1AD
330
18C
100
AcDbEntity
  8
ANCON-CHANNEL
100
AcDbLine
 10
-251.6686625090569
 20
69.55988608192427
 30
0.0
 11
-251.6686625090569
 21
73.10169586768376
 31
0.0
  0
LINE
  5
1AE
330
18C
100
AcDbEntity
  8
ANCON-CHANNEL
100
AcDbLine
 10
-231.5778749821383
 20
64.37379761831403
 30
0.0
 11
-231.5778749821383
 21
66.56970877590964
 31
0.0
  0
LINE
  5
1AF
330
18C
100
AcDbEntity
  8
ANCON-CHANNEL
100
AcDbLine
 10
-240.6232687455976
 20
63.95330328856516
 30
0.0
 11
-240.6232687455976
 21
67.78446787575103
 31
0.0
  0
LINE
  5
1B0
330
18C
100
AcDbEntity
  8
ANCON-CHANNEL
100
AcDbLine
 10
-241.6232687455976
 20
64.37379761831403
 30
0.0
 11
-241.6232687455976
 21
66.56970877590964
 31
0.0
  0
LINE
  5
1B1
330
18C
100
AcDbEntity
  8
ANCON-CHANNEL
100
AcDbLine
 10
-239.6232687455976
 20
61.33809506595651
 30
0.0
 11
-239.6232687455976
 21
63.25248078397692
 31
0.0
  0
LINE
  5
1B2
330
18C
100
AcDbEntity
  8
ANCON-CHANNEL
100
AcDbLine
 10
-240.6232687455976
 20
61.33809506595652
 30
0.0
 11
-240.6232687455976
 21
63.29920329505552
 31
0.0
  0
LINE
  5
1B3
330
18C
100
AcDbEntity
  8
ANCON-CHANNEL
100
AcDbLine
 10
-239.6232687455976
 20
68.5787340241701
 30
0.0
 11
-239.6232687455976
 21
70.58775927243061
 31
0.0
  0
LINE
  5
1B4
330
18C
100
AcDbEntity
  8
ANCON-CHANNEL
100
AcDbLine
 10
-239.6232687455976
 20
64.65412717147995
 30
0.0
 11
-239.6232687455976
 21
67.78446787575103
 31
0.0
  0
LINE
  5
1B5
330
18C
100
AcDbEntity
  8
ANCON-CHANNEL
100
AcDbLine
 10
-240.6232687455976
 20
68.25168333825207
 30
0.0
 11
-240.6232687455976
 21
70.40087336309551
 31
0.0
  0
LINE
  5
1B6
330
18C
100
AcDbEntity
  8
ANCON-CHANNEL
100
AcDbLine
 10
-241.6232687455976
 20
67.17708901499356
 30
0.0
 11
-241.6232687455976
 21
68.90578471008814
 31
0.0
  0
LINE
  5
1B7
330
18C
100
AcDbEntity
  8
ANCON-CHANNEL
100
AcDbLine
 10
-241.6232687455976
 20
69.55988608192427
 30
0.0
 11
-241.6232687455976
 21
72.85165908403107
 31
0.0
  0
LINE
  5
1B8
330
18C
100
AcDbEntity
  8
ANCON-CHANNEL
100
AcDbLine
 10
-231.5778749821383
 20
67.17708901499356
 30
0.0
 11
-231.5778749821383
 21
68.90578471008814
 31
0.0
  0
LINE
  5
1B9
330
18C
100
AcDbEntity
  8
ANCON-CHANNEL
100
AcDbLine
 10
-231.5778749821383
 20
69.55988608192427
 30
0.0
 11
-231.5778749821383
 21
73.10169586768376
 31
0.0
  0
LINE
  5
1BA
330
18C
100
AcDbEntity
  8
ANCON-CHANNEL
100
AcDbLine
 10
-230.5778749821383
 20
63.95330328856516
 30
0.0
 11
-230.5778749821383
 21
67.78446787575103
 31
0.0
  0
LINE
  5
1BB
330
18C
100
AcDbEntity
  8
ANCON-CHANNEL
100
AcDbLine
 10
-229.5778749821383
 20
61.33809506595651
 30
0.0
 11
-229.5778749821383
 21
63.25248078397692
 31
0.0
  0
LINE
  5
1BC
330
18C
100
AcDbEntity
  8
ANCON-CHANNEL
100
AcDbLine
 10
-230.5778749821383
 20
61.33809506595652
 30
0.0
 11
-230.5778749821383
 21
63.29920329505552
 31
0.0
  0
LINE
  5
1BD
330
18C
100
AcDbEntity
  8
ANCON-CHANNEL
100
AcDbLine
 10
-229.5778749821383
 20
64.65412717147995
 30
0.0
 11
-229.5778749821383
 21
67.78446787575103
 31
0.0
  0
LINE
  5
1BE
330
18C
100
AcDbEntity
  8
ANCON-CHANNEL
100
AcDbLine
 10
-229.5778749821383
 20
68.5787340241701
 30
0.0
 11
-229.5778749821383
 21
70.58775927243061
 31
0.0
  0
LINE
  5
1BF
330
18C
100
AcDbEntity
  8
ANCON-CHANNEL
100
AcDbLine
 10
-230.5778749821383
 20
68.25168333825207
 30
0.0
 11
-230.5778749821383
 21
70.40087336309551
 31
0.0
  0
LINE
  5
1C0
330
18C
100
AcDbEntity
  8
ANCON-CHANNEL
100
AcDbLine
 10
-217.8827690584341
 20
61.33809506595651
 30
0.0
 11
-217.8827690584342
 21
72.85165908403105
 31
0.0
  0
LINE
  5
1C1
330
18C
100
AcDbEntity
  8
ANCON-CHANNEL
100
AcDbLine
 10
-214.8827690584342
 20
61.33809506595652
 30
0.0
 11
-214.8827690584341
 21
72.85165908403105
 31
0.0
  0
LINE
  5
1C2
330
18C
100
AcDbEntity
  8
ANCON-CHANNEL
100
AcDbLine
 10
-220.3827690584341
 20
67.09487707499381
 30
0.0
 11
-220.3827690584342
 21
72.85165908403108
 31
0.0
  0
LINE
  5
1C3
330
18C
100
AcDbEntity
  8
ANCON-CHANNEL
100
AcDbLine
 10
-220.3827690584341
 20
67.09487707499381
 30
0.0
 11
-220.3827690584342
 21
61.33809506595651
 31
0.0
  0
LINE
  5
1C4
330
18C
100
AcDbEntity
  8
ANCON-CHANNEL
100
AcDbLine
 10
-201.3827690584341
 20
74.0948770749938
 30
0.0
 11
-201.3827690584341
 21
74.59487707499381
 31
0.0
  0
LINE
  5
1C5
330
18C
100
AcDbEntity
  8
ANCON-CHANNEL
100
AcDbLine
 10
-201.3827690584341
 20
74.59487707499381
 30
0.0
 11
-201.3827690584341
 21
74.0948770749938
 31
0.0
  0
LINE
  5
1C6
330
18C
100
AcDbEntity
  8
ANCON-CHANNEL
100
AcDbLine
 10
-201.3827690584341
 20
59.04845893241088
 30
0.0
 11
-201.3827690584341
 21
60.0948770749938
 31
0.0
  0
LINE
  5
1C7
330
18C
100
AcDbEntity
  8
ANCON-CHANNEL
100
AcDbLine
 10
-201.3827690584341
 20
59.59487707499381
 30
0.0
 11
-201.3827690584341
 21
59.04845893241087
 31
0.0
  0
LINE
  5
1C8
330
18C
100
AcDbEntity
  8
ANCON-CHANNEL
100
AcDbLine
 10
-218.7470324555025
 20
75.19751687607386
 30
0.0
 11
-207.4384431731572
 21
79.36383924325368
 31
0.0
  0
LINE
  5
1C9
330
18C
100
AcDbEntity
  8
ANCON-CHANNEL
100
AcDbLine
 10
-207.4384431731572
 20
54.82591490673385
 30
0.0
 11
-218.7470324555025
 21
58.99223727391373
 31
0.0
  0
LINE
  5
1CA
330
18C
100
AcDbEntity
  8
ANCON-CHANNEL
100
AcDbLine
 10
-217.8827690584341
 20
72.85165908403105
 30
0.0
 11
-206.5741797760888
 21
77.0179814512109
 31
0.0
  0
LINE
  5
1CB
330
18C
100
AcDbEntity
  8
ANCON-CHANNEL
100
AcDbLine
 10
-206.5741797760888
 20
57.17177269877665
 30
0.0
 11
-217.8827690584341
 21
61.33809506595651
 31
0.0
  0
LINE
  5
1CC
330
18C
100
AcDbEntity
  8
ANCON-CHANNEL
100
AcDbLine
 10
-220.3827690584342
 20
72.85165908403107
 30
0.0
 11
-284.8827690584341
 21
72.85165908403105
 31
0.0
  0
LINE
  5
1CD
330
18C
100
AcDbEntity
  8
ANCON-CHANNEL
100
AcDbLine
 10
-220.3827690584341
 20
61.33809506595651
 30
0.0
 11
-284.8827690584341
 21
61.33809506595651
 31
0.0
  0
LINE
  5
1CE
330
18C
100
AcDbEntity
  8
ANCON-CHANNEL
100
AcDbLine
 10
-217.8827690584342
 20
72.85165908403105
 30
0.0
 11
-214.8827690584341
 21
72.85165908403105
 31
0.0
  0
LINE
  5
1CF
330
18C
100
AcDbEntity
  8
ANCON-CHANNEL
100
AcDbLine
 10
-217.8827690584341
 20
61.33809506595651
 30
0.0
 11
-214.8827690584341
 21
61.33809506595652
 31
0.0
  0
ARC
  5
1D0
330
18C
100
AcDbEntity
  8
ANCON-CHANNEL
100
AcDbCircle
 10
-217.8827690584342
 20
72.85165908403108
 30
0.0
 40
2.5
100
AcDbArc
 50
110.224859431168
 51
180.0
  0
ARC
  5
1D1
330
18C
100
AcDbEntity
  8
ANCON-CHANNEL
100
AcDbCircle
 10
-217.8827690584342
 20
61.33809506595651
 30
0.0
 40
2.5
100
AcDbArc
 50
180.0
 51
249.7751405688318
  0
LINE
  5
1D2
330
18C
100
AcDbEntity
  8
ANCON-CHANNEL
100
AcDbLine
 10
-203.8827690584341
 20
59.04845893241087
 30
0.0
 11
-203.8827690584341
 21
60.0948770749938
 31
0.0
  0
ARC
  5
1D3
330
18C
100
AcDbEntity
  8
ANCON-CHANNEL
100
AcDbCircle
 10
-205.8827690584341
 20
75.14129521757668
 30
0.0
 40
2.0
100
AcDbArc
 50
0.0000000000000509
 51
110.2248594311681
  0
ARC
  5
1D4
330
18C
100
AcDbEntity
  8
ANCON-CHANNEL
100
AcDbCircle
 10
-205.8827690584341
 20
59.04845893241087
 30
0.0
 40
2.0
100
AcDbArc
 50
249.7751405688318
 51
0.0000000000000636
  0
ARC
  5
1D5
330
18C
100
AcDbEntity
  8
ANCON-CHANNEL
100
AcDbCircle
 10
-205.8827690584341
 20
75.14129521757668
 30
0.0
 40
4.5
100
AcDbArc
 50
0.0000000000000509
 51
110.2248594311681
  0
ARC
  5
1D6
330
18C
100
AcDbEntity
  8
ANCON-CHANNEL
100
AcDbCircle
 10
-205.8827690584341
 20
59.04845893241087
 30
0.0
 40
4.5
100
AcDbArc
 50
249.7751405688318
 51
0.0000000000000636
  0
LINE
  5
1D7
330
18C
100
AcDbEntity
  8
ANCON-CHANNEL
100
AcDbLine
 10
-203.8827690584342
 20
74.0948770749938
 30
0.0
 11
-203.8827690584341
 21
75.14129521757668
 31
0.0
  0
LINE
  5
1D8
330
18C
100
AcDbEntity
  8
ANCON-CHANNEL
100
AcDbLine
 10
-201.3827690584341
 20
74.0948770749938
 30
0.0
 11
-201.3827690584341
 21
75.14129521757668
 31
0.0
  0
LINE
  5
1D9
330
18C
100
AcDbEntity
  8
ANCON-CHANNEL
100
AcDbLine
 10
-201.3827690584341
 20
60.09487707499379
 30
0.0
 11
-201.3827690584341
 21
59.59487707499381
 31
0.0
  0
LINE
  5
1DA
330
18C
100
AcDbEntity
  8
ANCON-CHANNEL
100
AcDbLine
 10
-203.8827690584342
 20
74.0948770749938
 30
0.0
 11
-201.3827690584341
 21
74.0948770749938
 31
0.0
  0
LINE
  5
1DB
330
18C
100
AcDbEntity
  8
ANCON-CHANNEL
100
AcDbLine
 10
-203.8827690584341
 20
60.0948770749938
 30
0.0
 11
-201.3827690584341
 21
60.09487707499379
 31
0.0
  0
ENDBLK
  5
1DD
330
18C
100
AcDbEntity
  8
0
100
AcDbBlockEnd
  0
BLOCK
  5
27D
330
232
100
AcDbEntity
  8
0
100
AcDbBlockBegin
  2
Chanel13
 70
     0
 10
0.0
 20
0.0
 30
0.0
  3
Chanel13
  1

  0
LINE
  5
233
330
232
100
AcDbEntity
  8
DANCON
100
AcDbLine
 10
-13.5
 20
5.0
 30
0.0
 11
-83.54403618259629
 21
5.0
 31
0.0
  0
LINE
  5
234
330
232
100
AcDbEntity
  8
DANCON
100
AcDbLine
 10
-4.750126841496694
 20
11.79896486544748
 30
0.0
 11
-16.2500422804992
 21
5.157988288482556
 31
0.0
  0
LINE
  5
235
330
232
100
AcDbEntity
  8
DANCON
100
AcDbLine
 10
-6.000338243990881
 20
13.96390630785936
 30
0.0
 11
-17.50025368299338
 21
7.322929730894429
 31
0.0
  0
LINE
  5
236
330
232
100
AcDbEntity
  8
DANCON
100
AcDbLine
 10
-13.5
 20
5.0
 30
0.0
 11
-16.44115680106915
 21
5.0
 31
0.0
  0
LINE
  5
237
330
232
100
AcDbEntity
  8
DANCON
100
AcDbLine
 10
-16.44115680106915
 20
5.0
 30
0.0
 11
-17.53296911004645
 21
5.0
 31
0.0
  0
ARC
  5
238
330
232
100
AcDbEntity
  8
DANCON
100
AcDbCircle
 10
-16.0
 20
4.725000000000363
 30
0.0
 40
0.5
100
AcDbArc
 50
120.0055946682702
 51
180.0
  0
ARC
  5
239
330
232
100
AcDbEntity
  8
DANCON
100
AcDbCircle
 10
-4.0
 20
10.5
 30
0.0
 40
1.5
100
AcDbArc
 50
0.0
 51
120.0055946682702
  0
ARC
  5
23A
330
232
100
AcDbEntity
  8
DANCON
100
AcDbCircle
 10
-4.0
 20
10.5
 30
0.0
 40
4.0
100
AcDbArc
 50
0.0
 51
120.0055946682702
  0
LINE
  5
23B
330
232
100
AcDbEntity
  8
DANCON
100
AcDbLine
 10
-2.5
 20
7.210000000000036
 30
0.0
 11
0.0
 21
7.210000000000036
 31
0.0
  0
LINE
  5
23C
330
232
100
AcDbEntity
  8
DANCON
100
AcDbLine
 10
-2.5
 20
10.5
 30
0.0
 11
-2.5
 21
7.210000000000036
 31
0.0
  0
LINE
  5
23D
330
232
100
AcDbEntity
  8
DANCON
100
AcDbLine
 10
0.0
 20
10.5
 30
0.0
 11
0.0
 21
7.210000000000036
 31
0.0
  0
ARC
  5
23E
330
232
100
AcDbEntity
  8
DANCON
100
AcDbCircle
 10
-4.0
 20
-10.5
 30
0.0
 40
1.5
100
AcDbArc
 50
239.9944053317297
 51
0.0
  0
LINE
  5
23F
330
232
100
AcDbEntity
  8
DANCON
100
AcDbLine
 10
-17.50025368299338
 20
-7.322929730894429
 30
0.0
 11
-6.000338243990881
 21
-13.96390630785936
 31
0.0
  0
ARC
  5
240
330
232
100
AcDbEntity
  8
DANCON
100
AcDbCircle
 10
-4.0
 20
-10.5
 30
0.0
 40
4.0
100
AcDbArc
 50
239.9944053317297
 51
0.0
  0
LINE
  5
241
330
232
100
AcDbEntity
  8
DANCON
100
AcDbLine
 10
-16.2500422804992
 20
-5.157988288482556
 30
0.0
 11
-4.750126841496694
 21
-11.79896486544748
 31
0.0
  0
LINE
  5
242
330
232
100
AcDbEntity
  8
DANCON
100
AcDbLine
 10
-13.5
 20
-5.0
 30
0.0
 11
-16.41758232721258
 21
-5.0
 31
0.0
  0
LINE
  5
243
330
232
100
AcDbEntity
  8
DANCON
100
AcDbLine
 10
-16.41758232721258
 20
-5.0
 30
0.0
 11
-17.53296911004645
 21
-5.0
 31
0.0
  0
ARC
  5
244
330
232
100
AcDbEntity
  8
DANCON
100
AcDbCircle
 10
-16.0
 20
-4.725000000000363
 30
0.0
 40
0.5
100
AcDbArc
 50
180.0
 51
239.9944053317297
  0
LINE
  5
245
330
232
100
AcDbEntity
  8
DANCON
100
AcDbLine
 10
-18.12726019059164
 20
-5.0
 30
0.0
 11
-18.98736924400054
 21
-5.0
 31
0.0
  0
ARC
  5
246
330
232
100
AcDbEntity
  8
DANCON
100
AcDbCircle
 10
-16.0
 20
-4.725000000000363
 30
0.0
 40
3.0
100
AcDbArc
 50
180.0
 51
239.9944053317297
  0
LINE
  5
247
330
232
100
AcDbEntity
  8
DANCON
100
AcDbLine
 10
-2.5
 20
-7.210000000000036
 30
0.0
 11
0.0
 21
-7.210000000000036
 31
0.0
  0
LINE
  5
248
330
232
100
AcDbEntity
  8
DANCON
100
AcDbLine
 10
0.0
 20
-7.210000000000036
 30
0.0
 11
0.0
 21
-10.5
 31
0.0
  0
LINE
  5
249
330
232
100
AcDbEntity
  8
DANCON
100
AcDbLine
 10
-2.5
 20
-7.210000000000036
 30
0.0
 11
-2.5
 21
-10.5
 31
0.0
  0
LINE
  5
24A
330
232
100
AcDbEntity
  8
DANCON
100
AcDbLine
 10
-83.54403618259629
 20
-5.0
 30
0.0
 11
-13.5
 21
-5.0
 31
0.0
  0
LINE
  5
24B
330
232
100
AcDbEntity
  8
DANCON
100
AcDbLine
 10
-83.54403618259629
 20
5.0
 30
0.0
 11
-83.54403618259629
 21
-5.0
 31
0.0
  0
LINE
  5
24C
330
232
100
AcDbEntity
  8
DANCON
100
AcDbLine
 10
-72.48044734660107
 20
2.5
 30
0.0
 11
-72.48044734660107
 21
-2.5
 31
0.0
  0
LINE
  5
24D
330
232
100
AcDbEntity
  8
DANCON
100
AcDbLine
 10
-70.48044734660106
 20
2.5
 30
0.0
 11
-70.48044734660106
 21
-2.5
 31
0.0
  0
LINE
  5
24E
330
232
100
AcDbEntity
  8
DANCON
100
AcDbLine
 10
-71.48044734660107
 20
3.5
 30
0.0
 11
-71.48044734660107
 21
-3.5
 31
0.0
  0
LINE
  5
24F
330
232
100
AcDbEntity
  8
DANCON
100
AcDbLine
 10
-61.30000000000155
 20
2.5
 30
0.0
 11
-61.30000000000155
 21
-2.5
 31
0.0
  0
LINE
  5
250
330
232
100
AcDbEntity
  8
DANCON
100
AcDbLine
 10
-59.30000000000155
 20
2.5
 30
0.0
 11
-59.30000000000155
 21
-2.5
 31
0.0
  0
LINE
  5
251
330
232
100
AcDbEntity
  8
DANCON
100
AcDbLine
 10
-60.30000000000154
 20
3.5
 30
0.0
 11
-60.30000000000154
 21
-3.5
 31
0.0
  0
LINE
  5
252
330
232
100
AcDbEntity
  8
DANCON
100
AcDbLine
 10
-50.70000000000209
 20
2.5
 30
0.0
 11
-50.70000000000209
 21
-2.5
 31
0.0
  0
LINE
  5
253
330
232
100
AcDbEntity
  8
DANCON
100
AcDbLine
 10
-48.70000000000209
 20
2.5
 30
0.0
 11
-48.70000000000209
 21
-2.5
 31
0.0
  0
LINE
  5
254
330
232
100
AcDbEntity
  8
DANCON
100
AcDbLine
 10
-37.72519003201796
 20
2.5
 30
0.0
 11
-37.72519003201796
 21
-2.5
 31
0.0
  0
LINE
  5
255
330
232
100
AcDbEntity
  8
DANCON
100
AcDbLine
 10
-39.72519003201796
 20
2.5
 30
0.0
 11
-39.72519003201796
 21
-2.5
 31
0.0
  0
LINE
  5
256
330
232
100
AcDbEntity
  8
DANCON
100
AcDbLine
 10
-49.70000000000209
 20
3.5
 30
0.0
 11
-49.70000000000209
 21
-3.5
 31
0.0
  0
LINE
  5
257
330
232
100
AcDbEntity
  8
DANCON
100
AcDbLine
 10
-38.72519003201796
 20
3.5
 30
0.0
 11
-38.72519003201796
 21
-3.5
 31
0.0
  0
LINE
  5
258
330
232
100
AcDbEntity
  8
DANCON
100
AcDbLine
 10
-18.98244518579213
 20
5.0
 30
0.0
 11
-24.7795359965603
 21
5.0
 31
0.0
  0
LINE
  5
259
330
232
100
AcDbEntity
  8
DANCON
100
AcDbLine
 10
-18.98736924400054
 20
-5.0
 30
0.0
 11
-25.9924071751393
 21
-5.0
 31
0.0
  0
LINE
  5
25A
330
232
100
AcDbEntity
  8
DANCON
100
AcDbLine
 10
-27.95687423868776
 20
2.5
 30
0.0
 11
-27.95687423868776
 21
-2.5
 31
0.0
  0
LINE
  5
25B
330
232
100
AcDbEntity
  8
DANCON
100
AcDbLine
 10
-29.95687423868776
 20
2.5
 30
0.0
 11
-29.95687423868776
 21
-2.5
 31
0.0
  0
LINE
  5
25C
330
232
100
AcDbEntity
  8
DANCON
100
AcDbLine
 10
-28.95687423868776
 20
3.5
 30
0.0
 11
-28.95687423868776
 21
-3.5
 31
0.0
  0
LINE
  5
25D
330
232
100
AcDbEntity
  8
DANCON
100
AcDbLine
 10
-18.12726019059164
 20
5.0
 30
0.0
 11
-18.98244518579213
 21
5.0
 31
0.0
  0
ARC
  5
25E
330
232
100
AcDbEntity
  8
DANCON
100
AcDbCircle
 10
-16.0
 20
4.725000000000363
 30
0.0
 40
3.0
100
AcDbArc
 50
120.0055946682702
 51
180.0
  0
LINE
  5
25F
330
232
100
AcDbEntity
  8
HID
100
AcDbLine
 10
-16.0
 20
5.0
 30
0.0
 11
-16.0
 21
-5.0
 31
0.0
  0
LINE
  5
260
330
232
100
AcDbEntity
  8
DANCON
100
AcDbLine
 10
-16.5
 20
-4.725000000000363
 30
0.0
 11
-16.5
 21
4.725000000000363
 31
0.0
  0
LINE
  5
261
330
232
100
AcDbEntity
  8
DANCON
100
AcDbLine
 10
-19.0
 20
-4.725000000000363
 30
0.0
 11
-19.0
 21
4.725000000000363
 31
0.0
  0
LINE
  5
262
330
232
100
AcDbEntity
  8
DANCON
100
AcDbLine
 10
-13.5
 20
-5.0
 30
0.0
 11
-13.5
 21
5.0
 31
0.0
  0
LINE
  5
263
330
232
100
AcDbEntity
  8
DANCON
100
AcDbLine
 10
-13.5
 20
-5.0
 30
0.0
 11
-13.5
 21
5.0
 31
0.0
  0
LINE
  5
264
330
232
100
AcDbEntity
  8
DANCON
 62
     1
100
AcDbLine
 10
-102.9187930197019
 20
0.0
 30
0.0
 11
46.27757637401595
 21
0.0
 31
0.0
  0
LINE
  5
265
330
232
100
AcDbEntity
  8
DANCON
100
AcDbLine
 10
17.68361471931984
 20
-10.40827499999977
 30
0.0
 11
24.44711471931987
 21
-10.40827499999977
 31
0.0
  0
LINE
  5
266
330
232
100
AcDbEntity
  8
DANCON
100
AcDbLine
 10
17.68361471931984
 20
-5.196909127127582
 30
0.0
 11
24.44711471932032
 21
-5.196909127127582
 31
0.0
  0
LINE
  5
267
330
232
100
AcDbEntity
  8
DANCON
100
AcDbLine
 10
17.68361471931939
 20
5.196909127127582
 30
0.0
 11
24.44711471932009
 21
5.196909127127582
 31
0.0
  0
LINE
  5
268
330
232
100
AcDbEntity
  8
DANCON
100
AcDbLine
 10
17.68361471931984
 20
10.40827500000068
 30
0.0
 11
24.44711471932055
 21
10.40827500000068
 31
0.0
  0
LINE
  5
269
330
232
100
AcDbEntity
  8
DANCON
100
AcDbLine
 10
16.18061471931992
 20
12.52499999999963
 30
0.0
 11
16.18061471931969
 21
-12.52499999999963
 31
0.0
  0
LINE
  5
26A
330
232
100
AcDbEntity
  8
DANCON
100
AcDbLine
 10
12.97421471931966
 20
12.52499999999963
 30
0.0
 11
12.97421471931966
 21
-12.52499999999963
 31
0.0
  0
LINE
  5
26B
330
232
100
AcDbEntity
  8
DANCON
100
AcDbLine
 10
12.97421471931966
 20
-12.52499999999963
 30
0.0
 11
16.18061471931969
 21
-12.52499999999963
 31
0.0
  0
ARC
  5
26C
330
232
100
AcDbEntity
  8
DANCON
100
AcDbCircle
 10
19.19079188672947
 20
7.802592063564588
 30
0.0
 40
3.010177167409811
100
AcDbArc
 50
120.0459147637288
 51
239.9540852362711
  0
LINE
  5
26D
330
232
100
AcDbEntity
  8
DANCON
100
AcDbLine
 10
16.18061471931992
 20
7.802592063564588
 30
0.0
 11
16.18061471931992
 21
-7.802592063563679
 31
0.0
  0
ARC
  5
26E
330
232
100
AcDbEntity
  8
DANCON
100
AcDbCircle
 10
25.91676690682027
 20
0.0
 30
0.0
 40
9.736152187499891
100
AcDbArc
 50
147.7391653073573
 51
212.2608346926426
  0
ARC
  5
26F
330
232
100
AcDbEntity
  8
DANCON
100
AcDbCircle
 10
19.19079188673015
 20
-7.802592063563679
 30
0.0
 40
3.010177167409903
100
AcDbArc
 50
120.0459147637372
 51
239.9540852362711
  0
LINE
  5
270
330
232
100
AcDbEntity
  8
DANCON
100
AcDbLine
 10
12.97421471931966
 20
12.52499999999963
 30
0.0
 11
16.18061471931969
 21
12.52499999999963
 31
0.0
  0
LINE
  5
271
330
232
100
AcDbEntity
  8
DANCON
100
AcDbLine
 10
25.95011471932002
 20
-5.509000000000014
 30
0.0
 11
41.90217097724132
 21
-5.509000000000014
 31
0.0
  0
LINE
  5
272
330
232
100
AcDbEntity
  8
DANCON
100
AcDbLine
 10
25.95011471931991
 20
-4.509000000000014
 30
0.0
 11
42.90217097724132
 21
-4.509000000000014
 31
0.0
  0
LINE
  5
273
330
232
100
AcDbEntity
  8
DANCON
100
AcDbLine
 10
25.95011471931991
 20
5.509000000000014
 30
0.0
 11
41.90217097724143
 21
5.509000000000014
 31
0.0
  0
LINE
  5
274
330
232
100
AcDbEntity
  8
DANCON
100
AcDbLine
 10
25.95011471931991
 20
4.509000000000014
 30
0.0
 11
42.90217097724132
 21
4.509000000000014
 31
0.0
  0
ARC
  5
275
330
232
100
AcDbEntity
  8
DANCON
100
AcDbCircle
 10
22.93993755190956
 20
7.802592063563679
 30
0.0
 40
3.010177167410298
100
AcDbArc
 50
300.0459147637372
 51
59.95408523626838
  0
LINE
  5
276
330
232
100
AcDbEntity
  8
DANCON
100
AcDbLine
 10
25.95011471931991
 20
7.802592063563679
 30
0.0
 11
25.95011471931991
 21
-7.802592063563679
 31
0.0
  0
ARC
  5
277
330
232
100
AcDbEntity
  8
DANCON
100
AcDbCircle
 10
16.21396253182001
 20
0.0
 30
0.0
 40
9.736152187499891
100
AcDbArc
 50
327.7391653073573
 51
32.26083469264267
  0
ARC
  5
278
330
232
100
AcDbEntity
  8
DANCON
100
AcDbCircle
 10
22.93993755191013
 20
-7.802592063563679
 30
0.0
 40
3.010177167409903
100
AcDbArc
 50
300.0459147637288
 51
59.95408523626274
  0
LINE
  5
279
330
232
100
AcDbEntity
  8
DANCON
100
AcDbLine
 10
41.90217097724132
 20
5.509000000000014
 30
0.0
 11
41.90217097724132
 21
-5.509000000000014
 31
0.0
  0
LINE
  5
27A
330
232
100
AcDbEntity
  8
DANCON
100
AcDbLine
 10
42.90217097724132
 20
4.509000000000014
 30
0.0
 11
42.90217097724132
 21
-4.509000000000014
 31
0.0
  0
LINE
  5
27B
330
232
100
AcDbEntity
  8
DANCON
100
AcDbLine
 10
41.90217097724132
 20
-5.509000000000014
 30
0.0
 11
42.90217097724132
 21
-4.509000000000014
 31
0.0
  0
LINE
  5
27C
330
232
100
AcDbEntity
  8
DANCON
100
AcDbLine
 10
41.90217097724132
 20
5.509000000000014
 30
0.0
 11
42.90217097724132
 21
4.509000000000014
 31
0.0
  0
ENDBLK
  5
27E
330
232
100
AcDbEntity
  8
0
100
AcDbBlockEnd
  0
BLOCK
  5
331
330
280
100
AcDbEntity
  8
0
100
AcDbBlockBegin
  2
a_mdc_isupport
 70
     0
 10
0.0
 20
0.0
 30
0.0
  3
a_mdc_isupport
  1

  0
MTEXT
  5
334
330
280
100
AcDbEntity
  8
ANCON-TEXT
100
AcDbMText
 10
223.868449
 20
166.0608129999999
 30
0.0
 40
9.0
 41
497.2799999999999
 71
     1
 72
     5
  1
This system is suitable for cavities in yhe 50mm - 155mm range as standard, when fixed to cast in channel with 'T' head bolts
  7
ROMANS
 73
     1
 44
1.0
  0
TEXT
  5
335
330
280
100
AcDbEntity
  8
ANCON-TEXT
100
AcDbText
 10
219.3926669999999
 20
193.141128
 30
0.0
 40
9.0
  1
and carry 5.6 kilonewtons load per metre run.
  7
ROMANS
100
AcDbText
  0
TEXT
  5
336
330
280
100
AcDbEntity
  8
ANCON-TEXT
100
AcDbText
 10
219.3926669999999
 20
207.712556
 30
0.0
 40
9.0
  1
Ancon Building Productswill design a system to suit a 75mm cavity
  7
ROMANS
100
AcDbText
  0
TEXT
  5
337
330
280
100
AcDbEntity
  8
ANCON-TEXT
100
AcDbText
 10
219.3926669999999
 20
222.283985
 30
0.0
 40
9.0
  1
cavity width/load from masonry ie. MDC/I/75/5.6
  7
ROMANS
100
AcDbText
  0
TEXT
  5
338
330
280
100
AcDbEntity
  8
ANCON-TEXT
100
AcDbText
 10
219.3926669999999
 20
236.855413
 30
0.0
 40
9.0
  1
Ancon MDC/I Systems can be specified by the
  7
ROMANS
100
AcDbText
  0
LINE
  5
339
330
280
100
AcDbEntity
  8
ANCON-MASONRY
100
AcDbLine
 10
-140.0
 20
10.0
 30
0.0
 11
-140.0
 21
225.0
 31
0.0
  0
LINE
  5
33A
330
280
100
AcDbEntity
  8
ANCON-MASONRY
100
AcDbLine
 10
0.0
 20
10.0
 30
0.0
 11
0.0
 21
225.0
 31
0.0
  0
LINE
  5
33B
330
280
100
AcDbEntity
  8
ANCON-MASONRY
100
AcDbLine
 10
177.5
 20
10.0
 30
0.0
 11
177.5
 21
75.0
 31
0.0
  0
LINE
  5
33C
330
280
100
AcDbEntity
  8
ANCON-MASONRY
100
AcDbLine
 10
75.0
 20
25.0
 30
0.0
 11
75.0
 21
75.0
 31
0.0
  0
LINE
  5
33D
330
280
100
AcDbEntity
  8
ANCON-CHANNEL
100
AcDbLine
 10
-19.0
 20
-69.24321799096273
 30
0.0
 11
-83.49999999999994
 21
-69.24321799096276
 31
0.0
  0
LINE
  5
33E
330
280
100
AcDbEntity
  8
ANCON-CHANNEL
100
AcDbLine
 10
-19.0
 20
-80.75678200903729
 30
0.0
 11
-83.49999999999999
 21
-80.75678200903729
 31
0.0
  0
LINE
  5
33F
330
280
100
AcDbEntity
  8
ANCON-MASONRY
100
AcDbLine
 10
0.0
 20
10.0
 30
0.0
 11
-140.0
 21
10.0
 31
0.0
  0
LINE
  5
340
330
280
100
AcDbEntity
  8
ANCON-STRUC
100
AcDbLine
 10
0.0
 20
0.0
 30
0.0
 11
-217.745235
 21
0.0
 31
0.0
  0
LINE
  5
341
330
280
100
AcDbEntity
  8
ANCON-CHANNEL
100
AcDbLine
 10
-83.49999999999999
 20
-80.75678200903729
 30
0.0
 11
-83.49999999999999
 21
-69.24321799096273
 31
0.0
  0
LINE
  5
342
330
280
100
AcDbEntity
  8
ANCON-CHANNEL
100
AcDbLine
 10
-69.37668097754135
 20
-78.14157378642864
 30
0.0
 11
-69.37668097754135
 21
-74.31040919924277
 31
0.0
  0
LINE
  5
343
330
280
100
AcDbEntity
  8
ANCON-CHANNEL
100
AcDbLine
 10
-68.37668097754136
 20
-77.44074990351385
 30
0.0
 11
-68.37668097754136
 21
-74.31040919924277
 31
0.0
  0
LINE
  5
344
330
280
100
AcDbEntity
  8
ANCON-CHANNEL
100
AcDbLine
 10
-70.37668097754135
 20
-77.72107945667977
 30
0.0
 11
-70.37668097754135
 21
-75.52516829908416
 31
0.0
  0
LINE
  5
345
330
280
100
AcDbEntity
  8
ANCON-CHANNEL
100
AcDbLine
 10
-69.37668097754135
 20
-80.75678200903729
 30
0.0
 11
-69.37668097754135
 21
-78.79567377993828
 31
0.0
  0
LINE
  5
346
330
280
100
AcDbEntity
  8
ANCON-CHANNEL
100
AcDbLine
 10
-68.37668097754129
 20
-80.75678200903729
 30
0.0
 11
-68.37668097754136
 21
-78.84239629101688
 31
0.0
  0
LINE
  5
347
330
280
100
AcDbEntity
  8
ANCON-CHANNEL
100
AcDbLine
 10
-68.37668097754136
 20
-73.5161430508237
 30
0.0
 11
-68.37668097754136
 21
-71.50711780256319
 31
0.0
  0
LINE
  5
348
330
280
100
AcDbEntity
  8
ANCON-CHANNEL
100
AcDbLine
 10
-69.37668097754135
 20
-73.84319373674173
 30
0.0
 11
-69.37668097754135
 21
-71.69400371189829
 31
0.0
  0
LINE
  5
349
330
280
100
AcDbEntity
  8
ANCON-CHANNEL
100
AcDbLine
 10
-70.37668097754135
 20
-74.91778806000024
 30
0.0
 11
-70.37668097754135
 21
-73.18909236490566
 31
0.0
  0
LINE
  5
34A
330
280
100
AcDbEntity
  8
ANCON-CHANNEL
100
AcDbLine
 10
-70.37668097754135
 20
-72.53499099306953
 30
0.0
 11
-70.37668097754135
 21
-69.24321799096273
 31
0.0
  0
LINE
  5
34B
330
280
100
AcDbEntity
  8
ANCON-CHANNEL
100
AcDbLine
 10
-49.28589345062277
 20
-78.14157378642864
 30
0.0
 11
-49.28589345062277
 21
-74.31040919924277
 31
0.0
  0
LINE
  5
34C
330
280
100
AcDbEntity
  8
ANCON-CHANNEL
100
AcDbLine
 10
-48.28589345062278
 20
-77.44074990351385
 30
0.0
 11
-48.28589345062278
 21
-74.31040919924277
 31
0.0
  0
LINE
  5
34D
330
280
100
AcDbEntity
  8
ANCON-CHANNEL
100
AcDbLine
 10
-59.33128721408206
 20
-78.14157378642864
 30
0.0
 11
-59.33128721408206
 21
-74.31040919924277
 31
0.0
  0
LINE
  5
34E
330
280
100
AcDbEntity
  8
ANCON-CHANNEL
100
AcDbLine
 10
-58.33128721408207
 20
-77.44074990351385
 30
0.0
 11
-58.33128721408207
 21
-74.31040919924277
 31
0.0
  0
LINE
  5
34F
330
280
100
AcDbEntity
  8
ANCON-CHANNEL
100
AcDbLine
 10
-60.33128721408207
 20
-77.72107945667977
 30
0.0
 11
-60.33128721408207
 21
-75.52516829908416
 31
0.0
  0
LINE
  5
350
330
280
100
AcDbEntity
  8
ANCON-CHANNEL
100
AcDbLine
 10
-58.33128721408201
 20
-80.75678200903729
 30
0.0
 11
-58.33128721408207
 21
-78.84239629101688
 31
0.0
  0
LINE
  5
351
330
280
100
AcDbEntity
  8
ANCON-CHANNEL
100
AcDbLine
 10
-59.33128721408206
 20
-80.75678200903729
 30
0.0
 11
-59.33128721408206
 21
-78.79567377993828
 31
0.0
  0
LINE
  5
352
330
280
100
AcDbEntity
  8
ANCON-CHANNEL
100
AcDbLine
 10
-50.28589345062278
 20
-77.72107945667977
 30
0.0
 11
-50.28589345062278
 21
-75.52516829908416
 31
0.0
  0
LINE
  5
353
330
280
100
AcDbEntity
  8
ANCON-CHANNEL
100
AcDbLine
 10
-49.28589345062272
 20
-80.75678200903729
 30
0.0
 11
-49.28589345062277
 21
-78.79567377993828
 31
0.0
  0
LINE
  5
354
330
280
100
AcDbEntity
  8
ANCON-CHANNEL
100
AcDbLine
 10
-48.28589345062272
 20
-80.75678200903729
 30
0.0
 11
-48.28589345062278
 21
-78.84239629101688
 31
0.0
  0
LINE
  5
355
330
280
100
AcDbEntity
  8
ANCON-CHANNEL
100
AcDbLine
 10
-59.33128721408206
 20
-73.84319373674173
 30
0.0
 11
-59.33128721408206
 21
-71.69400371189829
 31
0.0
  0
LINE
  5
356
330
280
100
AcDbEntity
  8
ANCON-CHANNEL
100
AcDbLine
 10
-58.33128721408207
 20
-73.5161430508237
 30
0.0
 11
-58.33128721408207
 21
-71.50711780256319
 31
0.0
  0
LINE
  5
357
330
280
100
AcDbEntity
  8
ANCON-CHANNEL
100
AcDbLine
 10
-60.33128721408207
 20
-74.91778806000024
 30
0.0
 11
-60.33128721408207
 21
-73.18909236490566
 31
0.0
  0
LINE
  5
358
330
280
100
AcDbEntity
  8
ANCON-CHANNEL
100
AcDbLine
 10
-60.33128721408207
 20
-72.53499099306953
 30
0.0
 11
-60.33128721408207
 21
-68.99318120731004
 31
0.0
  0
LINE
  5
359
330
280
100
AcDbEntity
  8
ANCON-CHANNEL
100
AcDbLine
 10
-48.28589345062278
 20
-73.5161430508237
 30
0.0
 11
-48.28589345062278
 21
-71.50711780256319
 31
0.0
  0
LINE
  5
35A
330
280
100
AcDbEntity
  8
ANCON-CHANNEL
100
AcDbLine
 10
-49.28589345062277
 20
-73.84319373674173
 30
0.0
 11
-49.28589345062277
 21
-71.69400371189829
 31
0.0
  0
LINE
  5
35B
330
280
100
AcDbEntity
  8
ANCON-CHANNEL
100
AcDbLine
 10
-50.28589345062278
 20
-74.91778806000024
 30
0.0
 11
-50.28589345062278
 21
-73.18909236490566
 31
0.0
  0
LINE
  5
35C
330
280
100
AcDbEntity
  8
ANCON-CHANNEL
100
AcDbLine
 10
-50.28589345062278
 20
-72.53499099306953
 30
0.0
 11
-50.28589345062278
 21
-68.99318120731004
 31
0.0
  0
LINE
  5
35D
330
280
100
AcDbEntity
  8
ANCON-SUPPORT
100
AcDbLine
 10
4.0
 20
5.0
 30
0.0
 11
4.0
 21
-195.0
 31
0.0
  0
LINE
  5
35E
330
280
100
AcDbEntity
  8
ANCON-SUPPORT
100
AcDbLine
 10
0.0
 20
5.0
 30
0.0
 11
0.0
 21
-195.0
 31
0.0
  0
LINE
  5
35F
330
280
100
AcDbEntity
  8
ANCON-SUPPORT
100
AcDbLine
 10
55.0
 20
5.0
 30
0.0
 11
55.0
 21
-195.0
 31
0.0
  0
LINE
  5
360
330
280
100
AcDbEntity
  8
ANCON-MASONRY
100
AcDbLine
 10
177.5
 20
-215.0
 30
0.0
 11
177.5
 21
-150.0
 31
0.0
  0
LINE
  5
361
330
280
100
AcDbEntity
  8
ANCON-MASONRY
100
AcDbLine
 10
75.0
 20
-215.0
 30
0.0
 11
75.0
 21
-150.0
 31
0.0
  0
LINE
  5
362
330
280
100
AcDbEntity
  8
ANCON-STRUC
100
AcDbLine
 10
0.0
 20
-290.0
 30
0.0
 11
0.0
 21
0.0
 31
0.0
  0
LINE
  5
363
330
280
100
AcDbEntity
  8
ANCON-MASONRY
100
AcDbLine
 10
75.0
 20
-215.0
 30
0.0
 11
177.5
 21
-215.0
 31
0.0
  0
LINE
  5
364
330
280
100
AcDbEntity
  8
ANCON-MASONRY
100
AcDbLine
 10
75.0
 20
-225.0
 30
0.0
 11
177.5
 21
-225.0
 31
0.0
  0
LINE
  5
365
330
280
100
AcDbEntity
  8
ANCON-MASONRY
100
AcDbLine
 10
75.0
 20
-290.0
 30
0.0
 11
75.0
 21
-225.0
 31
0.0
  0
LINE
  5
366
330
280
100
AcDbEntity
  8
ANCON-SUPPORT
100
AcDbLine
 10
0.0
 20
-195.0
 30
0.0
 11
55.0
 21
-195.0
 31
0.0
  0
LINE
  5
367
330
280
100
AcDbEntity
  8
ANCON-MASONRY
100
AcDbLine
 10
177.5
 20
-290.0
 30
0.0
 11
177.5
 21
-225.0
 31
0.0
  0
LINE
  5
368
330
280
100
AcDbEntity
  8
ANCON-MASONRY
100
AcDbLine
 10
75.0
 20
25.0
 30
0.0
 11
152.5
 21
25.0
 31
0.0
  0
LINE
  5
369
330
280
100
AcDbEntity
  8
ANCON-SUPPORT
100
AcDbLine
 10
69.0
 20
10.0
 30
0.0
 11
145.0
 21
10.0
 31
0.0
  0
LINE
  5
36A
330
280
100
AcDbEntity
  8
ANCON-SUPPORT
100
AcDbLine
 10
69.0
 20
16.0
 30
0.0
 11
145.0
 21
16.0
 31
0.0
  0
LINE
  5
36B
330
280
100
AcDbEntity
  8
ANCON-MASONRY
100
AcDbLine
 10
75.0
 20
-65.0
 30
0.0
 11
177.5
 21
-65.0
 31
0.0
  0
LINE
  5
36C
330
280
100
AcDbEntity
  8
ANCON-MASONRY
100
AcDbLine
 10
75.0
 20
0.0
 30
0.0
 11
177.5
 21
0.0
 31
0.0
  0
LINE
  5
36D
330
280
100
AcDbEntity
  8
ANCON-MASONRY
100
AcDbLine
 10
75.0
 20
-75.0
 30
0.0
 11
177.5
 21
-75.0
 31
0.0
  0
LINE
  5
36E
330
280
100
AcDbEntity
  8
ANCON-MASONRY
100
AcDbLine
 10
75.0
 20
-140.0
 30
0.0
 11
177.5
 21
-140.0
 31
0.0
  0
LINE
  5
36F
330
280
100
AcDbEntity
  8
ANCON-MASONRY
100
AcDbLine
 10
75.0
 20
-150.0
 30
0.0
 11
177.5
 21
-150.0
 31
0.0
  0
ARC
  5
370
330
280
100
AcDbEntity
  8
ANCON-CHANNEL
100
AcDbCircle
 10
-4.5
 20
-66.95358185741714
 30
0.0
 40
4.5
100
AcDbArc
 50
0.0
 51
110.224859431168
  0
LINE
  5
371
330
280
100
AcDbEntity
  8
ANCON-MASONRY
100
AcDbLine
 10
75.0
 20
-65.0
 30
0.0
 11
75.0
 21
0.0
 31
0.0
  0
LINE
  5
372
330
280
100
AcDbEntity
  8
ANCON-CHANNEL
100
AcDbLine
 10
-6.055674114723046
 20
-87.26896216825995
 30
0.0
 11
-17.36426339706838
 21
-83.10263980108008
 31
0.0
  0
LINE
  5
373
330
280
100
AcDbEntity
  8
ANCON-CHANNEL
100
AcDbLine
 10
-5.191410717654662
 20
-84.92310437621716
 30
0.0
 11
-16.5
 21
-80.75678200903729
 31
0.0
  0
LINE
  5
374
330
280
100
AcDbEntity
  8
ANCON-CHANNEL
100
AcDbLine
 10
-17.36426339706838
 20
-66.89736019891995
 30
0.0
 11
-6.055674114723103
 21
-62.73103783174014
 31
0.0
  0
LINE
  5
375
330
280
100
AcDbEntity
  8
ANCON-CHANNEL
100
AcDbLine
 10
-16.5
 20
-69.24321799096276
 30
0.0
 11
-5.191410717654719
 21
-65.07689562378288
 31
0.0
  0
LINE
  5
376
330
280
100
AcDbEntity
  8
ANCON-CHANNEL
100
AcDbLine
 10
-29.1951059237042
 20
-78.14157378642864
 30
0.0
 11
-29.1951059237042
 21
-74.31040919924277
 31
0.0
  0
LINE
  5
377
330
280
100
AcDbEntity
  8
ANCON-CHANNEL
100
AcDbLine
 10
-28.1951059237042
 20
-77.44074990351385
 30
0.0
 11
-28.1951059237042
 21
-74.31040919924277
 31
0.0
  0
LINE
  5
378
330
280
100
AcDbEntity
  8
ANCON-CHANNEL
100
AcDbLine
 10
-38.24049968716349
 20
-77.44074990351385
 30
0.0
 11
-38.24049968716349
 21
-74.31040919924277
 31
0.0
  0
LINE
  5
379
330
280
100
AcDbEntity
  8
ANCON-CHANNEL
100
AcDbLine
 10
-39.24049968716349
 20
-78.14157378642864
 30
0.0
 11
-39.24049968716349
 21
-74.31040919924277
 31
0.0
  0
LINE
  5
37A
330
280
100
AcDbEntity
  8
ANCON-CHANNEL
100
AcDbLine
 10
-38.24049968716343
 20
-80.75678200903729
 30
0.0
 11
-38.24049968716349
 21
-78.84239629101688
 31
0.0
  0
LINE
  5
37B
330
280
100
AcDbEntity
  8
ANCON-CHANNEL
100
AcDbLine
 10
-40.24049968716349
 20
-77.72107945667977
 30
0.0
 11
-40.24049968716349
 21
-75.52516829908416
 31
0.0
  0
LINE
  5
37C
330
280
100
AcDbEntity
  8
ANCON-CHANNEL
100
AcDbLine
 10
-39.24049968716349
 20
-80.75678200903729
 30
0.0
 11
-39.24049968716349
 21
-78.79567377993828
 31
0.0
  0
LINE
  5
37D
330
280
100
AcDbEntity
  8
ANCON-CHANNEL
100
AcDbLine
 10
-28.1951059237042
 20
-80.75678200903729
 30
0.0
 11
-28.1951059237042
 21
-78.84239629101688
 31
0.0
  0
LINE
  5
37E
330
280
100
AcDbEntity
  8
ANCON-CHANNEL
100
AcDbLine
 10
-29.1951059237042
 20
-80.75678200903729
 30
0.0
 11
-29.1951059237042
 21
-78.79567377993828
 31
0.0
  0
LINE
  5
37F
330
280
100
AcDbEntity
  8
ANCON-CHANNEL
100
AcDbLine
 10
-30.1951059237042
 20
-77.72107945667977
 30
0.0
 11
-30.1951059237042
 21
-75.52516829908416
 31
0.0
  0
LINE
  5
380
330
280
100
AcDbEntity
  8
ANCON-CHANNEL
100
AcDbLine
 10
-38.24049968716349
 20
-73.5161430508237
 30
0.0
 11
-38.24049968716349
 21
-71.50711780256319
 31
0.0
  0
LINE
  5
381
330
280
100
AcDbEntity
  8
ANCON-CHANNEL
100
AcDbLine
 10
-39.24049968716349
 20
-73.84319373674173
 30
0.0
 11
-39.24049968716349
 21
-71.69400371189829
 31
0.0
  0
LINE
  5
382
330
280
100
AcDbEntity
  8
ANCON-CHANNEL
100
AcDbLine
 10
-40.24049968716349
 20
-74.91778806000024
 30
0.0
 11
-40.24049968716349
 21
-73.18909236490566
 31
0.0
  0
LINE
  5
383
330
280
100
AcDbEntity
  8
ANCON-CHANNEL
100
AcDbLine
 10
-40.24049968716349
 20
-72.53499099306953
 30
0.0
 11
-40.24049968716349
 21
-69.24321799096273
 31
0.0
  0
LINE
  5
384
330
280
100
AcDbEntity
  8
ANCON-CHANNEL
100
AcDbLine
 10
-28.1951059237042
 20
-73.5161430508237
 30
0.0
 11
-28.1951059237042
 21
-71.50711780256319
 31
0.0
  0
LINE
  5
385
330
280
100
AcDbEntity
  8
ANCON-CHANNEL
100
AcDbLine
 10
-29.1951059237042
 20
-73.84319373674173
 30
0.0
 11
-29.1951059237042
 21
-71.69400371189829
 31
0.0
  0
LINE
  5
386
330
280
100
AcDbEntity
  8
ANCON-CHANNEL
100
AcDbLine
 10
-30.1951059237042
 20
-74.91778806000024
 30
0.0
 11
-30.1951059237042
 21
-73.18909236490566
 31
0.0
  0
LINE
  5
387
330
280
100
AcDbEntity
  8
ANCON-CHANNEL
100
AcDbLine
 10
-30.1951059237042
 20
-72.53499099306953
 30
0.0
 11
-30.1951059237042
 21
-68.99318120731004
 31
0.0
  0
LINE
  5
388
330
280
100
AcDbEntity
  8
ANCON-CHANNEL
100
AcDbLine
 10
-19.0
 20
-75.0
 30
0.0
 11
-19.0
 21
-80.75678200903729
 31
0.0
  0
LINE
  5
389
330
280
100
AcDbEntity
  8
ANCON-CHANNEL
100
AcDbLine
 10
-16.5
 20
-80.75678200903729
 30
0.0
 11
-16.5
 21
-69.24321799096276
 31
0.0
  0
LINE
  5
38A
330
280
100
AcDbEntity
  8
ANCON-CHANNEL
100
AcDbLine
 10
-13.50000000000005
 20
-80.75678200903729
 30
0.0
 11
-13.5
 21
-69.24321799096276
 31
0.0
  0
ARC
  5
38B
330
280
100
AcDbEntity
  8
ANCON-CHANNEL
100
AcDbCircle
 10
-16.5
 20
-80.75678200903729
 30
0.0
 40
2.5
100
AcDbArc
 50
180.0
 51
249.7751405688319
  0
LINE
  5
38C
330
280
100
AcDbEntity
  8
ANCON-CHANNEL
100
AcDbLine
 10
-16.5
 20
-80.75678200903729
 30
0.0
 11
-13.5
 21
-80.75678200903729
 31
0.0
  0
ARC
  5
38D
330
280
100
AcDbEntity
  8
ANCON-CHANNEL
100
AcDbCircle
 10
-16.5
 20
-69.2432179909627
 30
0.0
 40
2.5
100
AcDbArc
 50
110.224859431168
 51
180.0
  0
LINE
  5
38E
330
280
100
AcDbEntity
  8
ANCON-CHANNEL
100
AcDbLine
 10
-19.0
 20
-75.0
 30
0.0
 11
-19.0
 21
-69.2432179909627
 31
0.0
  0
LINE
  5
38F
330
280
100
AcDbEntity
  8
ANCON-CHANNEL
100
AcDbLine
 10
-16.5
 20
-69.24321799096276
 30
0.0
 11
-13.5
 21
-69.24321799096276
 31
0.0
  0
ARC
  5
390
330
280
100
AcDbEntity
  8
ANCON-CHANNEL
100
AcDbCircle
 10
-4.499999999999943
 20
-83.04641814258292
 30
0.0
 40
4.5
100
AcDbArc
 50
249.7751405688319
 51
0.0
  0
LINE
  5
391
330
280
100
AcDbEntity
  8
ANCON-CHANNEL
100
AcDbLine
 10
-2.5
 20
-82.0
 30
0.0
 11
0.0
 21
-82.0
 31
0.0
  0
LINE
  5
392
330
280
100
AcDbEntity
  8
ANCON-CHANNEL
100
AcDbLine
 10
0.0
 20
-82.5
 30
0.0
 11
0.0
 21
-83.04641814258292
 31
0.0
  0
ARC
  5
393
330
280
100
AcDbEntity
  8
ANCON-CHANNEL
100
AcDbCircle
 10
-4.499999999999943
 20
-83.04641814258292
 30
0.0
 40
2.0
100
AcDbArc
 50
249.7751405688319
 51
0.0
  0
LINE
  5
394
330
280
100
AcDbEntity
  8
ANCON-CHANNEL
100
AcDbLine
 10
0.0
 20
-83.04641814258292
 30
0.0
 11
0.0
 21
-82.0
 31
0.0
  0
LINE
  5
395
330
280
100
AcDbEntity
  8
ANCON-CHANNEL
100
AcDbLine
 10
-2.499999999999943
 20
-83.04641814258292
 30
0.0
 11
-2.5
 21
-82.0
 31
0.0
  0
LINE
  5
396
330
280
100
AcDbEntity
  8
ANCON-CHANNEL
100
AcDbLine
 10
0.0
 20
-82.0
 30
0.0
 11
0.0
 21
-82.5
 31
0.0
  0
LINE
  5
397
330
280
100
AcDbEntity
  8
ANCON-CHANNEL
100
AcDbLine
 10
0.0
 20
-68.0
 30
0.0
 11
0.0
 21
-67.5
 31
0.0
  0
LINE
  5
398
330
280
100
AcDbEntity
  8
ANCON-CHANNEL
100
AcDbLine
 10
0.0
 20
-67.5
 30
0.0
 11
0.0
 21
-68.0
 31
0.0
  0
LINE
  5
399
330
280
100
AcDbEntity
  8
ANCON-CHANNEL
100
AcDbLine
 10
-2.5
 20
-68.0
 30
0.0
 11
-2.5
 21
-66.95358185741714
 31
0.0
  0
LINE
  5
39A
330
280
100
AcDbEntity
  8
ANCON-CHANNEL
100
AcDbLine
 10
0.0
 20
-68.0
 30
0.0
 11
0.0
 21
-66.95358185741714
 31
0.0
  0
LINE
  5
39B
330
280
100
AcDbEntity
  8
ANCON-CHANNEL
100
AcDbLine
 10
-2.5
 20
-68.0
 30
0.0
 11
0.0
 21
-68.0
 31
0.0
  0
ARC
  5
39C
330
280
100
AcDbEntity
  8
ANCON-CHANNEL
100
AcDbCircle
 10
-4.5
 20
-66.95358185741714
 30
0.0
 40
2.0
100
AcDbArc
 50
0.0
 51
110.224859431168
  0
LINE
  5
39D
330
280
100
AcDbEntity
  8
ANCON-MASONRY
100
AcDbLine
 10
75.0
 20
-140.0
 30
0.0
 11
75.0
 21
-75.0
 31
0.0
  0
LINE
  5
39E
330
280
100
AcDbEntity
  8
ANCON-SUPPORT
100
AcDbLine
 10
0.0
 20
5.0
 30
0.0
 11
55.0
 21
5.0
 31
0.0
  0
LINE
  5
39F
330
280
100
AcDbEntity
  8
ANCON-SUPPORT
100
AcDbLine
 10
61.0
 20
-54.0
 30
0.0
 11
61.0
 21
2.0
 31
0.0
  0
LINE
  5
3A0
330
280
100
AcDbEntity
  8
ANCON-SUPPORT
100
AcDbLine
 10
55.0
 20
-54.0
 30
0.0
 11
55.0
 21
2.0
 31
0.0
  0
LINE
  5
3A1
330
280
100
AcDbEntity
  8
ANCON-SUPPORT
100
AcDbLine
 10
55.0
 20
-54.0
 30
0.0
 11
61.0
 21
-54.0
 31
0.0
  0
ARC
  5
3A2
330
280
100
AcDbEntity
  8
ANCON-SUPPORT
100
AcDbCircle
 10
69.0
 20
2.0
 30
0.0
 40
14.0
100
AcDbArc
 50
90.0
 51
180.0
  0
ARC
  5
3A3
330
280
100
AcDbEntity
  8
ANCON-SUPPORT
100
AcDbCircle
 10
69.0
 20
2.0
 30
0.0
 40
8.0
100
AcDbArc
 50
90.0
 51
180.0
  0
LINE
  5
3A4
330
280
100
AcDbEntity
  8
ANCON-MASONRY
100
AcDbLine
 10
177.5
 20
-65.0
 30
0.0
 11
177.5
 21
0.0
 31
0.0
  0
LINE
  5
3A5
330
280
100
AcDbEntity
  8
ANCON-MASONRY
100
AcDbLine
 10
177.5
 20
-140.0
 30
0.0
 11
177.5
 21
-75.0
 31
0.0
  0
LINE
  5
3A6
330
280
100
AcDbEntity
  8
ANCON-MASONRY
100
AcDbLine
 10
152.5
 20
10.0
 30
0.0
 11
177.5
 21
10.0
 31
0.0
  0
LINE
  5
3A7
330
280
100
AcDbEntity
  8
ANCON-MASONRY
100
AcDbLine
 10
152.5
 20
10.0
 30
0.0
 11
152.5
 21
25.0
 31
0.0
  0
LINE
  5
3A8
330
280
100
AcDbEntity
  8
ANCON-SUPPORT
100
AcDbLine
 10
145.0
 20
10.0
 30
0.0
 11
145.0
 21
16.0
 31
0.0
  0
LINE
  5
3A9
330
280
100
AcDbEntity
  8
ANCON-MASONRY
100
AcDbLine
 10
0.0
 20
235.0
 30
0.0
 11
-140.0
 21
235.0
 31
0.0
  0
LINE
  5
3AA
330
280
100
AcDbEntity
  8
ANCON-MASONRY
100
AcDbLine
 10
0.0
 20
225.0
 30
0.0
 11
-140.0
 21
225.0
 31
0.0
  0
LINE
  5
3AB
330
280
100
AcDbEntity
  8
ANCON-TIE
100
AcDbLine
 10
35.0
 20
228.75
 30
0.0
 11
-60.0
 21
228.75
 31
0.0
  0
LINE
  5
3AC
330
280
100
AcDbEntity
  8
ANCON-TIE
100
AcDbLine
 10
35.0
 20
231.25
 30
0.0
 11
-60.0
 21
231.25
 31
0.0
  0
LINE
  5
3AD
330
280
100
AcDbEntity
  8
ANCON-MASONRY
100
AcDbLine
 10
-140.0
 20
235.0
 30
0.0
 11
-140.0
 21
300.0
 31
0.0
  0
LINE
  5
3AE
330
280
100
AcDbEntity
  8
ANCON-TIE
100
AcDbLine
 10
-60.0
 20
231.25
 30
0.0
 11
-60.0
 21
228.75
 31
0.0
  0
LINE
  5
3AF
330
280
100
AcDbEntity
  8
ANCON-MASONRY
100
AcDbLine
 10
75.0
 20
235.0
 30
0.0
 11
75.0
 21
300.0
 31
0.0
  0
LINE
  5
3B0
330
280
100
AcDbEntity
  8
ANCON-MASONRY
100
AcDbLine
 10
177.5
 20
235.0
 30
0.0
 11
177.5
 21
300.0
 31
0.0
  0
LINE
  5
3B1
330
280
100
AcDbEntity
  8
ANCON-MASONRY
100
AcDbLine
 10
0.0
 20
235.0
 30
0.0
 11
0.0
 21
300.0
 31
0.0
  0
LINE
  5
3B2
330
280
100
AcDbEntity
  8
ANCON-MASONRY
100
AcDbLine
 10
75.0
 20
235.0
 30
0.0
 11
177.5
 21
235.0
 31
0.0
  0
LINE
  5
3B3
330
280
100
AcDbEntity
  8
ANCON-MASONRY
100
AcDbLine
 10
75.0
 20
160.0
 30
0.0
 11
177.5
 21
160.0
 31
0.0
  0
LINE
  5
3B4
330
280
100
AcDbEntity
  8
ANCON-MASONRY
100
AcDbLine
 10
75.0
 20
225.0
 30
0.0
 11
177.5
 21
225.0
 31
0.0
  0
LINE
  5
3B5
330
280
100
AcDbEntity
  8
ANCON-MASONRY
100
AcDbLine
 10
75.0
 20
150.0
 30
0.0
 11
177.5
 21
150.0
 31
0.0
  0
LINE
  5
3B6
330
280
100
AcDbEntity
  8
ANCON-TIE
100
AcDbLine
 10
140.0
 20
228.75
 30
0.0
 11
65.0
 21
228.75
 31
0.0
  0
LINE
  5
3B7
330
280
100
AcDbEntity
  8
ANCON-TIE
100
AcDbLine
 10
140.0
 20
231.25
 30
0.0
 11
65.0
 21
231.25
 31
0.0
  0
LINE
  5
3B8
330
280
100
AcDbEntity
  8
ANCON-MASONRY
100
AcDbLine
 10
75.0
 20
85.0
 30
0.0
 11
177.5
 21
85.0
 31
0.0
  0
LINE
  5
3B9
330
280
100
AcDbEntity
  8
ANCON-MASONRY
100
AcDbLine
 10
75.0
 20
75.0
 30
0.0
 11
177.5
 21
75.0
 31
0.0
  0
LINE
  5
3BA
330
280
100
AcDbEntity
  8
ANCON-MASONRY
100
AcDbLine
 10
75.0
 20
85.0
 30
0.0
 11
75.0
 21
150.0
 31
0.0
  0
LINE
  5
3BB
330
280
100
AcDbEntity
  8
ANCON-MASONRY
100
AcDbLine
 10
75.0
 20
160.0
 30
0.0
 11
75.0
 21
225.0
 31
0.0
  0
LINE
  5
3BC
330
280
100
AcDbEntity
  8
ANCON-TIE
100
AcDbLine
 10
50.0
 20
224.75
 30
0.0
 11
65.0
 21
228.75
 31
0.0
  0
LINE
  5
3BD
330
280
100
AcDbEntity
  8
ANCON-TIE
100
AcDbLine
 10
50.0
 20
227.2499999999999
 30
0.0
 11
65.0
 21
231.25
 31
0.0
  0
LINE
  5
3BE
330
280
100
AcDbEntity
  8
ANCON-TIE
100
AcDbLine
 10
35.0
 20
228.75
 30
0.0
 11
50.0
 21
224.75
 31
0.0
  0
LINE
  5
3BF
330
280
100
AcDbEntity
  8
ANCON-TIE
100
AcDbLine
 10
35.0
 20
231.25
 30
0.0
 11
50.0
 21
227.2499999999999
 31
0.0
  0
LINE
  5
3C0
330
280
100
AcDbEntity
  8
ANCON-MASONRY
100
AcDbLine
 10
177.5
 20
85.0
 30
0.0
 11
177.5
 21
150.0
 31
0.0
  0
LINE
  5
3C1
330
280
100
AcDbEntity
  8
ANCON-TIE
100
AcDbLine
 10
140.0
 20
231.25
 30
0.0
 11
140.0
 21
228.75
 31
0.0
  0
LINE
  5
3C2
330
280
100
AcDbEntity
  8
ANCON-MASONRY
100
AcDbLine
 10
177.5
 20
160.0
 30
0.0
 11
177.5
 21
225.0
 31
0.0
  0
ENDBLK
  5
332
330
280
100
AcDbEntity
  8
0
100
AcDbBlockEnd
  0
ENDSEC
  0
SECTION
  2
ENTITIES
  0
LINE
  5
95
330
17
100
AcDbEntity
  8
ANCON-STRUC
100
AcDbLine
 10
0.0
 20
-365.0
 30
0.0
 11
0.0
 21
-75.0
 31
0.0
  0
LINE
  5
96
330
17
100
AcDbEntity
  8
ANCON-MASONRY
100
AcDbLine
 10
75.0
 20
-290.0
 30
0.0
 11
75.0
 21
-225.0
 31
0.0
  0
LINE
  5
97
330
17
100
AcDbEntity
  8
ANCON-MASONRY
100
AcDbLine
 10
177.5
 20
-290.0
 30
0.0
 11
177.5
 21
-225.0
 31
0.0
  0
LINE
  5
98
330
17
100
AcDbEntity
  8
ANCON-MASONRY
100
AcDbLine
 10
152.5
 20
-65.0
 30
0.0
 11
177.5
 21
-65.0
 31
0.0
  0
LINE
  5
99
330
17
100
AcDbEntity
  8
ANCON-MASONRY
100
AcDbLine
 10
75.0
 20
-225.0
 30
0.0
 11
177.5
 21
-225.0
 31
0.0
  0
LINE
  5
9A
330
17
100
AcDbEntity
  8
ANCON-MASONRY
100
AcDbLine
 10
75.0
 20
-215.0
 30
0.0
 11
177.5
 21
-215.0
 31
0.0
  0
LINE
  5
9B
330
17
100
AcDbEntity
  8
ANCON-MASONRY
100
AcDbLine
 10
75.0
 20
-150.0
 30
0.0
 11
177.5
 21
-150.0
 31
0.0
  0
LINE
  5
9C
330
17
100
AcDbEntity
  8
ANCON-MASONRY
100
AcDbLine
 10
75.0
 20
-215.0
 30
0.0
 11
75.0
 21
-150.0
 31
0.0
  0
LINE
  5
9D
330
17
100
AcDbEntity
  8
ANCON-MASONRY
100
AcDbLine
 10
177.5
 20
-215.0
 30
0.0
 11
177.5
 21
-150.0
 31
0.0
  0
LINE
  5
9E
330
17
100
AcDbEntity
  8
ANCON-MASONRY
100
AcDbLine
 10
75.0
 20
-75.0
 30
0.0
 11
177.5
 21
-75.0
 31
0.0
  0
LINE
  5
9F
330
17
100
AcDbEntity
  8
ANCON-MASONRY
100
AcDbLine
 10
75.0
 20
-140.0
 30
0.0
 11
177.5
 21
-140.0
 31
0.0
  0
LINE
  5
A0
330
17
100
AcDbEntity
  8
ANCON-MASONRY
100
AcDbLine
 10
75.0
 20
-140.0
 30
0.0
 11
75.0
 21
-75.0
 31
0.0
  0
LINE
  5
A1
330
17
100
AcDbEntity
  8
ANCON-MASONRY
100
AcDbLine
 10
177.5
 20
-140.0
 30
0.0
 11
177.5
 21
-75.0
 31
0.0
  0
LINE
  5
A2
330
17
100
AcDbEntity
  8
ANCON-MASONRY
100
AcDbLine
 10
75.0
 20
0.0
 30
0.0
 11
177.5
 21
0.0
 31
0.0
  0
LINE
  5
A3
330
17
100
AcDbEntity
  8
ANCON-MASONRY
100
AcDbLine
 10
75.0
 20
-50.0
 30
0.0
 11
75.0
 21
0.0
 31
0.0
  0
LINE
  5
A4
330
17
100
AcDbEntity
  8
ANCON-MASONRY
100
AcDbLine
 10
177.5
 20
-65.0
 30
0.0
 11
177.5
 21
0.0
 31
0.0
  0
LINE
  5
A5
330
17
100
AcDbEntity
  8
ANCON-SUPPORT
100
AcDbLine
 10
55.0
 20
-129.0
 30
0.0
 11
55.0
 21
-73.0
 31
0.0
  0
LINE
  5
A6
330
17
100
AcDbEntity
  8
ANCON-SUPPORT
100
AcDbLine
 10
69.0
 20
-59.0
 30
0.0
 11
145.0
 21
-59.0
 31
0.0
  0
LINE
  5
A7
330
17
100
AcDbEntity
  8
ANCON-SUPPORT
100
AcDbLine
 10
61.0
 20
-129.0
 30
0.0
 11
61.0
 21
-73.0
 31
0.0
  0
LINE
  5
A8
330
17
100
AcDbEntity
  8
ANCON-SUPPORT
100
AcDbLine
 10
69.0
 20
-65.0
 30
0.0
 11
145.0
 21
-65.0
 31
0.0
  0
LINE
  5
A9
330
17
100
AcDbEntity
  8
ANCON-SUPPORT
100
AcDbLine
 10
55.0
 20
-129.0
 30
0.0
 11
61.0
 21
-129.0
 31
0.0
  0
LINE
  5
AA
330
17
100
AcDbEntity
  8
ANCON-SUPPORT
100
AcDbLine
 10
145.0
 20
-65.0
 30
0.0
 11
145.0
 21
-59.0
 31
0.0
  0
ARC
  5
AB
330
17
100
AcDbEntity
  8
ANCON-SUPPORT
100
AcDbCircle
 10
69.0
 20
-73.0
 30
0.0
 40
8.0
100
AcDbArc
 50
90.0
 51
180.0
  0
ARC
  5
AC
330
17
100
AcDbEntity
  8
ANCON-SUPPORT
100
AcDbCircle
 10
69.0
 20
-73.0
 30
0.0
 40
14.0
100
AcDbArc
 50
90.0
 51
180.0
  0
LINE
  5
AD
330
17
100
AcDbEntity
  8
ANCON-MASONRY
100
AcDbLine
 10
75.0
 20
-300.0
 30
0.0
 11
177.5
 21
-300.0
 31
0.0
  0
LINE
  5
AE
330
17
100
AcDbEntity
  8
ANCON-MASONRY
100
AcDbLine
 10
75.0
 20
-365.0
 30
0.0
 11
75.0
 21
-300.0
 31
0.0
  0
LINE
  5
AF
330
17
100
AcDbEntity
  8
ANCON-MASONRY
100
AcDbLine
 10
177.5
 20
-365.0
 30
0.0
 11
177.5
 21
-300.0
 31
0.0
  0
LINE
  5
B0
330
17
100
AcDbEntity
  8
ANCON-MASONRY
100
AcDbLine
 10
152.5
 20
-65.0
 30
0.0
 11
152.5
 21
-50.0
 31
0.0
  0
LINE
  5
B1
330
17
100
AcDbEntity
  8
ANCON-MASONRY
100
AcDbLine
 10
75.0
 20
-50.0
 30
0.0
 11
152.5
 21
-50.0
 31
0.0
  0
TEXT
  5
B2
330
17
100
AcDbEntity
  8
ANCON-TEXT
100
AcDbText
 10
-388.353881
 20
114.7642759999999
 30
0.0
 40
9.0
  1

  7
ROMANS
100
AcDbText
  0
TEXT
  5
B3
330
17
100
AcDbEntity
  8
ANCON-TEXT
100
AcDbText
 10
-388.353881
 20
100.407172
 30
0.0
 40
9.0
  1

  7
ROMANS
100
AcDbText
  0
LINE
  5
118
330
17
100
AcDbEntity
  8
ANCON-MASONRY
100
AcDbLine
 10
75.0
 20
10.0
 30
0.0
 11
177.5
 21
10.0
 31
0.0
  0
LINE
  5
119
330
17
100
AcDbEntity
  8
ANCON-MASONRY
100
AcDbLine
 10
75.0
 20
10.0
 30
0.0
 11
75.0
 21
75.0
 31
0.0
  0
LINE
  5
11A
330
17
100
AcDbEntity
  8
ANCON-MASONRY
100
AcDbLine
 10
177.5
 20
10.0
 30
0.0
 11
177.5
 21
75.0
 31
0.0
  0
LINE
  5
11B
330
17
100
AcDbEntity
  8
ANCON-TIE
100
AcDbLine
 10
140.0
 20
156.25
 30
0.0
 11
65.0
 21
156.25
 31
0.0
  0
LINE
  5
11C
330
17
100
AcDbEntity
  8
ANCON-TIE
100
AcDbLine
 10
140.0
 20
153.75
 30
0.0
 11
65.0
 21
153.75
 31
0.0
  0
LINE
  5
11D
330
17
100
AcDbEntity
  8
ANCON-TIE
100
AcDbLine
 10
140.0
 20
156.25
 30
0.0
 11
140.0
 21
153.75
 31
0.0
  0
LINE
  5
11E
330
17
100
AcDbEntity
  8
ANCON-TIE
100
AcDbLine
 10
35.0
 20
156.25
 30
0.0
 11
-60.0
 21
156.25
 31
0.0
  0
LINE
  5
11F
330
17
100
AcDbEntity
  8
ANCON-TIE
100
AcDbLine
 10
35.0
 20
153.75
 30
0.0
 11
-60.0
 21
153.75
 31
0.0
  0
LINE
  5
120
330
17
100
AcDbEntity
  8
ANCON-TIE
100
AcDbLine
 10
35.0
 20
156.25
 30
0.0
 11
50.0
 21
152.2499999999999
 31
0.0
  0
LINE
  5
121
330
17
100
AcDbEntity
  8
ANCON-TIE
100
AcDbLine
 10
50.0
 20
152.2499999999999
 30
0.0
 11
65.0
 21
156.25
 31
0.0
  0
LINE
  5
122
330
17
100
AcDbEntity
  8
ANCON-TIE
100
AcDbLine
 10
50.0
 20
149.75
 30
0.0
 11
65.0
 21
153.75
 31
0.0
  0
LINE
  5
123
330
17
100
AcDbEntity
  8
ANCON-TIE
100
AcDbLine
 10
35.0
 20
153.75
 30
0.0
 11
50.0
 21
149.75
 31
0.0
  0
TEXT
  5
124
330
17
100
AcDbEntity
  8
GENTEXT
100
AcDbText
 10
787.8674599999999
 20
408.490406
 30
0.0
 40
9.0
  1

  7
ROMANS
100
AcDbText
  0
TEXT
  5
125
330
17
100
AcDbEntity
  8
ANCON-TEXT
100
AcDbText
 10
146.4484969999999
 20
5.913549999999999
 30
0.0
 40
9.0
  1

  7
ROMANS
100
AcDbText
  0
TEXT
  5
126
330
17
100
AcDbEntity
  8
ANCON-TEXT
100
AcDbText
 10
146.4484969999999
 20
-8.443552999999999
 30
0.0
 40
9.0
  1

  7
ROMANS
100
AcDbText
  0
TEXT
  5
143
330
17
100
AcDbEntity
  8
ANCON-TEXT
100
AcDbText
 10
305.784133
 20
-233.604074
 30
0.0
 40
9.0
  1

  7
ROMANS
100
AcDbText
  0
TEXT
  5
14B
330
17
100
AcDbEntity
  8
ANCON-TEXT
100
AcDbText
 10
305.784133
 20
-174.789879
 30
0.0
 40
9.0
  1

  7
ROMANS
100
AcDbText
  0
TEXT
  5
14C
330
17
100
AcDbEntity
  8
ANCON-TEXT
100
AcDbText
 10
219.3926669999999
 20
161.8554129999999
 30
0.0
 40
9.0
  1
Ancon MDC/I Systems can be specified by the
  7
ROMANS
100
AcDbText
  0
TEXT
  5
14D
330
17
100
AcDbEntity
  8
ANCON-TEXT
100
AcDbText
 10
219.3926669999999
 20
147.2839849999999
 30
0.0
 40
9.0
  1
cavity width/load from masonry ie. MDC/I/75/5.6
  7
ROMANS
100
AcDbText
  0
TEXT
  5
14E
330
17
100
AcDbEntity
  8
ANCON-TEXT
100
AcDbText
 10
219.3926669999999
 20
132.712556
 30
0.0
 40
9.0
  1
Ancon Building Productswill design a system to suit a 75mm cavity
  7
ROMANS
100
AcDbText
  0
TEXT
  5
14F
330
17
100
AcDbEntity
  8
ANCON-TEXT
100
AcDbText
 10
219.3926669999999
 20
118.141128
 30
0.0
 40
9.0
  1
and carry 5.6 kilonewtons load per metre run.
  7
ROMANS
100
AcDbText
  0
LINE
  5
150
330
17
100
AcDbEntity
  8
ANCON-STRUC
100
AcDbLine
 10
0.0
 20
-75.0
 30
0.0
 11
-217.745235
 21
-75.0
 31
0.0
  0
LINE
  5
151
330
17
100
AcDbEntity
  8
ANCON-MASONRY
100
AcDbLine
 10
0.0
 20
-65.0
 30
0.0
 11
-140.0
 21
-65.0
 31
0.0
  0
LINE
  5
152
330
17
100
AcDbEntity
  8
ANCON-MASONRY
100
AcDbLine
 10
0.0
 20
-65.0
 30
0.0
 11
0.0
 21
150.0
 31
0.0
  0
LINE
  5
153
330
17
100
AcDbEntity
  8
ANCON-MASONRY
100
AcDbLine
 10
-140.0
 20
-65.0
 30
0.0
 11
-140.0
 21
150.0
 31
0.0
  0
LINE
  5
155
330
17
100
AcDbEntity
  8
ANCON-MASONRY
100
AcDbLine
 10
0.0
 20
150.0
 30
0.0
 11
-140.0
 21
150.0
 31
0.0
  0
LINE
  5
156
330
17
100
AcDbEntity
  8
ANCON-MASONRY
100
AcDbLine
 10
0.0
 20
160.0
 30
0.0
 11
-140.0
 21
160.0
 31
0.0
  0
LINE
  5
157
330
17
100
AcDbEntity
  8
ANCON-MASONRY
100
AcDbLine
 10
75.0
 20
75.0
 30
0.0
 11
177.5
 21
75.0
 31
0.0
  0
LINE
  5
158
330
17
100
AcDbEntity
  8
ANCON-MASONRY
100
AcDbLine
 10
0.0
 20
160.0
 30
0.0
 11
0.0
 21
225.0
 31
0.0
  0
LINE
  5
159
330
17
100
AcDbEntity
  8
ANCON-MASONRY
100
AcDbLine
 10
-140.0
 20
160.0
 30
0.0
 11
-140.0
 21
225.0
 31
0.0
  0
LINE
  5
15A
330
17
100
AcDbEntity
  8
ANCON-MASONRY
100
AcDbLine
 10
75.0
 20
150.0
 30
0.0
 11
177.5
 21
150.0
 31
0.0
  0
LINE
  5
15B
330
17
100
AcDbEntity
  8
ANCON-MASONRY
100
AcDbLine
 10
75.0
 20
85.0
 30
0.0
 11
177.5
 21
85.0
 31
0.0
  0
LINE
  5
15C
330
17
100
AcDbEntity
  8
ANCON-MASONRY
100
AcDbLine
 10
177.5
 20
85.0
 30
0.0
 11
177.5
 21
150.0
 31
0.0
  0
LINE
  5
15D
330
17
100
AcDbEntity
  8
ANCON-MASONRY
100
AcDbLine
 10
75.0
 20
85.0
 30
0.0
 11
75.0
 21
150.0
 31
0.0
  0
LINE
  5
15E
330
17
100
AcDbEntity
  8
ANCON-MASONRY
100
AcDbLine
 10
75.0
 20
160.0
 30
0.0
 11
177.5
 21
160.0
 31
0.0
  0
LINE
  5
15F
330
17
100
AcDbEntity
  8
ANCON-MASONRY
100
AcDbLine
 10
177.5
 20
160.0
 30
0.0
 11
177.5
 21
225.0
 31
0.0
  0
LINE
  5
160
330
17
100
AcDbEntity
  8
ANCON-MASONRY
100
AcDbLine
 10
75.0
 20
160.0
 30
0.0
 11
75.0
 21
225.0
 31
0.0
  0
LINE
  5
161
330
17
100
AcDbEntity
  8
ANCON-TIE
100
AcDbLine
 10
-60.0
 20
156.25
 30
0.0
 11
-60.0
 21
153.75
 31
0.0
  0
LINE
  5
162
330
17
100
AcDbEntity
  8
ANCON-SUPPORT
100
AcDbLine
 10
0.0
 20
-70.0
 30
0.0
 11
55.0
 21
-70.0
 31
0.0
  0
LINE
  5
163
330
17
100
AcDbEntity
  8
ANCON-SUPPORT
100
AcDbLine
 10
55.0
 20
-70.0
 30
0.0
 11
55.0
 21
-270.0
 31
0.0
  0
LINE
  5
164
330
17
100
AcDbEntity
  8
ANCON-SUPPORT
100
AcDbLine
 10
0.0
 20
-270.0
 30
0.0
 11
55.0
 21
-270.0
 31
0.0
  0
LINE
  5
165
330
17
100
AcDbEntity
  8
ANCON-SUPPORT
100
AcDbLine
 10
0.0
 20
-70.0
 30
0.0
 11
0.0
 21
-270.0
 31
0.0
  0
LINE
  5
166
330
17
100
AcDbEntity
  8
ANCON-SUPPORT
100
AcDbLine
 10
4.0
 20
-70.0
 30
0.0
 11
4.0
 21
-270.0
 31
0.0
  0
LINE
  5
167
330
17
100
AcDbEntity
  8
ANCON-MASONRY
100
AcDbLine
 10
75.0
 20
-290.0
 30
0.0
 11
177.5
 21
-290.0
 31
0.0
  0
MTEXT
  5
172
330
17
100
AcDbEntity
  8
ANCON-TEXT
100
AcDbMText
 10
223.868449
 20
91.06081299999999
 30
0.0
 40
9.0
 41
497.2799999999999
 71
     1
 72
     5
  1
This system is suitable for cavities in yhe 50mm - 155mm range as standard, when fixed to cast in channel with 'T' head bolts
  7
ROMANS
 73
     1
 44
1.0
  0
TEXT
  5
1DF
330
17
100
AcDbEntity
  8
ANCON-TEXT
100
AcDbText
 10
-499.16576011603
 20
-293.9954464625054
 30
0.0
 40
9.0
  1

  7
ROMANS
100
AcDbText
  0
TEXT
  5
1E0
330
17
100
AcDbEntity
  8
ANCON-TEXT
100
AcDbText
 10
-499.16576011603
 20
-308.3525498327929
 30
0.0
 40
9.0
  1

  7
ROMANS
100
AcDbText
  0
TEXT
  5
1E1
330
17
100
AcDbEntity
  8
ANCON-TEXT
100
AcDbText
 10
-444.1431681877484
 20
-279.2598624167017
 30
0.0
 40
9.0
  1

  7
ROMANS
100
AcDbText
  0
LINE
  5
1E4
330
17
100
AcDbEntity
  8
ANCON-CHANNEL
100
AcDbLine
 10
-83.49999999999999
 20
-155.7567820090373
 30
0.0
 11
-83.49999999999999
 21
-144.2432179909627
 31
0.0
  0
LINE
  5
1E5
330
17
100
AcDbEntity
  8
ANCON-CHANNEL
100
AcDbLine
 10
-69.37668097754135
 20
-153.1415737864286
 30
0.0
 11
-69.37668097754135
 21
-149.3104091992427
 31
0.0
  0
LINE
  5
1E6
330
17
100
AcDbEntity
  8
ANCON-CHANNEL
100
AcDbLine
 10
-70.37668097754135
 20
-152.7210794566797
 30
0.0
 11
-70.37668097754135
 21
-150.5251682990841
 31
0.0
  0
LINE
  5
1E7
330
17
100
AcDbEntity
  8
ANCON-CHANNEL
100
AcDbLine
 10
-69.37668097754135
 20
-155.7567820090373
 30
0.0
 11
-69.37668097754135
 21
-153.7956737799382
 31
0.0
  0
LINE
  5
1E8
330
17
100
AcDbEntity
  8
ANCON-CHANNEL
100
AcDbLine
 10
-68.37668097754129
 20
-155.7567820090373
 30
0.0
 11
-68.37668097754136
 21
-153.8423962910168
 31
0.0
  0
LINE
  5
1E9
330
17
100
AcDbEntity
  8
ANCON-CHANNEL
100
AcDbLine
 10
-68.37668097754136
 20
-152.4407499035138
 30
0.0
 11
-68.37668097754136
 21
-149.3104091992427
 31
0.0
  0
LINE
  5
1EA
330
17
100
AcDbEntity
  8
ANCON-CHANNEL
100
AcDbLine
 10
-68.37668097754136
 20
-148.5161430508236
 30
0.0
 11
-68.37668097754136
 21
-146.5071178025631
 31
0.0
  0
LINE
  5
1EB
330
17
100
AcDbEntity
  8
ANCON-CHANNEL
100
AcDbLine
 10
-69.37668097754135
 20
-148.8431937367417
 30
0.0
 11
-69.37668097754135
 21
-146.6940037118982
 31
0.0
  0
LINE
  5
1EC
330
17
100
AcDbEntity
  8
ANCON-CHANNEL
100
AcDbLine
 10
-70.37668097754135
 20
-149.9177880600002
 30
0.0
 11
-70.37668097754135
 21
-148.1890923649056
 31
0.0
  0
LINE
  5
1ED
330
17
100
AcDbEntity
  8
ANCON-CHANNEL
100
AcDbLine
 10
-70.37668097754135
 20
-147.5349909930695
 30
0.0
 11
-70.37668097754135
 21
-144.2432179909627
 31
0.0
  0
LINE
  5
1EE
330
17
100
AcDbEntity
  8
ANCON-CHANNEL
100
AcDbLine
 10
-59.33128721408206
 20
-153.1415737864286
 30
0.0
 11
-59.33128721408206
 21
-149.3104091992427
 31
0.0
  0
LINE
  5
1EF
330
17
100
AcDbEntity
  8
ANCON-CHANNEL
100
AcDbLine
 10
-60.33128721408207
 20
-152.7210794566797
 30
0.0
 11
-60.33128721408207
 21
-150.5251682990841
 31
0.0
  0
LINE
  5
1F0
330
17
100
AcDbEntity
  8
ANCON-CHANNEL
100
AcDbLine
 10
-58.33128721408201
 20
-155.7567820090373
 30
0.0
 11
-58.33128721408207
 21
-153.8423962910168
 31
0.0
  0
LINE
  5
1F1
330
17
100
AcDbEntity
  8
ANCON-CHANNEL
100
AcDbLine
 10
-59.33128721408206
 20
-155.7567820090373
 30
0.0
 11
-59.33128721408206
 21
-153.7956737799382
 31
0.0
  0
LINE
  5
1F2
330
17
100
AcDbEntity
  8
ANCON-CHANNEL
100
AcDbLine
 10
-59.33128721408206
 20
-148.8431937367417
 30
0.0
 11
-59.33128721408206
 21
-146.6940037118982
 31
0.0
  0
LINE
  5
1F3
330
17
100
AcDbEntity
  8
ANCON-CHANNEL
100
AcDbLine
 10
-58.33128721408207
 20
-148.5161430508236
 30
0.0
 11
-58.33128721408207
 21
-146.5071178025631
 31
0.0
  0
LINE
  5
1F4
330
17
100
AcDbEntity
  8
ANCON-CHANNEL
100
AcDbLine
 10
-58.33128721408207
 20
-152.4407499035138
 30
0.0
 11
-58.33128721408207
 21
-149.3104091992427
 31
0.0
  0
LINE
  5
1F5
330
17
100
AcDbEntity
  8
ANCON-CHANNEL
100
AcDbLine
 10
-60.33128721408207
 20
-149.9177880600002
 30
0.0
 11
-60.33128721408207
 21
-148.1890923649056
 31
0.0
  0
LINE
  5
1F6
330
17
100
AcDbEntity
  8
ANCON-CHANNEL
100
AcDbLine
 10
-60.33128721408207
 20
-147.5349909930695
 30
0.0
 11
-60.33128721408207
 21
-143.99318120731
 31
0.0
  0
LINE
  5
1F7
330
17
100
AcDbEntity
  8
ANCON-CHANNEL
100
AcDbLine
 10
-49.28589345062277
 20
-153.1415737864286
 30
0.0
 11
-49.28589345062277
 21
-149.3104091992427
 31
0.0
  0
LINE
  5
1F8
330
17
100
AcDbEntity
  8
ANCON-CHANNEL
100
AcDbLine
 10
-50.28589345062278
 20
-152.7210794566797
 30
0.0
 11
-50.28589345062278
 21
-150.5251682990841
 31
0.0
  0
LINE
  5
1F9
330
17
100
AcDbEntity
  8
ANCON-CHANNEL
100
AcDbLine
 10
-49.28589345062272
 20
-155.7567820090373
 30
0.0
 11
-49.28589345062277
 21
-153.7956737799382
 31
0.0
  0
LINE
  5
1FA
330
17
100
AcDbEntity
  8
ANCON-CHANNEL
100
AcDbLine
 10
-48.28589345062272
 20
-155.7567820090373
 30
0.0
 11
-48.28589345062278
 21
-153.8423962910168
 31
0.0
  0
LINE
  5
1FB
330
17
100
AcDbEntity
  8
ANCON-CHANNEL
100
AcDbLine
 10
-48.28589345062278
 20
-152.4407499035138
 30
0.0
 11
-48.28589345062278
 21
-149.3104091992427
 31
0.0
  0
LINE
  5
1FC
330
17
100
AcDbEntity
  8
ANCON-CHANNEL
100
AcDbLine
 10
-48.28589345062278
 20
-148.5161430508236
 30
0.0
 11
-48.28589345062278
 21
-146.5071178025631
 31
0.0
  0
LINE
  5
1FD
330
17
100
AcDbEntity
  8
ANCON-CHANNEL
100
AcDbLine
 10
-49.28589345062277
 20
-148.8431937367417
 30
0.0
 11
-49.28589345062277
 21
-146.6940037118982
 31
0.0
  0
LINE
  5
1FE
330
17
100
AcDbEntity
  8
ANCON-CHANNEL
100
AcDbLine
 10
-50.28589345062278
 20
-149.9177880600002
 30
0.0
 11
-50.28589345062278
 21
-148.1890923649056
 31
0.0
  0
LINE
  5
1FF
330
17
100
AcDbEntity
  8
ANCON-CHANNEL
100
AcDbLine
 10
-50.28589345062278
 20
-147.5349909930695
 30
0.0
 11
-50.28589345062278
 21
-143.99318120731
 31
0.0
  0
LINE
  5
200
330
17
100
AcDbEntity
  8
ANCON-CHANNEL
100
AcDbLine
 10
-30.1951059237042
 20
-152.7210794566797
 30
0.0
 11
-30.1951059237042
 21
-150.5251682990841
 31
0.0
  0
LINE
  5
201
330
17
100
AcDbEntity
  8
ANCON-CHANNEL
100
AcDbLine
 10
-39.24049968716349
 20
-153.1415737864286
 30
0.0
 11
-39.24049968716349
 21
-149.3104091992427
 31
0.0
  0
LINE
  5
202
330
17
100
AcDbEntity
  8
ANCON-CHANNEL
100
AcDbLine
 10
-40.24049968716349
 20
-152.7210794566797
 30
0.0
 11
-40.24049968716349
 21
-150.5251682990841
 31
0.0
  0
LINE
  5
203
330
17
100
AcDbEntity
  8
ANCON-CHANNEL
100
AcDbLine
 10
-38.24049968716343
 20
-155.7567820090373
 30
0.0
 11
-38.24049968716349
 21
-153.8423962910168
 31
0.0
  0
LINE
  5
204
330
17
100
AcDbEntity
  8
ANCON-CHANNEL
100
AcDbLine
 10
-39.24049968716349
 20
-155.7567820090373
 30
0.0
 11
-39.24049968716349
 21
-153.7956737799382
 31
0.0
  0
LINE
  5
205
330
17
100
AcDbEntity
  8
ANCON-CHANNEL
100
AcDbLine
 10
-38.24049968716349
 20
-148.5161430508236
 30
0.0
 11
-38.24049968716349
 21
-146.5071178025631
 31
0.0
  0
LINE
  5
206
330
17
100
AcDbEntity
  8
ANCON-CHANNEL
100
AcDbLine
 10
-38.24049968716349
 20
-152.4407499035138
 30
0.0
 11
-38.24049968716349
 21
-149.3104091992427
 31
0.0
  0
LINE
  5
207
330
17
100
AcDbEntity
  8
ANCON-CHANNEL
100
AcDbLine
 10
-39.24049968716349
 20
-148.8431937367417
 30
0.0
 11
-39.24049968716349
 21
-146.6940037118982
 31
0.0
  0
LINE
  5
208
330
17
100
AcDbEntity
  8
ANCON-CHANNEL
100
AcDbLine
 10
-40.24049968716349
 20
-149.9177880600002
 30
0.0
 11
-40.24049968716349
 21
-148.1890923649056
 31
0.0
  0
LINE
  5
209
330
17
100
AcDbEntity
  8
ANCON-CHANNEL
100
AcDbLine
 10
-40.24049968716349
 20
-147.5349909930695
 30
0.0
 11
-40.24049968716349
 21
-144.2432179909627
 31
0.0
  0
LINE
  5
20A
330
17
100
AcDbEntity
  8
ANCON-CHANNEL
100
AcDbLine
 10
-30.1951059237042
 20
-149.9177880600002
 30
0.0
 11
-30.1951059237042
 21
-148.1890923649056
 31
0.0
  0
LINE
  5
20B
330
17
100
AcDbEntity
  8
ANCON-CHANNEL
100
AcDbLine
 10
-30.1951059237042
 20
-147.5349909930695
 30
0.0
 11
-30.1951059237042
 21
-143.99318120731
 31
0.0
  0
LINE
  5
20C
330
17
100
AcDbEntity
  8
ANCON-CHANNEL
100
AcDbLine
 10
-29.1951059237042
 20
-153.1415737864286
 30
0.0
 11
-29.1951059237042
 21
-149.3104091992427
 31
0.0
  0
LINE
  5
20D
330
17
100
AcDbEntity
  8
ANCON-CHANNEL
100
AcDbLine
 10
-28.1951059237042
 20
-155.7567820090373
 30
0.0
 11
-28.1951059237042
 21
-153.8423962910168
 31
0.0
  0
LINE
  5
20E
330
17
100
AcDbEntity
  8
ANCON-CHANNEL
100
AcDbLine
 10
-29.1951059237042
 20
-155.7567820090373
 30
0.0
 11
-29.1951059237042
 21
-153.7956737799382
 31
0.0
  0
LINE
  5
20F
330
17
100
AcDbEntity
  8
ANCON-CHANNEL
100
AcDbLine
 10
-28.1951059237042
 20
-152.4407499035138
 30
0.0
 11
-28.1951059237042
 21
-149.3104091992427
 31
0.0
  0
LINE
  5
210
330
17
100
AcDbEntity
  8
ANCON-CHANNEL
100
AcDbLine
 10
-28.1951059237042
 20
-148.5161430508236
 30
0.0
 11
-28.1951059237042
 21
-146.5071178025631
 31
0.0
  0
LINE
  5
211
330
17
100
AcDbEntity
  8
ANCON-CHANNEL
100
AcDbLine
 10
-29.1951059237042
 20
-148.8431937367417
 30
0.0
 11
-29.1951059237042
 21
-146.6940037118982
 31
0.0
  0
LINE
  5
212
330
17
100
AcDbEntity
  8
ANCON-CHANNEL
100
AcDbLine
 10
-16.5
 20
-155.7567820090373
 30
0.0
 11
-16.5
 21
-144.2432179909627
 31
0.0
  0
LINE
  5
213
330
17
100
AcDbEntity
  8
ANCON-CHANNEL
100
AcDbLine
 10
-13.50000000000005
 20
-155.7567820090373
 30
0.0
 11
-13.5
 21
-144.2432179909627
 31
0.0
  0
LINE
  5
214
330
17
100
AcDbEntity
  8
ANCON-CHANNEL
100
AcDbLine
 10
-19.0
 20
-150.0
 30
0.0
 11
-19.0
 21
-144.2432179909627
 31
0.0
  0
LINE
  5
215
330
17
100
AcDbEntity
  8
ANCON-CHANNEL
100
AcDbLine
 10
-19.0
 20
-150.0
 30
0.0
 11
-19.0
 21
-155.7567820090373
 31
0.0
  0
LINE
  5
216
330
17
100
AcDbEntity
  8
ANCON-CHANNEL
100
AcDbLine
 10
0.0
 20
-143.0
 30
0.0
 11
0.0
 21
-142.5
 31
0.0
  0
LINE
  5
217
330
17
100
AcDbEntity
  8
ANCON-CHANNEL
100
AcDbLine
 10
0.0
 20
-142.5
 30
0.0
 11
0.0
 21
-143.0
 31
0.0
  0
LINE
  5
218
330
17
100
AcDbEntity
  8
ANCON-CHANNEL
100
AcDbLine
 10
0.0
 20
-158.0464181425829
 30
0.0
 11
0.0
 21
-157.0
 31
0.0
  0
LINE
  5
219
330
17
100
AcDbEntity
  8
ANCON-CHANNEL
100
AcDbLine
 10
0.0
 20
-157.5
 30
0.0
 11
0.0
 21
-158.0464181425829
 31
0.0
  0
LINE
  5
21A
330
17
100
AcDbEntity
  8
ANCON-CHANNEL
100
AcDbLine
 10
-17.36426339706838
 20
-141.8973601989199
 30
0.0
 11
-6.055674114723103
 21
-137.7310378317401
 31
0.0
  0
LINE
  5
21B
330
17
100
AcDbEntity
  8
ANCON-CHANNEL
100
AcDbLine
 10
-6.055674114723046
 20
-162.2689621682599
 30
0.0
 11
-17.36426339706838
 21
-158.10263980108
 31
0.0
  0
LINE
  5
21C
330
17
100
AcDbEntity
  8
ANCON-CHANNEL
100
AcDbLine
 10
-16.5
 20
-144.2432179909627
 30
0.0
 11
-5.191410717654719
 21
-140.0768956237828
 31
0.0
  0
LINE
  5
21D
330
17
100
AcDbEntity
  8
ANCON-CHANNEL
100
AcDbLine
 10
-5.191410717654662
 20
-159.9231043762171
 30
0.0
 11
-16.5
 21
-155.7567820090373
 31
0.0
  0
LINE
  5
21E
330
17
100
AcDbEntity
  8
ANCON-CHANNEL
100
AcDbLine
 10
-19.0
 20
-144.2432179909627
 30
0.0
 11
-83.49999999999994
 21
-144.2432179909627
 31
0.0
  0
LINE
  5
21F
330
17
100
AcDbEntity
  8
ANCON-CHANNEL
100
AcDbLine
 10
-19.0
 20
-155.7567820090373
 30
0.0
 11
-83.49999999999999
 21
-155.7567820090373
 31
0.0
  0
LINE
  5
220
330
17
100
AcDbEntity
  8
ANCON-CHANNEL
100
AcDbLine
 10
-16.5
 20
-144.2432179909627
 30
0.0
 11
-13.5
 21
-144.2432179909627
 31
0.0
  0
LINE
  5
221
330
17
100
AcDbEntity
  8
ANCON-CHANNEL
100
AcDbLine
 10
-16.5
 20
-155.7567820090373
 30
0.0
 11
-13.5
 21
-155.7567820090373
 31
0.0
  0
ARC
  5
222
330
17
100
AcDbEntity
  8
ANCON-CHANNEL
100
AcDbCircle
 10
-16.5
 20
-144.2432179909627
 30
0.0
 40
2.5
100
AcDbArc
 50
110.2248594311679
 51
180.0
  0
ARC
  5
223
330
17
100
AcDbEntity
  8
ANCON-CHANNEL
100
AcDbCircle
 10
-16.5
 20
-155.7567820090373
 30
0.0
 40
2.5
100
AcDbArc
 50
180.0
 51
249.775140568832
  0
LINE
  5
224
330
17
100
AcDbEntity
  8
ANCON-CHANNEL
100
AcDbLine
 10
-2.499999999999943
 20
-158.0464181425829
 30
0.0
 11
-2.5
 21
-157.0
 31
0.0
  0
ARC
  5
225
330
17
100
AcDbEntity
  8
ANCON-CHANNEL
100
AcDbCircle
 10
-4.5
 20
-141.9535818574171
 30
0.0
 40
2.0
100
AcDbArc
 50
0.0
 51
110.2248594311679
  0
ARC
  5
226
330
17
100
AcDbEntity
  8
ANCON-CHANNEL
100
AcDbCircle
 10
-4.499999999999943
 20
-158.0464181425829
 30
0.0
 40
2.0
100
AcDbArc
 50
249.775140568832
 51
0.0
  0
ARC
  5
227
330
17
100
AcDbEntity
  8
ANCON-CHANNEL
100
AcDbCircle
 10
-4.5
 20
-141.9535818574171
 30
0.0
 40
4.5
100
AcDbArc
 50
0.0
 51
110.2248594311679
  0
ARC
  5
228
330
17
100
AcDbEntity
  8
ANCON-CHANNEL
100
AcDbCircle
 10
-4.499999999999943
 20
-158.0464181425829
 30
0.0
 40
4.5
100
AcDbArc
 50
249.775140568832
 51
0.0
  0
LINE
  5
229
330
17
100
AcDbEntity
  8
ANCON-CHANNEL
100
AcDbLine
 10
-2.5
 20
-143.0
 30
0.0
 11
-2.5
 21
-141.9535818574171
 31
0.0
  0
LINE
  5
22A
330
17
100
AcDbEntity
  8
ANCON-CHANNEL
100
AcDbLine
 10
0.0
 20
-143.0
 30
0.0
 11
0.0
 21
-141.9535818574171
 31
0.0
  0
LINE
  5
22B
330
17
100
AcDbEntity
  8
ANCON-CHANNEL
100
AcDbLine
 10
0.0
 20
-157.0
 30
0.0
 11
0.0
 21
-157.5
 31
0.0
  0
LINE
  5
22C
330
17
100
AcDbEntity
  8
ANCON-CHANNEL
100
AcDbLine
 10
-2.5
 20
-143.0
 30
0.0
 11
0.0
 21
-143.0
 31
0.0
  0
LINE
  5
22D
330
17
100
AcDbEntity
  8
ANCON-CHANNEL
100
AcDbLine
 10
-2.5
 20
-157.0
 30
0.0
 11
0.0
 21
-157.0
 31
0.0
  0
VIEWPORT
  5
93
330
14
100
AcDbEntity
 67
     1
  8
0
100
AcDbViewport
 10
6.124108
 20
4.5
 30
0.0
 40
12.248217
 41
9.0
 68
    -1
 69
     1
 12
6.124108
 22
4.5
 13
0.0
 23
0.0
 14
1.0
 24
1.0
 15
0.0
 25
0.0
 16
0.0
 26
0.0
 36
1.0
 17
0.0
 27
0.0
 37
0.0
 42
50.0
 43
0.0
 44
0.0
 45
9.0
 50
0.0
 51
0.0
 72
   100
 90
    32800
  1

281
     0
 71
     1
 74
     0
110
0.0
120
0.0
130
0.0
111
1.0
121
0.0
131
0.0
112
0.0
122
1.0
132
0.0
 79
     0
146
0.0
  0
ENDSEC
  0
SECTION
  2
OBJECTS
  0
DICTIONARY
  5
C
330
0
100
AcDbDictionary
281
     1
  3
ACAD_GROUP
350
D
  3
ACAD_LAYOUT
350
184
  3
ACAD_MLINESTYLE
350
1A
  3
ACAD_PLOTSETTINGS
350
185
  3
ACAD_PLOTSTYLENAME
350
182
  3
ACDBVARIABLEDICTIONARY
350
3A
  0
DICTIONARY
  5
D
102
{ACAD_REACTORS
330
C
102
}
330
C
100
AcDbDictionary
281
     1
  0
DICTIONARY
  5
184
102
{ACAD_REACTORS
330
C
102
}
330
C
100
AcDbDictionary
281
     1
  3
Layout1
350
187
  3
Model
350
186
  0
DICTIONARY
  5
1A
102
{ACAD_REACTORS
330
C
102
}
330
C
100
AcDbDictionary
281
     1
  3
STANDARD
350
1B
  0
DICTIONARY
  5
185
102
{ACAD_REACTORS
330
C
102
}
330
C
100
AcDbDictionary
281
     1
  0
ACDBDICTIONARYWDFLT
  5
182
102
{ACAD_REACTORS
330
C
102
}
330
C
100
AcDbDictionary
281
     1
  3
Normal
350
183
100
AcDbDictionaryWithDefault
340
183
  0
DICTIONARY
  5
3A
102
{ACAD_REACTORS
330
C
102
}
330
C
100
AcDbDictionary
281
     1
  3
DIMADEC
350
3B
  0
LAYOUT
  5
187
102
{ACAD_REACTORS
330
184
102
}
330
184
100
AcDbPlotSettings
  1

  2
Ancon 2
  4

  6

 40
0.0
 41
0.0
 42
0.0
 43
0.0
 44
0.0
 45
0.0
 46
0.0
 47
0.0
 48
0.0
 49
0.0
140
0.0
141
0.0
142
1.0
143
1.0
 70
   688
 72
     0
 73
     0
 74
     5
  7

 75
    16
147
1.0
148
0.0
149
0.0
100
AcDbLayout
  1
Layout1
 70
     1
 71
     1
 10
0.0
 20
0.0
 11
420.0
 21
297.0
 12
0.0
 22
0.0
 32
0.0
 14
1.000000000000000E+20
 24
1.000000000000000E+20
 34
1.000000000000000E+20
 15
-1.000000000000000E+20
 25
-1.000000000000000E+20
 35
-1.000000000000000E+20
146
0.0
 13
0.0
 23
0.0
 33
0.0
 16
1.0
 26
0.0
 36
0.0
 17
0.0
 27
1.0
 37
0.0
 76
     0
330
14
  0
LAYOUT
  5
186
102
{ACAD_REACTORS
330
184
102
}
330
184
100
AcDbPlotSettings
  1

  2
Ancon 2
  4

  6

 40
0.0
 41
0.0
 42
0.0
 43
0.0
 44
0.0
 45
0.0
 46
0.0
 47
0.0
 48
0.0
 49
0.0
140
0.0
141
0.0
142
1.0
143
1.0
 70
  1712
 72
     0
 73
     0
 74
     0
  7

 75
     0
147
1.0
148
0.0
149
0.0
100
AcDbLayout
  1
Model
 70
     1
 71
     0
 10
0.0
 20
0.0
 11
12.0
 21
9.0
 12
0.0
 22
0.0
 32
0.0
 14
0.0
 24
0.0
 34
0.0
 15
0.0
 25
0.0
 35
0.0
146
0.0
 13
0.0
 23
0.0
 33
0.0
 16
1.0
 26
0.0
 36
0.0
 17
0.0
 27
1.0
 37
0.0
 76
     0
330
17
  0
MLINESTYLE
  5
1B
102
{ACAD_REACTORS
330
1A
102
}
330
1A
100
AcDbMlineStyle
  2
STANDARD
 70
     0
  3

 62
   256
 51
90.0
 52
90.0
 71
     2
 49
0.5
 62
   256
  6
BYLAYER
 49
-0.5
 62
   256
  6
BYLAYER
  0
ACDBPLACEHOLDER
  5
183
102
{ACAD_REACTORS
330
182
102
}
330
182
  0
DICTIONARYVAR
  5
3B
102
{ACAD_REACTORS
330
3A
102
}
330
3A
100
DictionaryVariables
280
     0
  1
4
  0
ENDSEC
  0
EOF
