  0
SECTION
  2
HEADER
  9
$ACADVER
  1
AC1015
  9
$ACADMAINTVER
 70
    10
  9
$DWGCODEPAGE
  3
ANSI_1252
  9
$INSBASE
 10
0.0
 20
0.0
 30
0.0
  9
$EXTMIN
 10
-264.5593040047476
 20
-72.0
 30
0.0
  9
$EXTMAX
 10
759.8844689091599
 20
368.0
 30
0.0
  9
$LIMMIN
 10
0.0
 20
0.0
  9
$LIMMAX
 10
420.0
 20
297.0
  9
$ORTHOMODE
 70
     1
  9
$REGENMODE
 70
     1
  9
$FILLMODE
 70
     1
  9
$QTEXTMODE
 70
     0
  9
$MIRRTEXT
 70
     1
  9
$LTSCALE
 40
1.0
  9
$ATTMODE
 70
     1
  9
$TEXTSIZE
 40
9.0
  9
$TRACEWID
 40
10.0
  9
$TEXTSTYLE
  7
ROMANS
  9
$CLAYER
  8
0
  9
$CELTYPE
  6
BYLAYER
  9
$CECOLOR
 62
   256
  9
$CELTSCALE
 40
1.0
  9
$DISPSILH
 70
     0
  9
$DIMSCALE
 40
5.0
  9
$DIMASZ
 40
0.0
  9
$DIMEXO
 40
4.5
  9
$DIMDLI
 40
0.0
  9
$DIMRND
 40
1.0
  9
$DIMDLE
 40
1.25
  9
$DIMEXE
 40
1.5
  9
$DIMTP
 40
0.0
  9
$DIMTM
 40
0.0
  9
$DIMTXT
 40
1.8
  9
$DIMCEN
 40
0.0
  9
$DIMTSZ
 40
1.0
  9
$DIMTOL
 70
     0
  9
$DIMLIM
 70
     0
  9
$DIMTIH
 70
     0
  9
$DIMTOH
 70
     0
  9
$DIMSE1
 70
     0
  9
$DIMSE2
 70
     0
  9
$DIMTAD
 70
     1
  9
$DIMZIN
 70
    12
  9
$DIMBLK
  1

  9
$DIMASO
 70
     1
  9
$DIMSHO
 70
     0
  9
$DIMPOST
  1

  9
$DIMAPOST
  1

  9
$DIMALT
 70
     0
  9
$DIMALTD
 70
     2
  9
$DIMALTF
 40
0.04
  9
$DIMLFAC
 40
1.0
  9
$DIMTOFL
 70
     0
  9
$DIMTVP
 40
0.0
  9
$DIMTIX
 70
     0
  9
$DIMSOXD
 70
     0
  9
$DIMSAH
 70
     0
  9
$DIMBLK1
  1

  9
$DIMBLK2
  1

  9
$DIMSTYLE
  2
1-5
  9
$DIMCLRD
 70
     0
  9
$DIMCLRE
 70
     0
  9
$DIMCLRT
 70
     0
  9
$DIMTFAC
 40
1.25
  9
$DIMGAP
 40
0.1
  9
$DIMJUST
 70
     0
  9
$DIMSD1
 70
     0
  9
$DIMSD2
 70
     0
  9
$DIMTOLJ
 70
     1
  9
$DIMTZIN
 70
    12
  9
$DIMALTZ
 70
    12
  9
$DIMALTTZ
 70
    12
  9
$DIMUPT
 70
     0
  9
$DIMDEC
 70
     2
  9
$DIMTDEC
 70
     2
  9
$DIMALTU
 70
     2
  9
$DIMALTTD
 70
     2
  9
$DIMTXSTY
  7
ROMANS
  9
$DIMAUNIT
 70
     0
  9
$DIMADEC
 70
     0
  9
$DIMALTRND
 40
0.0
  9
$DIMAZIN
 70
     0
  9
$DIMDSEP
 70
    46
  9
$DIMATFIT
 70
     3
  9
$DIMFRAC
 70
     0
  9
$DIMLDRBLK
  1

  9
$DIMLUNIT
 70
     2
  9
$DIMLWD
 70
    -2
  9
$DIMLWE
 70
    -2
  9
$DIMTMOVE
 70
     2
  9
$LUNITS
 70
     2
  9
$LUPREC
 70
     2
  9
$SKETCHINC
 40
1.0
  9
$FILLETRAD
 40
4.0
  9
$AUNITS
 70
     0
  9
$AUPREC
 70
     4
  9
$MENU
  1
C:\ACADWIN\SUPPORT\ACAD
  9
$ELEVATION
 40
0.0
  9
$PELEVATION
 40
0.0
  9
$THICKNESS
 40
0.0
  9
$LIMCHECK
 70
     0
  9
$CHAMFERA
 40
0.0
  9
$CHAMFERB
 40
0.0
  9
$CHAMFERC
 40
0.0
  9
$CHAMFERD
 40
0.0
  9
$SKPOLY
 70
     0
  9
$TDCREATE
 40
2450427.482995949
  9
$TDUCREATE
 40
2450427.441329282
  9
$TDUPDATE
 40
2452487.836477661
  9
$TDUUPDATE
 40
2452487.794810995
  9
$TDINDWG
 40
0.1511020833
  9
$TDUSRTIMER
 40
0.1511020833
  9
$USRTIMER
 70
     1
  9
$ANGBASE
 50
0.0
  9
$ANGDIR
 70
     0
  9
$PDMODE
 70
     0
  9
$PDSIZE
 40
0.0
  9
$PLINEWID
 40
0.0
  9
$SPLFRAME
 70
     0
  9
$SPLINETYPE
 70
     6
  9
$SPLINESEGS
 70
     8
  9
$HANDSEED
  5
2B9
  9
$SURFTAB1
 70
    18
  9
$SURFTAB2
 70
    18
  9
$SURFTYPE
 70
     6
  9
$SURFU
 70
    18
  9
$SURFV
 70
    18
  9
$UCSBASE
  2

  9
$UCSNAME
  2

  9
$UCSORG
 10
0.0
 20
0.0
 30
0.0
  9
$UCSXDIR
 10
1.0
 20
0.0
 30
0.0
  9
$UCSYDIR
 10
0.0
 20
1.0
 30
0.0
  9
$UCSORTHOREF
  2

  9
$UCSORTHOVIEW
 70
     0
  9
$UCSORGTOP
 10
0.0
 20
0.0
 30
0.0
  9
$UCSORGBOTTOM
 10
0.0
 20
0.0
 30
0.0
  9
$UCSORGLEFT
 10
0.0
 20
0.0
 30
0.0
  9
$UCSORGRIGHT
 10
0.0
 20
0.0
 30
0.0
  9
$UCSORGFRONT
 10
0.0
 20
0.0
 30
0.0
  9
$UCSORGBACK
 10
0.0
 20
0.0
 30
0.0
  9
$PUCSBASE
  2

  9
$PUCSNAME
  2

  9
$PUCSORG
 10
0.0
 20
0.0
 30
0.0
  9
$PUCSXDIR
 10
1.0
 20
0.0
 30
0.0
  9
$PUCSYDIR
 10
0.0
 20
1.0
 30
0.0
  9
$PUCSORTHOREF
  2

  9
$PUCSORTHOVIEW
 70
     0
  9
$PUCSORGTOP
 10
0.0
 20
0.0
 30
0.0
  9
$PUCSORGBOTTOM
 10
0.0
 20
0.0
 30
0.0
  9
$PUCSORGLEFT
 10
0.0
 20
0.0
 30
0.0
  9
$PUCSORGRIGHT
 10
0.0
 20
0.0
 30
0.0
  9
$PUCSORGFRONT
 10
0.0
 20
0.0
 30
0.0
  9
$PUCSORGBACK
 10
0.0
 20
0.0
 30
0.0
  9
$USERI1
 70
     0
  9
$USERI2
 70
     0
  9
$USERI3
 70
     0
  9
$USERI4
 70
     0
  9
$USERI5
 70
     0
  9
$USERR1
 40
0.0
  9
$USERR2
 40
0.0
  9
$USERR3
 40
0.0
  9
$USERR4
 40
0.0
  9
$USERR5
 40
0.0
  9
$WORLDVIEW
 70
     1
  9
$SHADEDGE
 70
     3
  9
$SHADEDIF
 70
    70
  9
$TILEMODE
 70
     1
  9
$MAXACTVP
 70
    16
  9
$PINSBASE
 10
0.0
 20
0.0
 30
0.0
  9
$PLIMCHECK
 70
     0
  9
$PEXTMIN
 10
1.000000000000000E+20
 20
1.000000000000000E+20
 30
1.000000000000000E+20
  9
$PEXTMAX
 10
-1.000000000000000E+20
 20
-1.000000000000000E+20
 30
-1.000000000000000E+20
  9
$PLIMMIN
 10
0.0
 20
0.0
  9
$PLIMMAX
 10
420.0
 20
297.0
  9
$UNITMODE
 70
     0
  9
$VISRETAIN
 70
     0
  9
$PLINEGEN
 70
     0
  9
$PSLTSCALE
 70
     1
  9
$TREEDEPTH
 70
  3020
  9
$CMLSTYLE
  2
STANDARD
  9
$CMLJUST
 70
     0
  9
$CMLSCALE
 40
1.0
  9
$PROXYGRAPHICS
 70
     1
  9
$MEASUREMENT
 70
     0
  9
$CELWEIGHT
370
    -1
  9
$ENDCAPS
280
     0
  9
$JOINSTYLE
280
     0
  9
$LWDISPLAY
290
     0
  9
$INSUNITS
 70
     0
  9
$HYPERLINKBASE
  1

  9
$STYLESHEET
  1

  9
$XEDIT
290
     1
  9
$CEPSNTYPE
380
     0
  9
$PSTYLEMODE
290
     1
  9
$FINGERPRINTGUID
  2
{9E6D1A1B-A4BE-11D6-AAC6-0010A4A25215}
  9
$VERSIONGUID
  2
{9E6D1A26-A4BE-11D6-AAC6-0010A4A25215}
  9
$EXTNAMES
290
     1
  9
$PSVPSCALE
 40
0.0
  9
$OLESTARTUP
290
     0
  0
ENDSEC
  0
SECTION
  2
CLASSES
  0
CLASS
  1
DICTIONARYVAR
  2
AcDbDictionaryVar
  3
AutoCAD 2000
 90
        0
280
     0
281
     0
  0
CLASS
  1
LWPOLYLINE
  2
AcDbPolyline
  3
AutoCAD 2000
 90
    32768
280
     0
281
     1
  0
CLASS
  1
ACDBDICTIONARYWDFLT
  2
AcDbDictionaryWithDefault
  3
AutoCAD 2000
 90
        0
280
     0
281
     0
  0
CLASS
  1
ACDBPLACEHOLDER
  2
AcDbPlaceHolder
  3
AutoCAD 2000
 90
        0
280
     0
281
     0
  0
CLASS
  1
LAYOUT
  2
AcDbLayout
  3
AutoCAD 2000
 90
        0
280
     0
281
     0
  0
ENDSEC
  0
SECTION
  2
TABLES
  0
TABLE
  2
VPORT
  5
8
330
0
100
AcDbSymbolTable
 70
     3
  0
VPORT
  5
2B8
330
8
100
AcDbSymbolTableRecord
100
AcDbViewportTableRecord
  2
*Active
 70
     0
 10
0.0
 20
0.0
 11
1.0
 21
1.0
 12
323.2418125328771
 22
159.5157890617464
 13
0.0
 23
0.0
 14
5.0
 24
5.0
 15
10.0
 25
10.0
 16
0.0
 26
0.0
 36
1.0
 17
0.0
 27
0.0
 37
0.0
 40
559.5764227205245
 41
1.768089053803339
 42
50.0
 43
0.0
 44
0.0
 50
0.0
 51
0.0
 71
     0
 72
 20000
 73
     1
 74
     1
 75
     0
 76
     0
 77
     0
 78
     0
281
     0
 65
     1
110
0.0
120
0.0
130
0.0
111
1.0
121
0.0
131
0.0
112
0.0
122
1.0
132
0.0
 79
     0
146
0.0
  0
ENDTAB
  0
TABLE
  2
LTYPE
  5
5
330
0
100
AcDbSymbolTable
 70
     2
  0
LTYPE
  5
11
330
5
100
AcDbSymbolTableRecord
100
AcDbLinetypeTableRecord
  2
BYBLOCK
 70
     0
  3

 72
    65
 73
     0
 40
0.0
  0
LTYPE
  5
12
330
5
100
AcDbSymbolTableRecord
100
AcDbLinetypeTableRecord
  2
BYLAYER
 70
     0
  3

 72
    65
 73
     0
 40
0.0
  0
LTYPE
  5
13
330
5
100
AcDbSymbolTableRecord
100
AcDbLinetypeTableRecord
  2
CONTINUOUS
 70
     0
  3
Solid line
 72
    65
 73
     0
 40
0.0
  0
LTYPE
  5
176
330
5
100
AcDbSymbolTableRecord
100
AcDbLinetypeTableRecord
  2
HIDDEN1_02
 70
     0
  3
__ __ __ __ __ __ __ __ __ __ __ __ __ __ __ __
 72
    65
 73
     2
 40
10.0
 49
6.0
 74
     0
 49
-4.0
 74
     0
  0
ENDTAB
  0
TABLE
  2
LAYER
  5
2
330
0
100
AcDbSymbolTable
 70
    14
  0
LAYER
  5
E
330
2
100
AcDbSymbolTableRecord
100
AcDbLayerTableRecord
  2
0
 70
     0
 62
     7
  6
CONTINUOUS
370
    -3
390
16E
  0
LAYER
  5
29
330
2
100
AcDbSymbolTableRecord
100
AcDbLayerTableRecord
  2
ANCON-ORIGIN
 70
     0
 62
     1
  6
CONTINUOUS
370
    -3
390
16E
  0
LAYER
  5
2A
330
2
100
AcDbSymbolTableRecord
100
AcDbLayerTableRecord
  2
ANCON-SUPPORT
 70
     0
 62
     3
  6
CONTINUOUS
370
    -3
390
16E
  0
LAYER
  5
2B
330
2
100
AcDbSymbolTableRecord
100
AcDbLayerTableRecord
  2
ANCON-STRUC
 70
     0
 62
     2
  6
CONTINUOUS
370
    -3
390
16E
  0
LAYER
  5
2C
330
2
100
AcDbSymbolTableRecord
100
AcDbLayerTableRecord
  2
ANCON-MASONRY
 70
     0
 62
     1
  6
CONTINUOUS
370
    -3
390
16E
  0
LAYER
  5
2D
330
2
100
AcDbSymbolTableRecord
100
AcDbLayerTableRecord
  2
DEFPOINTS
 70
     0
 62
     7
  6
CONTINUOUS
290
     0
370
    -3
390
16E
  0
LAYER
  5
2E
330
2
100
AcDbSymbolTableRecord
100
AcDbLayerTableRecord
  2
ANCON-DIM
 70
     0
 62
     1
  6
CONTINUOUS
370
    -3
390
16E
  0
LAYER
  5
2F
330
2
100
AcDbSymbolTableRecord
100
AcDbLayerTableRecord
  2
ANCON-CHANNEL
 70
     0
 62
     1
  6
CONTINUOUS
370
    -3
390
16E
  0
LAYER
  5
30
330
2
100
AcDbSymbolTableRecord
100
AcDbLayerTableRecord
  2
ANCON-TEXT
 70
     0
 62
     6
  6
CONTINUOUS
370
    -3
390
16E
  0
LAYER
  5
31
330
2
100
AcDbSymbolTableRecord
100
AcDbLayerTableRecord
  2
ANCON-TIE
 70
     0
 62
     1
  6
CONTINUOUS
370
    -3
390
16E
  0
LAYER
  5
32
330
2
100
AcDbSymbolTableRecord
100
AcDbLayerTableRecord
  2
GENTEXT
 70
     0
 62
     2
  6
CONTINUOUS
370
    -3
390
16E
  0
LAYER
  5
177
330
2
100
AcDbSymbolTableRecord
100
AcDbLayerTableRecord
  2
DANCON
 70
     0
 62
     4
  6
CONTINUOUS
370
    -3
390
16E
  0
LAYER
  5
178
330
2
100
AcDbSymbolTableRecord
100
AcDbLayerTableRecord
  2
ANCON
 70
     0
 62
     4
  6
CONTINUOUS
370
    -3
390
16E
  0
LAYER
  5
179
330
2
100
AcDbSymbolTableRecord
100
AcDbLayerTableRecord
  2
HID
 70
     0
 62
     4
  6
HIDDEN1_02
370
    -3
390
16E
  0
ENDTAB
  0
TABLE
  2
STYLE
  5
3
330
0
100
AcDbSymbolTable
 70
     2
  0
STYLE
  5
F
330
3
100
AcDbSymbolTableRecord
100
AcDbTextStyleTableRecord
  2
STANDARD
 70
     0
 40
0.0
 41
1.0
 50
0.0
 71
     0
 42
3.0
  3
txt.shx
  4

  0
STYLE
  5
23
330
3
100
AcDbSymbolTableRecord
100
AcDbTextStyleTableRecord
  2
ROMANS
 70
     0
 40
0.0
 41
1.0
 50
0.0
 71
     0
 42
9.0
  3
romans
  4

  0
ENDTAB
  0
TABLE
  2
VIEW
  5
6
330
0
100
AcDbSymbolTable
 70
     0
  0
ENDTAB
  0
TABLE
  2
UCS
  5
7
330
0
100
AcDbSymbolTable
 70
     0
  0
ENDTAB
  0
TABLE
  2
APPID
  5
9
330
0
100
AcDbSymbolTable
 70
     1
  0
APPID
  5
10
330
9
100
AcDbSymbolTableRecord
100
AcDbRegAppTableRecord
  2
ACAD
 70
     0
  0
ENDTAB
  0
TABLE
  2
DIMSTYLE
  5
A
330
0
100
AcDbSymbolTable
 70
     2
100
AcDbDimStyleTable
 71
     0
  0
DIMSTYLE
105
26
330
A
100
AcDbSymbolTableRecord
100
AcDbDimStyleTableRecord
  2
1-5
 70
     0
 40
5.0
 41
0.0
 42
4.5
 43
0.0
 44
1.5
 45
1.0
 46
1.25
 73
     0
 74
     0
 77
     1
 78
    12
140
1.8
141
0.0
142
1.0
143
0.04
146
1.25
147
0.1
271
     2
272
     2
279
     2
284
    12
285
    12
286
    12
340
23
  0
DIMSTYLE
105
213
330
A
100
AcDbSymbolTableRecord
100
AcDbDimStyleTableRecord
  2
STANDARD
 70
     0
340
F
  0
ENDTAB
  0
TABLE
  2
BLOCK_RECORD
  5
1
330
0
100
AcDbSymbolTable
 70
     9
  0
BLOCK_RECORD
  5
17
330
1
100
AcDbSymbolTableRecord
100
AcDbBlockTableRecord
  2
*MODEL_SPACE
340
171
  0
BLOCK_RECORD
  5
14
330
1
100
AcDbSymbolTableRecord
100
AcDbBlockTableRecord
  2
*PAPER_SPACE
340
172
  0
BLOCK_RECORD
  5
1C
330
1
100
AcDbSymbolTableRecord
100
AcDbBlockTableRecord
  2
OR
340
0
  0
BLOCK_RECORD
  5
17A
330
1
100
AcDbSymbolTableRecord
100
AcDbBlockTableRecord
  2
Chanel13
340
0
102
{BLKREFS
331
1C7
102
}
  0
BLOCK_RECORD
  5
214
330
1
100
AcDbSymbolTableRecord
100
AcDbBlockTableRecord
  2
30channel
340
0
102
{BLKREFS
331
266
102
}
  0
ENDTAB
  0
ENDSEC
  0
SECTION
  2
BLOCKS
  0
BLOCK
  5
36
330
17
100
AcDbEntity
  8
0
100
AcDbBlockBegin
  2
*MODEL_SPACE
 70
     0
 10
0.0
 20
0.0
 30
0.0
  3
*MODEL_SPACE
  1

  0
ENDBLK
  5
37
330
17
100
AcDbEntity
  8
0
100
AcDbBlockEnd
  0
BLOCK
  5
34
330
14
100
AcDbEntity
 67
     1
  8
0
100
AcDbBlockBegin
  2
*PAPER_SPACE
 70
     0
 10
0.0
 20
0.0
 30
0.0
  3
*PAPER_SPACE
  1

  0
ENDBLK
  5
35
330
14
100
AcDbEntity
 67
     1
  8
0
100
AcDbBlockEnd
  0
BLOCK
  5
3A
330
1C
100
AcDbEntity
  8
0
100
AcDbBlockBegin
  2
OR
 70
     0
 10
0.0
 20
0.0
 30
0.0
  3
OR
  1

  0
LWPOLYLINE
  5
3B
330
1C
100
AcDbEntity
  8
ANCON-ORIGIN
100
AcDbPolyline
 90
        5
 70
     0
 43
0.0
 10
-10.17326135673704
 20
-6.213917405744268
 10
-10.17326135673704
 20
6.213917405744268
 10
10.17326135673704
 20
-6.213917405744268
 10
10.17326135673704
 20
6.213917405744268
 10
-10.17326135673704
 20
-6.213917405744268
  0
ENDBLK
  5
42
330
1C
100
AcDbEntity
  8
0
100
AcDbBlockEnd
  0
BLOCK
  5
1C5
330
17A
100
AcDbEntity
  8
0
100
AcDbBlockBegin
  2
Chanel13
 70
     0
 10
0.0
 20
0.0
 30
0.0
  3
Chanel13
  1

  0
LINE
  5
17B
330
17A
100
AcDbEntity
  8
DANCON
100
AcDbLine
 10
-13.5
 20
5.0
 30
0.0
 11
-83.54403618259629
 21
5.0
 31
0.0
  0
LINE
  5
17C
330
17A
100
AcDbEntity
  8
DANCON
100
AcDbLine
 10
-4.750126841496694
 20
11.79896486544748
 30
0.0
 11
-16.2500422804992
 21
5.157988288482556
 31
0.0
  0
LINE
  5
17D
330
17A
100
AcDbEntity
  8
DANCON
100
AcDbLine
 10
-6.000338243990881
 20
13.96390630785936
 30
0.0
 11
-17.50025368299338
 21
7.322929730894429
 31
0.0
  0
LINE
  5
17E
330
17A
100
AcDbEntity
  8
DANCON
100
AcDbLine
 10
-13.5
 20
5.0
 30
0.0
 11
-16.44115680106915
 21
5.0
 31
0.0
  0
LINE
  5
17F
330
17A
100
AcDbEntity
  8
DANCON
100
AcDbLine
 10
-16.44115680106915
 20
5.0
 30
0.0
 11
-17.53296911004645
 21
5.0
 31
0.0
  0
ARC
  5
180
330
17A
100
AcDbEntity
  8
DANCON
100
AcDbCircle
 10
-16.0
 20
4.725000000000363
 30
0.0
 40
0.5
100
AcDbArc
 50
120.0055946682702
 51
180.0
  0
ARC
  5
181
330
17A
100
AcDbEntity
  8
DANCON
100
AcDbCircle
 10
-4.0
 20
10.5
 30
0.0
 40
1.5
100
AcDbArc
 50
0.0
 51
120.0055946682702
  0
ARC
  5
182
330
17A
100
AcDbEntity
  8
DANCON
100
AcDbCircle
 10
-4.0
 20
10.5
 30
0.0
 40
4.0
100
AcDbArc
 50
0.0
 51
120.0055946682702
  0
LINE
  5
183
330
17A
100
AcDbEntity
  8
DANCON
100
AcDbLine
 10
-2.5
 20
7.210000000000036
 30
0.0
 11
0.0
 21
7.210000000000036
 31
0.0
  0
LINE
  5
184
330
17A
100
AcDbEntity
  8
DANCON
100
AcDbLine
 10
-2.5
 20
10.5
 30
0.0
 11
-2.5
 21
7.210000000000036
 31
0.0
  0
LINE
  5
185
330
17A
100
AcDbEntity
  8
DANCON
100
AcDbLine
 10
0.0
 20
10.5
 30
0.0
 11
0.0
 21
7.210000000000036
 31
0.0
  0
ARC
  5
186
330
17A
100
AcDbEntity
  8
DANCON
100
AcDbCircle
 10
-4.0
 20
-10.5
 30
0.0
 40
1.5
100
AcDbArc
 50
239.9944053317297
 51
0.0
  0
LINE
  5
187
330
17A
100
AcDbEntity
  8
DANCON
100
AcDbLine
 10
-17.50025368299338
 20
-7.322929730894429
 30
0.0
 11
-6.000338243990881
 21
-13.96390630785936
 31
0.0
  0
ARC
  5
188
330
17A
100
AcDbEntity
  8
DANCON
100
AcDbCircle
 10
-4.0
 20
-10.5
 30
0.0
 40
4.0
100
AcDbArc
 50
239.9944053317297
 51
0.0
  0
LINE
  5
189
330
17A
100
AcDbEntity
  8
DANCON
100
AcDbLine
 10
-16.2500422804992
 20
-5.157988288482556
 30
0.0
 11
-4.750126841496694
 21
-11.79896486544748
 31
0.0
  0
LINE
  5
18A
330
17A
100
AcDbEntity
  8
DANCON
100
AcDbLine
 10
-13.5
 20
-5.0
 30
0.0
 11
-16.41758232721258
 21
-5.0
 31
0.0
  0
LINE
  5
18B
330
17A
100
AcDbEntity
  8
DANCON
100
AcDbLine
 10
-16.41758232721258
 20
-5.0
 30
0.0
 11
-17.53296911004645
 21
-5.0
 31
0.0
  0
ARC
  5
18C
330
17A
100
AcDbEntity
  8
DANCON
100
AcDbCircle
 10
-16.0
 20
-4.725000000000363
 30
0.0
 40
0.5
100
AcDbArc
 50
180.0
 51
239.9944053317297
  0
LINE
  5
18D
330
17A
100
AcDbEntity
  8
DANCON
100
AcDbLine
 10
-18.12726019059164
 20
-5.0
 30
0.0
 11
-18.98736924400054
 21
-5.0
 31
0.0
  0
ARC
  5
18E
330
17A
100
AcDbEntity
  8
DANCON
100
AcDbCircle
 10
-16.0
 20
-4.725000000000363
 30
0.0
 40
3.0
100
AcDbArc
 50
180.0
 51
239.9944053317297
  0
LINE
  5
18F
330
17A
100
AcDbEntity
  8
DANCON
100
AcDbLine
 10
-2.5
 20
-7.210000000000036
 30
0.0
 11
0.0
 21
-7.210000000000036
 31
0.0
  0
LINE
  5
190
330
17A
100
AcDbEntity
  8
DANCON
100
AcDbLine
 10
0.0
 20
-7.210000000000036
 30
0.0
 11
0.0
 21
-10.5
 31
0.0
  0
LINE
  5
191
330
17A
100
AcDbEntity
  8
DANCON
100
AcDbLine
 10
-2.5
 20
-7.210000000000036
 30
0.0
 11
-2.5
 21
-10.5
 31
0.0
  0
LINE
  5
192
330
17A
100
AcDbEntity
  8
DANCON
100
AcDbLine
 10
-83.54403618259629
 20
-5.0
 30
0.0
 11
-13.5
 21
-5.0
 31
0.0
  0
LINE
  5
193
330
17A
100
AcDbEntity
  8
DANCON
100
AcDbLine
 10
-83.54403618259629
 20
5.0
 30
0.0
 11
-83.54403618259629
 21
-5.0
 31
0.0
  0
LINE
  5
194
330
17A
100
AcDbEntity
  8
DANCON
100
AcDbLine
 10
-72.48044734660107
 20
2.5
 30
0.0
 11
-72.48044734660107
 21
-2.5
 31
0.0
  0
LINE
  5
195
330
17A
100
AcDbEntity
  8
DANCON
100
AcDbLine
 10
-70.48044734660106
 20
2.5
 30
0.0
 11
-70.48044734660106
 21
-2.5
 31
0.0
  0
LINE
  5
196
330
17A
100
AcDbEntity
  8
DANCON
100
AcDbLine
 10
-71.48044734660107
 20
3.5
 30
0.0
 11
-71.48044734660107
 21
-3.5
 31
0.0
  0
LINE
  5
197
330
17A
100
AcDbEntity
  8
DANCON
100
AcDbLine
 10
-61.30000000000155
 20
2.5
 30
0.0
 11
-61.30000000000155
 21
-2.5
 31
0.0
  0
LINE
  5
198
330
17A
100
AcDbEntity
  8
DANCON
100
AcDbLine
 10
-59.30000000000155
 20
2.5
 30
0.0
 11
-59.30000000000155
 21
-2.5
 31
0.0
  0
LINE
  5
199
330
17A
100
AcDbEntity
  8
DANCON
100
AcDbLine
 10
-60.30000000000154
 20
3.5
 30
0.0
 11
-60.30000000000154
 21
-3.5
 31
0.0
  0
LINE
  5
19A
330
17A
100
AcDbEntity
  8
DANCON
100
AcDbLine
 10
-50.70000000000209
 20
2.5
 30
0.0
 11
-50.70000000000209
 21
-2.5
 31
0.0
  0
LINE
  5
19B
330
17A
100
AcDbEntity
  8
DANCON
100
AcDbLine
 10
-48.70000000000209
 20
2.5
 30
0.0
 11
-48.70000000000209
 21
-2.5
 31
0.0
  0
LINE
  5
19C
330
17A
100
AcDbEntity
  8
DANCON
100
AcDbLine
 10
-37.72519003201796
 20
2.5
 30
0.0
 11
-37.72519003201796
 21
-2.5
 31
0.0
  0
LINE
  5
19D
330
17A
100
AcDbEntity
  8
DANCON
100
AcDbLine
 10
-39.72519003201796
 20
2.5
 30
0.0
 11
-39.72519003201796
 21
-2.5
 31
0.0
  0
LINE
  5
19E
330
17A
100
AcDbEntity
  8
DANCON
100
AcDbLine
 10
-49.70000000000209
 20
3.5
 30
0.0
 11
-49.70000000000209
 21
-3.5
 31
0.0
  0
LINE
  5
19F
330
17A
100
AcDbEntity
  8
DANCON
100
AcDbLine
 10
-38.72519003201796
 20
3.5
 30
0.0
 11
-38.72519003201796
 21
-3.5
 31
0.0
  0
LINE
  5
1A0
330
17A
100
AcDbEntity
  8
DANCON
100
AcDbLine
 10
-18.98244518579213
 20
5.0
 30
0.0
 11
-24.7795359965603
 21
5.0
 31
0.0
  0
LINE
  5
1A1
330
17A
100
AcDbEntity
  8
DANCON
100
AcDbLine
 10
-18.98736924400054
 20
-5.0
 30
0.0
 11
-25.9924071751393
 21
-5.0
 31
0.0
  0
LINE
  5
1A2
330
17A
100
AcDbEntity
  8
DANCON
100
AcDbLine
 10
-27.95687423868776
 20
2.5
 30
0.0
 11
-27.95687423868776
 21
-2.5
 31
0.0
  0
LINE
  5
1A3
330
17A
100
AcDbEntity
  8
DANCON
100
AcDbLine
 10
-29.95687423868776
 20
2.5
 30
0.0
 11
-29.95687423868776
 21
-2.5
 31
0.0
  0
LINE
  5
1A4
330
17A
100
AcDbEntity
  8
DANCON
100
AcDbLine
 10
-28.95687423868776
 20
3.5
 30
0.0
 11
-28.95687423868776
 21
-3.5
 31
0.0
  0
LINE
  5
1A5
330
17A
100
AcDbEntity
  8
DANCON
100
AcDbLine
 10
-18.12726019059164
 20
5.0
 30
0.0
 11
-18.98244518579213
 21
5.0
 31
0.0
  0
ARC
  5
1A6
330
17A
100
AcDbEntity
  8
DANCON
100
AcDbCircle
 10
-16.0
 20
4.725000000000363
 30
0.0
 40
3.0
100
AcDbArc
 50
120.0055946682702
 51
180.0
  0
LINE
  5
1A7
330
17A
100
AcDbEntity
  8
HID
100
AcDbLine
 10
-16.0
 20
5.0
 30
0.0
 11
-16.0
 21
-5.0
 31
0.0
  0
LINE
  5
1A8
330
17A
100
AcDbEntity
  8
DANCON
100
AcDbLine
 10
-16.5
 20
-4.725000000000363
 30
0.0
 11
-16.5
 21
4.725000000000363
 31
0.0
  0
LINE
  5
1A9
330
17A
100
AcDbEntity
  8
DANCON
100
AcDbLine
 10
-19.0
 20
-4.725000000000363
 30
0.0
 11
-19.0
 21
4.725000000000363
 31
0.0
  0
LINE
  5
1AA
330
17A
100
AcDbEntity
  8
DANCON
100
AcDbLine
 10
-13.5
 20
-5.0
 30
0.0
 11
-13.5
 21
5.0
 31
0.0
  0
LINE
  5
1AB
330
17A
100
AcDbEntity
  8
DANCON
100
AcDbLine
 10
-13.5
 20
-5.0
 30
0.0
 11
-13.5
 21
5.0
 31
0.0
  0
LINE
  5
1AC
330
17A
100
AcDbEntity
  8
DANCON
 62
     1
100
AcDbLine
 10
-102.9187930197019
 20
0.0
 30
0.0
 11
46.27757637401595
 21
0.0
 31
0.0
  0
LINE
  5
1AD
330
17A
100
AcDbEntity
  8
DANCON
100
AcDbLine
 10
17.68361471931984
 20
-10.40827499999977
 30
0.0
 11
24.44711471931987
 21
-10.40827499999977
 31
0.0
  0
LINE
  5
1AE
330
17A
100
AcDbEntity
  8
DANCON
100
AcDbLine
 10
17.68361471931984
 20
-5.196909127127582
 30
0.0
 11
24.44711471932032
 21
-5.196909127127582
 31
0.0
  0
LINE
  5
1AF
330
17A
100
AcDbEntity
  8
DANCON
100
AcDbLine
 10
17.68361471931939
 20
5.196909127127582
 30
0.0
 11
24.44711471932009
 21
5.196909127127582
 31
0.0
  0
LINE
  5
1B0
330
17A
100
AcDbEntity
  8
DANCON
100
AcDbLine
 10
17.68361471931984
 20
10.40827500000068
 30
0.0
 11
24.44711471932055
 21
10.40827500000068
 31
0.0
  0
LINE
  5
1B1
330
17A
100
AcDbEntity
  8
DANCON
100
AcDbLine
 10
16.18061471931992
 20
12.52499999999963
 30
0.0
 11
16.18061471931969
 21
-12.52499999999963
 31
0.0
  0
LINE
  5
1B2
330
17A
100
AcDbEntity
  8
DANCON
100
AcDbLine
 10
12.97421471931966
 20
12.52499999999963
 30
0.0
 11
12.97421471931966
 21
-12.52499999999963
 31
0.0
  0
LINE
  5
1B3
330
17A
100
AcDbEntity
  8
DANCON
100
AcDbLine
 10
12.97421471931966
 20
-12.52499999999963
 30
0.0
 11
16.18061471931969
 21
-12.52499999999963
 31
0.0
  0
ARC
  5
1B4
330
17A
100
AcDbEntity
  8
DANCON
100
AcDbCircle
 10
19.19079188672947
 20
7.802592063564588
 30
0.0
 40
3.010177167409811
100
AcDbArc
 50
120.0459147637288
 51
239.9540852362711
  0
LINE
  5
1B5
330
17A
100
AcDbEntity
  8
DANCON
100
AcDbLine
 10
16.18061471931992
 20
7.802592063564588
 30
0.0
 11
16.18061471931992
 21
-7.802592063563679
 31
0.0
  0
ARC
  5
1B6
330
17A
100
AcDbEntity
  8
DANCON
100
AcDbCircle
 10
25.91676690682027
 20
0.0
 30
0.0
 40
9.736152187499891
100
AcDbArc
 50
147.7391653073573
 51
212.2608346926426
  0
ARC
  5
1B7
330
17A
100
AcDbEntity
  8
DANCON
100
AcDbCircle
 10
19.19079188673015
 20
-7.802592063563679
 30
0.0
 40
3.010177167409903
100
AcDbArc
 50
120.0459147637372
 51
239.9540852362711
  0
LINE
  5
1B8
330
17A
100
AcDbEntity
  8
DANCON
100
AcDbLine
 10
12.97421471931966
 20
12.52499999999963
 30
0.0
 11
16.18061471931969
 21
12.52499999999963
 31
0.0
  0
LINE
  5
1B9
330
17A
100
AcDbEntity
  8
DANCON
100
AcDbLine
 10
25.95011471932002
 20
-5.509000000000014
 30
0.0
 11
41.90217097724132
 21
-5.509000000000014
 31
0.0
  0
LINE
  5
1BA
330
17A
100
AcDbEntity
  8
DANCON
100
AcDbLine
 10
25.95011471931991
 20
-4.509000000000014
 30
0.0
 11
42.90217097724132
 21
-4.509000000000014
 31
0.0
  0
LINE
  5
1BB
330
17A
100
AcDbEntity
  8
DANCON
100
AcDbLine
 10
25.95011471931991
 20
5.509000000000014
 30
0.0
 11
41.90217097724143
 21
5.509000000000014
 31
0.0
  0
LINE
  5
1BC
330
17A
100
AcDbEntity
  8
DANCON
100
AcDbLine
 10
25.95011471931991
 20
4.509000000000014
 30
0.0
 11
42.90217097724132
 21
4.509000000000014
 31
0.0
  0
ARC
  5
1BD
330
17A
100
AcDbEntity
  8
DANCON
100
AcDbCircle
 10
22.93993755190956
 20
7.802592063563679
 30
0.0
 40
3.010177167410298
100
AcDbArc
 50
300.0459147637372
 51
59.95408523626838
  0
LINE
  5
1BE
330
17A
100
AcDbEntity
  8
DANCON
100
AcDbLine
 10
25.95011471931991
 20
7.802592063563679
 30
0.0
 11
25.95011471931991
 21
-7.802592063563679
 31
0.0
  0
ARC
  5
1BF
330
17A
100
AcDbEntity
  8
DANCON
100
AcDbCircle
 10
16.21396253182001
 20
0.0
 30
0.0
 40
9.736152187499891
100
AcDbArc
 50
327.7391653073573
 51
32.26083469264267
  0
ARC
  5
1C0
330
17A
100
AcDbEntity
  8
DANCON
100
AcDbCircle
 10
22.93993755191013
 20
-7.802592063563679
 30
0.0
 40
3.010177167409903
100
AcDbArc
 50
300.0459147637288
 51
59.95408523626274
  0
LINE
  5
1C1
330
17A
100
AcDbEntity
  8
DANCON
100
AcDbLine
 10
41.90217097724132
 20
5.509000000000014
 30
0.0
 11
41.90217097724132
 21
-5.509000000000014
 31
0.0
  0
LINE
  5
1C2
330
17A
100
AcDbEntity
  8
DANCON
100
AcDbLine
 10
42.90217097724132
 20
4.509000000000014
 30
0.0
 11
42.90217097724132
 21
-4.509000000000014
 31
0.0
  0
LINE
  5
1C3
330
17A
100
AcDbEntity
  8
DANCON
100
AcDbLine
 10
41.90217097724132
 20
-5.509000000000014
 30
0.0
 11
42.90217097724132
 21
-4.509000000000014
 31
0.0
  0
LINE
  5
1C4
330
17A
100
AcDbEntity
  8
DANCON
100
AcDbLine
 10
41.90217097724132
 20
5.509000000000014
 30
0.0
 11
42.90217097724132
 21
4.509000000000014
 31
0.0
  0
ENDBLK
  5
1C6
330
17A
100
AcDbEntity
  8
0
100
AcDbBlockEnd
  0
BLOCK
  5
264
330
214
100
AcDbEntity
  8
0
100
AcDbBlockBegin
  2
30channel
 70
     0
 10
0.0
 20
0.0
 30
0.0
  3
30channel
  1

  0
TEXT
  5
215
330
214
100
AcDbEntity
  8
ANCON-TEXT
100
AcDbText
 10
-388.3538807824293
 20
-45.23572445620127
 30
0.0
 40
9.0
  1

  7
ROMANS
100
AcDbText
  0
TEXT
  5
216
330
214
100
AcDbEntity
  8
ANCON-TEXT
100
AcDbText
 10
-388.3538807824293
 20
-59.59282782648878
 30
0.0
 40
9.0
  1

  7
ROMANS
100
AcDbText
  0
TEXT
  5
217
330
214
100
AcDbEntity
  8
ANCON-TEXT
100
AcDbText
 10
-333.3312888541478
 20
-30.5001404103975
 30
0.0
 40
9.0
  1

  7
ROMANS
100
AcDbText
  0
TEXT
  5
218
330
214
100
AcDbEntity
  8
ANCON-TEXT
100
AcDbText
 10
-333.3312888541478
 20
13.21414530388827
 30
0.0
 40
9.0
  1
STANDARD EDGE : 75mm
  7
ROMANS
100
AcDbText
  0
TEXT
  5
219
330
214
100
AcDbEntity
  8
ANCON-TEXT
100
AcDbText
 10
-333.3312888541478
 20
27.78557387531682
 30
0.0
 40
9.0
  1
ANCON 30/20 CAST-IN CHANNEL
  7
ROMANS
100
AcDbText
  0
LINE
  5
21A
330
214
100
AcDbEntity
  8
ANCON-CHANNEL
100
AcDbLine
 10
-284.8827690584341
 20
61.33809506595651
 30
0.0
 11
-284.8827690584341
 21
72.85165908403107
 31
0.0
  0
LINE
  5
21B
330
214
100
AcDbEntity
  8
ANCON-CHANNEL
100
AcDbLine
 10
-270.7594500359755
 20
63.95330328856516
 30
0.0
 11
-270.7594500359755
 21
67.78446787575103
 31
0.0
  0
LINE
  5
21C
330
214
100
AcDbEntity
  8
ANCON-CHANNEL
100
AcDbLine
 10
-271.7594500359755
 20
64.37379761831403
 30
0.0
 11
-271.7594500359755
 21
66.56970877590964
 31
0.0
  0
LINE
  5
21D
330
214
100
AcDbEntity
  8
ANCON-CHANNEL
100
AcDbLine
 10
-270.7594500359755
 20
61.33809506595652
 30
0.0
 11
-270.7594500359755
 21
63.29920329505552
 31
0.0
  0
LINE
  5
21E
330
214
100
AcDbEntity
  8
ANCON-CHANNEL
100
AcDbLine
 10
-269.7594500359755
 20
61.33809506595651
 30
0.0
 11
-269.7594500359755
 21
63.25248078397692
 31
0.0
  0
LINE
  5
21F
330
214
100
AcDbEntity
  8
ANCON-CHANNEL
100
AcDbLine
 10
-269.7594500359755
 20
64.65412717147995
 30
0.0
 11
-269.7594500359755
 21
67.78446787575103
 31
0.0
  0
LINE
  5
220
330
214
100
AcDbEntity
  8
ANCON-CHANNEL
100
AcDbLine
 10
-269.7594500359755
 20
68.5787340241701
 30
0.0
 11
-269.7594500359755
 21
70.58775927243061
 31
0.0
  0
LINE
  5
221
330
214
100
AcDbEntity
  8
ANCON-CHANNEL
100
AcDbLine
 10
-270.7594500359755
 20
68.25168333825207
 30
0.0
 11
-270.7594500359755
 21
70.40087336309551
 31
0.0
  0
LINE
  5
222
330
214
100
AcDbEntity
  8
ANCON-CHANNEL
100
AcDbLine
 10
-271.7594500359755
 20
67.17708901499356
 30
0.0
 11
-271.7594500359755
 21
68.90578471008814
 31
0.0
  0
LINE
  5
223
330
214
100
AcDbEntity
  8
ANCON-CHANNEL
100
AcDbLine
 10
-271.7594500359755
 20
69.55988608192427
 30
0.0
 11
-271.7594500359755
 21
72.85165908403107
 31
0.0
  0
LINE
  5
224
330
214
100
AcDbEntity
  8
ANCON-CHANNEL
100
AcDbLine
 10
-260.7140562725162
 20
63.95330328856516
 30
0.0
 11
-260.7140562725162
 21
67.78446787575103
 31
0.0
  0
LINE
  5
225
330
214
100
AcDbEntity
  8
ANCON-CHANNEL
100
AcDbLine
 10
-261.7140562725162
 20
64.37379761831403
 30
0.0
 11
-261.7140562725162
 21
66.56970877590964
 31
0.0
  0
LINE
  5
226
330
214
100
AcDbEntity
  8
ANCON-CHANNEL
100
AcDbLine
 10
-259.7140562725162
 20
61.33809506595651
 30
0.0
 11
-259.7140562725162
 21
63.25248078397692
 31
0.0
  0
LINE
  5
227
330
214
100
AcDbEntity
  8
ANCON-CHANNEL
100
AcDbLine
 10
-260.7140562725162
 20
61.33809506595652
 30
0.0
 11
-260.7140562725162
 21
63.29920329505552
 31
0.0
  0
LINE
  5
228
330
214
100
AcDbEntity
  8
ANCON-CHANNEL
100
AcDbLine
 10
-260.7140562725162
 20
68.25168333825207
 30
0.0
 11
-260.7140562725162
 21
70.40087336309551
 31
0.0
  0
LINE
  5
229
330
214
100
AcDbEntity
  8
ANCON-CHANNEL
100
AcDbLine
 10
-259.7140562725162
 20
68.5787340241701
 30
0.0
 11
-259.7140562725162
 21
70.58775927243061
 31
0.0
  0
LINE
  5
22A
330
214
100
AcDbEntity
  8
ANCON-CHANNEL
100
AcDbLine
 10
-259.7140562725162
 20
64.65412717147995
 30
0.0
 11
-259.7140562725162
 21
67.78446787575103
 31
0.0
  0
LINE
  5
22B
330
214
100
AcDbEntity
  8
ANCON-CHANNEL
100
AcDbLine
 10
-261.7140562725162
 20
67.17708901499356
 30
0.0
 11
-261.7140562725162
 21
68.90578471008814
 31
0.0
  0
LINE
  5
22C
330
214
100
AcDbEntity
  8
ANCON-CHANNEL
100
AcDbLine
 10
-261.7140562725162
 20
69.55988608192427
 30
0.0
 11
-261.7140562725162
 21
73.10169586768376
 31
0.0
  0
LINE
  5
22D
330
214
100
AcDbEntity
  8
ANCON-CHANNEL
100
AcDbLine
 10
-250.6686625090569
 20
63.95330328856516
 30
0.0
 11
-250.6686625090569
 21
67.78446787575103
 31
0.0
  0
LINE
  5
22E
330
214
100
AcDbEntity
  8
ANCON-CHANNEL
100
AcDbLine
 10
-251.6686625090569
 20
64.37379761831403
 30
0.0
 11
-251.6686625090569
 21
66.56970877590964
 31
0.0
  0
LINE
  5
22F
330
214
100
AcDbEntity
  8
ANCON-CHANNEL
100
AcDbLine
 10
-250.6686625090569
 20
61.33809506595652
 30
0.0
 11
-250.6686625090569
 21
63.29920329505552
 31
0.0
  0
LINE
  5
230
330
214
100
AcDbEntity
  8
ANCON-CHANNEL
100
AcDbLine
 10
-249.6686625090569
 20
61.33809506595651
 30
0.0
 11
-249.6686625090569
 21
63.25248078397692
 31
0.0
  0
LINE
  5
231
330
214
100
AcDbEntity
  8
ANCON-CHANNEL
100
AcDbLine
 10
-249.6686625090569
 20
64.65412717147995
 30
0.0
 11
-249.6686625090569
 21
67.78446787575103
 31
0.0
  0
LINE
  5
232
330
214
100
AcDbEntity
  8
ANCON-CHANNEL
100
AcDbLine
 10
-249.6686625090569
 20
68.5787340241701
 30
0.0
 11
-249.6686625090569
 21
70.58775927243061
 31
0.0
  0
LINE
  5
233
330
214
100
AcDbEntity
  8
ANCON-CHANNEL
100
AcDbLine
 10
-250.6686625090569
 20
68.25168333825207
 30
0.0
 11
-250.6686625090569
 21
70.40087336309551
 31
0.0
  0
LINE
  5
234
330
214
100
AcDbEntity
  8
ANCON-CHANNEL
100
AcDbLine
 10
-251.6686625090569
 20
67.17708901499356
 30
0.0
 11
-251.6686625090569
 21
68.90578471008814
 31
0.0
  0
LINE
  5
235
330
214
100
AcDbEntity
  8
ANCON-CHANNEL
100
AcDbLine
 10
-251.6686625090569
 20
69.55988608192427
 30
0.0
 11
-251.6686625090569
 21
73.10169586768376
 31
0.0
  0
LINE
  5
236
330
214
100
AcDbEntity
  8
ANCON-CHANNEL
100
AcDbLine
 10
-231.5778749821383
 20
64.37379761831403
 30
0.0
 11
-231.5778749821383
 21
66.56970877590964
 31
0.0
  0
LINE
  5
237
330
214
100
AcDbEntity
  8
ANCON-CHANNEL
100
AcDbLine
 10
-240.6232687455976
 20
63.95330328856516
 30
0.0
 11
-240.6232687455976
 21
67.78446787575103
 31
0.0
  0
LINE
  5
238
330
214
100
AcDbEntity
  8
ANCON-CHANNEL
100
AcDbLine
 10
-241.6232687455976
 20
64.37379761831403
 30
0.0
 11
-241.6232687455976
 21
66.56970877590964
 31
0.0
  0
LINE
  5
239
330
214
100
AcDbEntity
  8
ANCON-CHANNEL
100
AcDbLine
 10
-239.6232687455976
 20
61.33809506595651
 30
0.0
 11
-239.6232687455976
 21
63.25248078397692
 31
0.0
  0
LINE
  5
23A
330
214
100
AcDbEntity
  8
ANCON-CHANNEL
100
AcDbLine
 10
-240.6232687455976
 20
61.33809506595652
 30
0.0
 11
-240.6232687455976
 21
63.29920329505552
 31
0.0
  0
LINE
  5
23B
330
214
100
AcDbEntity
  8
ANCON-CHANNEL
100
AcDbLine
 10
-239.6232687455976
 20
68.5787340241701
 30
0.0
 11
-239.6232687455976
 21
70.58775927243061
 31
0.0
  0
LINE
  5
23C
330
214
100
AcDbEntity
  8
ANCON-CHANNEL
100
AcDbLine
 10
-239.6232687455976
 20
64.65412717147995
 30
0.0
 11
-239.6232687455976
 21
67.78446787575103
 31
0.0
  0
LINE
  5
23D
330
214
100
AcDbEntity
  8
ANCON-CHANNEL
100
AcDbLine
 10
-240.6232687455976
 20
68.25168333825207
 30
0.0
 11
-240.6232687455976
 21
70.40087336309551
 31
0.0
  0
LINE
  5
23E
330
214
100
AcDbEntity
  8
ANCON-CHANNEL
100
AcDbLine
 10
-241.6232687455976
 20
67.17708901499356
 30
0.0
 11
-241.6232687455976
 21
68.90578471008814
 31
0.0
  0
LINE
  5
23F
330
214
100
AcDbEntity
  8
ANCON-CHANNEL
100
AcDbLine
 10
-241.6232687455976
 20
69.55988608192427
 30
0.0
 11
-241.6232687455976
 21
72.85165908403107
 31
0.0
  0
LINE
  5
240
330
214
100
AcDbEntity
  8
ANCON-CHANNEL
100
AcDbLine
 10
-231.5778749821383
 20
67.17708901499356
 30
0.0
 11
-231.5778749821383
 21
68.90578471008814
 31
0.0
  0
LINE
  5
241
330
214
100
AcDbEntity
  8
ANCON-CHANNEL
100
AcDbLine
 10
-231.5778749821383
 20
69.55988608192427
 30
0.0
 11
-231.5778749821383
 21
73.10169586768376
 31
0.0
  0
LINE
  5
242
330
214
100
AcDbEntity
  8
ANCON-CHANNEL
100
AcDbLine
 10
-230.5778749821383
 20
63.95330328856516
 30
0.0
 11
-230.5778749821383
 21
67.78446787575103
 31
0.0
  0
LINE
  5
243
330
214
100
AcDbEntity
  8
ANCON-CHANNEL
100
AcDbLine
 10
-229.5778749821383
 20
61.33809506595651
 30
0.0
 11
-229.5778749821383
 21
63.25248078397692
 31
0.0
  0
LINE
  5
244
330
214
100
AcDbEntity
  8
ANCON-CHANNEL
100
AcDbLine
 10
-230.5778749821383
 20
61.33809506595652
 30
0.0
 11
-230.5778749821383
 21
63.29920329505552
 31
0.0
  0
LINE
  5
245
330
214
100
AcDbEntity
  8
ANCON-CHANNEL
100
AcDbLine
 10
-229.5778749821383
 20
64.65412717147995
 30
0.0
 11
-229.5778749821383
 21
67.78446787575103
 31
0.0
  0
LINE
  5
246
330
214
100
AcDbEntity
  8
ANCON-CHANNEL
100
AcDbLine
 10
-229.5778749821383
 20
68.5787340241701
 30
0.0
 11
-229.5778749821383
 21
70.58775927243061
 31
0.0
  0
LINE
  5
247
330
214
100
AcDbEntity
  8
ANCON-CHANNEL
100
AcDbLine
 10
-230.5778749821383
 20
68.25168333825207
 30
0.0
 11
-230.5778749821383
 21
70.40087336309551
 31
0.0
  0
LINE
  5
248
330
214
100
AcDbEntity
  8
ANCON-CHANNEL
100
AcDbLine
 10
-217.8827690584341
 20
61.33809506595651
 30
0.0
 11
-217.8827690584342
 21
72.85165908403105
 31
0.0
  0
LINE
  5
249
330
214
100
AcDbEntity
  8
ANCON-CHANNEL
100
AcDbLine
 10
-214.8827690584342
 20
61.33809506595652
 30
0.0
 11
-214.8827690584341
 21
72.85165908403105
 31
0.0
  0
LINE
  5
24A
330
214
100
AcDbEntity
  8
ANCON-CHANNEL
100
AcDbLine
 10
-220.3827690584341
 20
67.09487707499381
 30
0.0
 11
-220.3827690584342
 21
72.85165908403108
 31
0.0
  0
LINE
  5
24B
330
214
100
AcDbEntity
  8
ANCON-CHANNEL
100
AcDbLine
 10
-220.3827690584341
 20
67.09487707499381
 30
0.0
 11
-220.3827690584342
 21
61.33809506595651
 31
0.0
  0
LINE
  5
24C
330
214
100
AcDbEntity
  8
ANCON-CHANNEL
100
AcDbLine
 10
-201.3827690584341
 20
74.0948770749938
 30
0.0
 11
-201.3827690584341
 21
74.59487707499381
 31
0.0
  0
LINE
  5
24D
330
214
100
AcDbEntity
  8
ANCON-CHANNEL
100
AcDbLine
 10
-201.3827690584341
 20
74.59487707499381
 30
0.0
 11
-201.3827690584341
 21
74.0948770749938
 31
0.0
  0
LINE
  5
24E
330
214
100
AcDbEntity
  8
ANCON-CHANNEL
100
AcDbLine
 10
-201.3827690584341
 20
59.04845893241088
 30
0.0
 11
-201.3827690584341
 21
60.0948770749938
 31
0.0
  0
LINE
  5
24F
330
214
100
AcDbEntity
  8
ANCON-CHANNEL
100
AcDbLine
 10
-201.3827690584341
 20
59.59487707499381
 30
0.0
 11
-201.3827690584341
 21
59.04845893241087
 31
0.0
  0
LINE
  5
250
330
214
100
AcDbEntity
  8
ANCON-CHANNEL
100
AcDbLine
 10
-218.7470324555025
 20
75.19751687607386
 30
0.0
 11
-207.4384431731572
 21
79.36383924325368
 31
0.0
  0
LINE
  5
251
330
214
100
AcDbEntity
  8
ANCON-CHANNEL
100
AcDbLine
 10
-207.4384431731572
 20
54.82591490673385
 30
0.0
 11
-218.7470324555025
 21
58.99223727391373
 31
0.0
  0
LINE
  5
252
330
214
100
AcDbEntity
  8
ANCON-CHANNEL
100
AcDbLine
 10
-217.8827690584341
 20
72.85165908403105
 30
0.0
 11
-206.5741797760888
 21
77.0179814512109
 31
0.0
  0
LINE
  5
253
330
214
100
AcDbEntity
  8
ANCON-CHANNEL
100
AcDbLine
 10
-206.5741797760888
 20
57.17177269877665
 30
0.0
 11
-217.8827690584341
 21
61.33809506595651
 31
0.0
  0
LINE
  5
254
330
214
100
AcDbEntity
  8
ANCON-CHANNEL
100
AcDbLine
 10
-220.3827690584342
 20
72.85165908403107
 30
0.0
 11
-284.8827690584341
 21
72.85165908403105
 31
0.0
  0
LINE
  5
255
330
214
100
AcDbEntity
  8
ANCON-CHANNEL
100
AcDbLine
 10
-220.3827690584341
 20
61.33809506595651
 30
0.0
 11
-284.8827690584341
 21
61.33809506595651
 31
0.0
  0
LINE
  5
256
330
214
100
AcDbEntity
  8
ANCON-CHANNEL
100
AcDbLine
 10
-217.8827690584342
 20
72.85165908403105
 30
0.0
 11
-214.8827690584341
 21
72.85165908403105
 31
0.0
  0
LINE
  5
257
330
214
100
AcDbEntity
  8
ANCON-CHANNEL
100
AcDbLine
 10
-217.8827690584341
 20
61.33809506595651
 30
0.0
 11
-214.8827690584341
 21
61.33809506595652
 31
0.0
  0
ARC
  5
258
330
214
100
AcDbEntity
  8
ANCON-CHANNEL
100
AcDbCircle
 10
-217.8827690584342
 20
72.85165908403108
 30
0.0
 40
2.5
100
AcDbArc
 50
110.224859431168
 51
180.0
  0
ARC
  5
259
330
214
100
AcDbEntity
  8
ANCON-CHANNEL
100
AcDbCircle
 10
-217.8827690584342
 20
61.33809506595651
 30
0.0
 40
2.5
100
AcDbArc
 50
180.0
 51
249.7751405688318
  0
LINE
  5
25A
330
214
100
AcDbEntity
  8
ANCON-CHANNEL
100
AcDbLine
 10
-203.8827690584341
 20
59.04845893241087
 30
0.0
 11
-203.8827690584341
 21
60.0948770749938
 31
0.0
  0
ARC
  5
25B
330
214
100
AcDbEntity
  8
ANCON-CHANNEL
100
AcDbCircle
 10
-205.8827690584341
 20
75.14129521757668
 30
0.0
 40
2.0
100
AcDbArc
 50
0.0000000000000509
 51
110.2248594311681
  0
ARC
  5
25C
330
214
100
AcDbEntity
  8
ANCON-CHANNEL
100
AcDbCircle
 10
-205.8827690584341
 20
59.04845893241087
 30
0.0
 40
2.0
100
AcDbArc
 50
249.7751405688318
 51
0.0000000000000636
  0
ARC
  5
25D
330
214
100
AcDbEntity
  8
ANCON-CHANNEL
100
AcDbCircle
 10
-205.8827690584341
 20
75.14129521757668
 30
0.0
 40
4.5
100
AcDbArc
 50
0.0000000000000509
 51
110.2248594311681
  0
ARC
  5
25E
330
214
100
AcDbEntity
  8
ANCON-CHANNEL
100
AcDbCircle
 10
-205.8827690584341
 20
59.04845893241087
 30
0.0
 40
4.5
100
AcDbArc
 50
249.7751405688318
 51
0.0000000000000636
  0
LINE
  5
25F
330
214
100
AcDbEntity
  8
ANCON-CHANNEL
100
AcDbLine
 10
-203.8827690584342
 20
74.0948770749938
 30
0.0
 11
-203.8827690584341
 21
75.14129521757668
 31
0.0
  0
LINE
  5
260
330
214
100
AcDbEntity
  8
ANCON-CHANNEL
100
AcDbLine
 10
-201.3827690584341
 20
74.0948770749938
 30
0.0
 11
-201.3827690584341
 21
75.14129521757668
 31
0.0
  0
LINE
  5
261
330
214
100
AcDbEntity
  8
ANCON-CHANNEL
100
AcDbLine
 10
-201.3827690584341
 20
60.09487707499379
 30
0.0
 11
-201.3827690584341
 21
59.59487707499381
 31
0.0
  0
LINE
  5
262
330
214
100
AcDbEntity
  8
ANCON-CHANNEL
100
AcDbLine
 10
-203.8827690584342
 20
74.0948770749938
 30
0.0
 11
-201.3827690584341
 21
74.0948770749938
 31
0.0
  0
LINE
  5
263
330
214
100
AcDbEntity
  8
ANCON-CHANNEL
100
AcDbLine
 10
-203.8827690584341
 20
60.0948770749938
 30
0.0
 11
-201.3827690584341
 21
60.09487707499379
 31
0.0
  0
ENDBLK
  5
265
330
214
100
AcDbEntity
  8
0
100
AcDbBlockEnd
  0
ENDSEC
  0
SECTION
  2
ENTITIES
  0
LINE
  5
8B
330
17
100
AcDbEntity
  8
ANCON-STRUC
100
AcDbLine
 10
0.0
 20
0.0
 30
0.0
 11
0.0
 21
368.0
 31
0.0
  0
LINE
  5
8C
330
17
100
AcDbEntity
  8
ANCON-STRUC
100
AcDbLine
 10
0.0
 20
0.0
 30
0.0
 11
-150.0107129008262
 21
0.0
 31
0.0
  0
LINE
  5
8D
330
17
100
AcDbEntity
  8
ANCON-MASONRY
100
AcDbLine
 10
177.4999999999999
 20
3.0
 30
0.0
 11
177.4999999999999
 21
68.0
 31
0.0
  0
LINE
  5
8E
330
17
100
AcDbEntity
  8
ANCON-MASONRY
100
AcDbLine
 10
75.0
 20
68.0
 30
0.0
 11
177.4999999999999
 21
68.0
 31
0.0
  0
LINE
  5
8F
330
17
100
AcDbEntity
  8
ANCON-MASONRY
100
AcDbLine
 10
75.0
 20
78.0
 30
0.0
 11
177.4999999999999
 21
78.0
 31
0.0
  0
LINE
  5
90
330
17
100
AcDbEntity
  8
ANCON-MASONRY
100
AcDbLine
 10
75.0
 20
143.0
 30
0.0
 11
177.4999999999999
 21
143.0
 31
0.0
  0
LINE
  5
91
330
17
100
AcDbEntity
  8
ANCON-MASONRY
100
AcDbLine
 10
75.0
 20
78.0
 30
0.0
 11
75.0
 21
143.0
 31
0.0
  0
LINE
  5
92
330
17
100
AcDbEntity
  8
ANCON-MASONRY
100
AcDbLine
 10
177.4999999999999
 20
78.0
 30
0.0
 11
177.4999999999999
 21
143.0
 31
0.0
  0
LINE
  5
93
330
17
100
AcDbEntity
  8
ANCON-MASONRY
100
AcDbLine
 10
75.0
 20
218.0
 30
0.0
 11
177.4999999999999
 21
218.0
 31
0.0
  0
LINE
  5
94
330
17
100
AcDbEntity
  8
ANCON-MASONRY
100
AcDbLine
 10
75.0
 20
153.0
 30
0.0
 11
177.4999999999999
 21
153.0
 31
0.0
  0
LINE
  5
95
330
17
100
AcDbEntity
  8
ANCON-MASONRY
100
AcDbLine
 10
75.0
 20
153.0
 30
0.0
 11
75.0
 21
218.0
 31
0.0
  0
LINE
  5
96
330
17
100
AcDbEntity
  8
ANCON-MASONRY
100
AcDbLine
 10
177.4999999999999
 20
153.0
 30
0.0
 11
177.4999999999999
 21
218.0
 31
0.0
  0
LINE
  5
97
330
17
100
AcDbEntity
  8
ANCON-MASONRY
100
AcDbLine
 10
75.00000000000003
 20
293.0
 30
0.0
 11
177.5
 21
293.0
 31
0.0
  0
LINE
  5
98
330
17
100
AcDbEntity
  8
ANCON-MASONRY
100
AcDbLine
 10
75.00000000000003
 20
228.0
 30
0.0
 11
177.5
 21
228.0
 31
0.0
  0
LINE
  5
99
330
17
100
AcDbEntity
  8
ANCON-MASONRY
100
AcDbLine
 10
75.00000000000003
 20
228.0
 30
0.0
 11
75.00000000000003
 21
293.0
 31
0.0
  0
LINE
  5
9A
330
17
100
AcDbEntity
  8
ANCON-MASONRY
100
AcDbLine
 10
177.5
 20
228.0
 30
0.0
 11
177.4999999999999
 21
293.0
 31
0.0
  0
LINE
  5
9B
330
17
100
AcDbEntity
  8
ANCON-MASONRY
100
AcDbLine
 10
75.0
 20
-7.0
 30
0.0
 11
177.4999999999999
 21
-7.0
 31
0.0
  0
LINE
  5
9C
330
17
100
AcDbEntity
  8
ANCON-MASONRY
100
AcDbLine
 10
75.0
 20
-72.0
 30
0.0
 11
74.99999999999997
 21
-7.0
 31
0.0
  0
LINE
  5
9D
330
17
100
AcDbEntity
  8
ANCON-MASONRY
100
AcDbLine
 10
177.4999999999999
 20
-72.0
 30
0.0
 11
177.4999999999999
 21
-7.0
 31
0.0
  0
TEXT
  5
9E
330
17
100
AcDbEntity
  8
ANCON-TEXT
100
AcDbText
 10
-388.3538807824293
 20
114.7642755437987
 30
0.0
 40
9.0
  1

  7
ROMANS
100
AcDbText
  0
TEXT
  5
9F
330
17
100
AcDbEntity
  8
ANCON-TEXT
100
AcDbText
 10
-388.3538807824293
 20
100.4071721735112
 30
0.0
 40
9.0
  1

  7
ROMANS
100
AcDbText
  0
LINE
  5
A0
330
17
100
AcDbEntity
  8
ANCON-MASONRY
100
AcDbLine
 10
75.00000000000006
 20
303.0
 30
0.0
 11
177.5
 21
303.0
 31
0.0
  0
LINE
  5
A1
330
17
100
AcDbEntity
  8
ANCON-MASONRY
100
AcDbLine
 10
75.00000000000006
 20
303.0
 30
0.0
 11
75.00000000000006
 21
368.0
 31
0.0
  0
LINE
  5
A2
330
17
100
AcDbEntity
  8
ANCON-MASONRY
100
AcDbLine
 10
177.5
 20
303.0
 30
0.0
 11
177.5
 21
368.0
 31
0.0
  0
LINE
  5
A3
330
17
100
AcDbEntity
  8
ANCON-CHANNEL
100
AcDbLine
 10
0.0
 20
248.0
 30
0.0
 11
-18.0
 21
248.0
 31
0.0
  0
LINE
  5
A4
330
17
100
AcDbEntity
  8
ANCON-CHANNEL
100
AcDbLine
 10
0.0
 20
348.0
 30
0.0
 11
-18.0
 21
348.0
 31
0.0
  0
LINE
  5
A5
330
17
100
AcDbEntity
  8
ANCON-CHANNEL
100
AcDbLine
 10
-18.0
 20
348.0
 30
0.0
 11
-18.0
 21
248.0
 31
0.0
  0
LINE
  5
A6
330
17
100
AcDbEntity
  8
ANCON-CHANNEL
100
AcDbLine
 10
0.0
 20
348.0
 30
0.0
 11
0.0
 21
248.0
 31
0.0
  0
LINE
  5
A7
330
17
100
AcDbEntity
  8
ANCON-CHANNEL
100
AcDbLine
 10
-11.0
 20
348.0
 30
0.0
 11
-11.0
 21
248.0
 31
0.0
  0
LINE
  5
A8
330
17
100
AcDbEntity
  8
ANCON-TIE
100
AcDbLine
 10
140.0
 20
299.25
 30
0.0
 11
65.00000000000006
 21
299.25
 31
0.0
  0
LINE
  5
A9
330
17
100
AcDbEntity
  8
ANCON-TIE
100
AcDbLine
 10
140.0
 20
296.75
 30
0.0
 11
65.00000000000006
 21
296.7499999999999
 31
0.0
  0
LINE
  5
AA
330
17
100
AcDbEntity
  8
ANCON-TIE
100
AcDbLine
 10
140.0
 20
299.25
 30
0.0
 11
140.0
 21
296.75
 31
0.0
  0
LINE
  5
AB
330
17
100
AcDbEntity
  8
ANCON-TIE
100
AcDbLine
 10
35.00000000000005
 20
299.25
 30
0.0
 11
0.0
 21
299.25
 31
0.0
  0
LINE
  5
AC
330
17
100
AcDbEntity
  8
ANCON-TIE
100
AcDbLine
 10
35.00000000000005
 20
296.7499999999999
 30
0.0
 11
0.0
 21
296.7499999999999
 31
0.0
  0
LINE
  5
AD
330
17
100
AcDbEntity
  8
ANCON-TIE
100
AcDbLine
 10
35.00000000000005
 20
299.25
 30
0.0
 11
50.00000000000006
 21
295.25
 31
0.0
  0
LINE
  5
AE
330
17
100
AcDbEntity
  8
ANCON-TIE
100
AcDbLine
 10
50.00000000000006
 20
295.25
 30
0.0
 11
65.00000000000006
 21
299.25
 31
0.0
  0
LINE
  5
AF
330
17
100
AcDbEntity
  8
ANCON-TIE
100
AcDbLine
 10
50.00000000000006
 20
292.7499999999999
 30
0.0
 11
65.00000000000006
 21
296.7499999999999
 31
0.0
  0
LINE
  5
B0
330
17
100
AcDbEntity
  8
ANCON-TIE
100
AcDbLine
 10
35.00000000000005
 20
296.7499999999999
 30
0.0
 11
50.00000000000006
 21
292.7499999999999
 31
0.0
  0
TEXT
  5
B1
330
17
100
AcDbEntity
  8
GENTEXT
100
AcDbText
 10
787.8674598891048
 20
408.4904061394615
 30
0.0
 40
9.0
  1

  7
ROMANS
100
AcDbText
  0
TEXT
  5
B2
330
17
100
AcDbEntity
  8
ANCON-TEXT
100
AcDbText
 10
146.4484965359511
 20
5.91354992380355
 30
0.0
 40
9.0
  1

  7
ROMANS
100
AcDbText
  0
TEXT
  5
B3
330
17
100
AcDbEntity
  8
ANCON-TEXT
100
AcDbText
 10
146.4484965359511
 20
-8.44355344648396
 30
0.0
 40
9.0
  1

  7
ROMANS
100
AcDbText
  0
TEXT
  5
BE
330
17
100
AcDbEntity
  8
ANCON-TEXT
100
AcDbText
 10
269.0478378961777
 20
150.5067597579376
 30
0.0
 40
9.0
  1
System to support a maximum height of brickwork of 8 metres.
  7
ROMANS
100
AcDbText
  0
TEXT
  5
BF
330
17
100
AcDbEntity
  8
ANCON-TEXT
100
AcDbText
 10
305.7841326933564
 20
231.3646269745611
 30
0.0
 40
9.0
  1

  7
ROMANS
100
AcDbText
  0
TEXT
  5
D3
330
17
100
AcDbEntity
  8
ANCON-TEXT
100
AcDbText
 10
305.7841326933564
 20
-233.6040736799481
 30
0.0
 40
9.0
  1

  7
ROMANS
100
AcDbText
  0
TEXT
  5
DB
330
17
100
AcDbEntity
  8
ANCON-TEXT
100
AcDbText
 10
305.7841326933564
 20
-174.7898794810395
 30
0.0
 40
9.0
  1

  7
ROMANS
100
AcDbText
  0
TEXT
  5
DC
330
17
100
AcDbEntity
  8
ANCON-TEXT
100
AcDbText
 10
266.5987546234453
 20
243.0940951288514
 30
0.0
 40
9.0
  1
Ancon MDB Systems can be specified by the
  7
ROMANS
100
AcDbText
  0
TEXT
  5
DD
330
17
100
AcDbEntity
  8
ANCON-TEXT
100
AcDbText
 10
266.5987546234453
 20
228.5226665574228
 30
0.0
 40
9.0
  1
cavity width ie. MDB/75
  7
ROMANS
100
AcDbText
  0
TEXT
  5
DE
330
17
100
AcDbEntity
  8
ANCON-TEXT
100
AcDbText
 10
266.5987546234453
 20
213.9512379859942
 30
0.0
 40
9.0
  1
Ancon Building Products will design a system to suit a 75mm cavity
  7
ROMANS
100
AcDbText
  0
TEXT
  5
DF
330
17
100
AcDbEntity
  8
ANCON-TEXT
100
AcDbText
 10
266.5987546234453
 20
199.3798094145656
 30
0.0
 40
9.0
  1
and carry 16 kilonewtons load per metre run.
  7
ROMANS
100
AcDbText
  0
LINE
  5
E0
330
17
100
AcDbEntity
  8
ANCON-MASONRY
100
AcDbLine
 10
75.0
 20
39.04252879138091
 30
0.0
 11
74.99999999999997
 21
68.0
 31
0.0
  0
LINE
  5
E1
330
17
100
AcDbEntity
  8
ANCON-MASONRY
100
AcDbLine
 10
144.2370536190864
 20
3.0
 30
0.0
 11
177.4999999999999
 21
3.0
 31
0.0
  0
TEXT
  5
E3
330
17
100
AcDbEntity
  8
ANCON-TEXT
100
AcDbText
 10
-435.4999106731975
 20
140.4776076117208
 30
0.0
 40
9.0
  1

  7
ROMANS
100
AcDbText
  0
TEXT
  5
E4
330
17
100
AcDbEntity
  8
ANCON-TEXT
100
AcDbText
 10
-435.4999106731975
 20
126.1205042414332
 30
0.0
 40
9.0
  1

  7
ROMANS
100
AcDbText
  0
TEXT
  5
E5
330
17
100
AcDbEntity
  8
ANCON-TEXT
100
AcDbText
 10
-517.1646802841687
 20
243.9452112634473
 30
0.0
 40
9.0
  1

  7
ROMANS
100
AcDbText
  0
TEXT
  5
E6
330
17
100
AcDbEntity
  8
ANCON-TEXT
100
AcDbText
 10
-514.0329292841681
 20
181.2372153266213
 30
0.0
 40
9.0
  1

  7
ROMANS
100
AcDbText
  0
TEXT
  5
E7
330
17
100
AcDbEntity
  8
ANCON-TEXT
100
AcDbText
 10
-514.0329292841681
 20
166.8801119563337
 30
0.0
 40
9.0
  1

  7
ROMANS
100
AcDbText
  0
TEXT
  5
E9
330
17
100
AcDbEntity
  8
ANCON-TEXT
100
AcDbText
 10
269.0478378961777
 20
135.776464823943
 30
0.0
 40
9.0
  1
Brackets fixed at 225mm centres.
  7
ROMANS
100
AcDbText
  0
LINE
  5
EA
330
17
100
AcDbEntity
  8
ANCON-SUPPORT
100
AcDbLine
 10
0.0
 20
185.9999999999999
 30
0.0
 11
0.0
 21
-4.000000000000056
 31
0.0
  0
LINE
  5
EB
330
17
100
AcDbEntity
  8
ANCON-SUPPORT
100
AcDbLine
 10
0.0
 20
-4.000000000000056
 30
0.0
 11
30.0
 21
-4.000000000000056
 31
0.0
  0
LINE
  5
EC
330
17
100
AcDbEntity
  8
ANCON-SUPPORT
100
AcDbLine
 10
30.0
 20
-4.000000000000056
 30
0.0
 11
30.00000000000011
 21
175.9999999999999
 31
0.0
  0
LINE
  5
ED
330
17
100
AcDbEntity
  8
ANCON-SUPPORT
100
AcDbLine
 10
20.00000000000011
 20
185.9999999999999
 30
0.0
 11
0.0
 21
185.9999999999999
 31
0.0
  0
LINE
  5
EE
330
17
100
AcDbEntity
  8
ANCON-SUPPORT
100
AcDbLine
 10
4.0
 20
185.9999999999999
 30
0.0
 11
4.0
 21
-4.000000000000056
 31
0.0
  0
LINE
  5
EF
330
17
100
AcDbEntity
  8
ANCON-SUPPORT
100
AcDbLine
 10
20.0
 20
185.9999999999999
 30
0.0
 11
30.0
 21
175.9999999999999
 31
0.0
  0
LINE
  5
F0
330
17
100
AcDbEntity
  8
ANCON-SUPPORT
100
AcDbLine
 10
154.9999999999998
 20
-4.0
 30
0.0
 11
62.50000000000011
 21
-4.0
 31
0.0
  0
LINE
  5
F1
330
17
100
AcDbEntity
  8
ANCON-SUPPORT
100
AcDbLine
 10
30.0
 20
4.0
 30
0.0
 11
30.0
 21
16.0
 31
0.0
  0
LINE
  5
F2
330
17
100
AcDbEntity
  8
ANCON-SUPPORT
100
AcDbLine
 10
34.0
 20
4.0
 30
0.0
 11
34.0
 21
16.0
 31
0.0
  0
LINE
  5
F3
330
17
100
AcDbEntity
  8
ANCON-SUPPORT
100
AcDbLine
 10
154.9999999999998
 20
0.0
 30
0.0
 11
62.50000000000011
 21
-0.0000000000000284
 31
0.0
  0
LINE
  5
F4
330
17
100
AcDbEntity
  8
ANCON-SUPPORT
100
AcDbLine
 10
30.0
 20
16.0
 30
0.0
 11
34.0
 21
16.0
 31
0.0
  0
ARC
  5
F5
330
17
100
AcDbEntity
  8
ANCON-SUPPORT
100
AcDbCircle
 10
38.0
 20
4.0
 30
0.0
 40
4.0
100
AcDbArc
 50
180.0
 51
270.0
  0
ARC
  5
F6
330
17
100
AcDbEntity
  8
ANCON-SUPPORT
100
AcDbCircle
 10
38.0
 20
4.0
 30
0.0
 40
8.0
100
AcDbArc
 50
180.0
 51
270.0
  0
LINE
  5
F7
330
17
100
AcDbEntity
  8
ANCON-SUPPORT
100
AcDbLine
 10
154.9999999999998
 20
-4.0
 30
0.0
 11
154.9999999999998
 21
0.0
 31
0.0
  0
LINE
  5
F8
330
17
100
AcDbEntity
  8
ANCON-SUPPORT
100
AcDbLine
 10
47.50000000000011
 20
-0.0000000000000284
 30
0.0
 11
38.0
 21
0.0
 31
0.0
  0
LINE
  5
F9
330
17
100
AcDbEntity
  8
ANCON-SUPPORT
100
AcDbLine
 10
47.50000000000011
 20
-4.0
 30
0.0
 11
38.0
 21
-4.0
 31
0.0
  0
LINE
  5
FA
330
17
100
AcDbEntity
  8
ANCON-SUPPORT
100
AcDbLine
 10
47.50000000000011
 20
-0.0000000000000284
 30
0.0
 11
55.00000000000011
 21
-5.0
 31
0.0
  0
LINE
  5
FB
330
17
100
AcDbEntity
  8
ANCON-SUPPORT
100
AcDbLine
 10
55.00000000000011
 20
-5.0
 30
0.0
 11
62.50000000000011
 21
-0.0000000000000284
 31
0.0
  0
LINE
  5
FC
330
17
100
AcDbEntity
  8
ANCON-SUPPORT
100
AcDbLine
 10
55.00000000000011
 20
-9.000000000000028
 30
0.0
 11
62.50000000000011
 21
-4.0
 31
0.0
  0
LINE
  5
FD
330
17
100
AcDbEntity
  8
ANCON-SUPPORT
100
AcDbLine
 10
47.50000000000011
 20
-4.0
 30
0.0
 11
55.00000000000011
 21
-9.000000000000028
 31
0.0
  0
LINE
  5
FE
330
17
100
AcDbEntity
  8
ANCON-SUPPORT
100
AcDbLine
 10
95.99999999999988
 20
0.0
 30
0.0
 11
149.9999999999998
 21
0.0
 31
0.0
  0
LINE
  5
FF
330
17
100
AcDbEntity
  8
ANCON-SUPPORT
100
AcDbLine
 10
149.9999999999998
 20
0.0
 30
0.0
 11
30.00000000000011
 21
62.46804606620944
 31
0.0
  0
LINE
  5
100
330
17
100
AcDbEntity
  8
ANCON-SUPPORT
100
AcDbLine
 10
30.0
 20
34.43724370303326
 30
0.0
 11
95.99999999999988
 21
0.0
 31
0.0
  0
LINE
  5
1FA
330
17
100
AcDbEntity
  8
ANCON-CHANNEL
100
AcDbLine
 10
8.709400000000186
 20
125.5917250000001
 30
0.0
 11
15.4729000000002
 21
125.5917250000001
 31
0.0
  0
LINE
  5
1FB
330
17
100
AcDbEntity
  8
ANCON-CHANNEL
100
AcDbLine
 10
8.709400000000186
 20
130.8030908728723
 30
0.0
 11
15.47290000000066
 21
130.8030908728723
 31
0.0
  0
LINE
  5
1FC
330
17
100
AcDbEntity
  8
ANCON-CHANNEL
100
AcDbLine
 10
8.709399999999732
 20
141.1969091271275
 30
0.0
 11
15.47290000000043
 21
141.1969091271275
 31
0.0
  0
LINE
  5
1FD
330
17
100
AcDbEntity
  8
ANCON-CHANNEL
100
AcDbLine
 10
8.709400000000186
 20
146.4082750000006
 30
0.0
 11
15.47290000000089
 21
146.4082750000006
 31
0.0
  0
LINE
  5
1FE
330
17
100
AcDbEntity
  8
ANCON-CHANNEL
100
AcDbLine
 10
7.206400000000257
 20
148.5249999999995
 30
0.0
 11
7.20640000000003
 21
123.4750000000003
 31
0.0
  0
LINE
  5
1FF
330
17
100
AcDbEntity
  8
ANCON-CHANNEL
100
AcDbLine
 10
4.0
 20
148.5249999999995
 30
0.0
 11
4.0
 21
123.4750000000003
 31
0.0
  0
LINE
  5
200
330
17
100
AcDbEntity
  8
ANCON-CHANNEL
100
AcDbLine
 10
4.0
 20
123.4750000000003
 30
0.0
 11
7.20640000000003
 21
123.4750000000003
 31
0.0
  0
ARC
  5
201
330
17
100
AcDbEntity
  8
ANCON-CHANNEL
100
AcDbCircle
 10
10.21657716740981
 20
143.8025920635645
 30
0.0
 40
3.010177167409811
100
AcDbArc
 50
120.045914763728
 51
239.9540852362719
  0
LINE
  5
202
330
17
100
AcDbEntity
  8
ANCON-CHANNEL
100
AcDbLine
 10
7.206400000000257
 20
143.8025920635645
 30
0.0
 11
7.206400000000257
 21
128.1974079364362
 31
0.0
  0
ARC
  5
203
330
17
100
AcDbEntity
  8
ANCON-CHANNEL
100
AcDbCircle
 10
16.9425521875006
 20
135.9999999999999
 30
0.0
 40
9.736152187499891
100
AcDbArc
 50
147.7391653073574
 51
212.2608346926424
  0
ARC
  5
204
330
17
100
AcDbEntity
  8
ANCON-CHANNEL
100
AcDbCircle
 10
10.21657716741049
 20
128.1974079364362
 30
0.0
 40
3.010177167409903
100
AcDbArc
 50
120.0459147637375
 51
239.9540852362719
  0
LINE
  5
205
330
17
100
AcDbEntity
  8
ANCON-CHANNEL
100
AcDbLine
 10
4.0
 20
148.5249999999995
 30
0.0
 11
7.20640000000003
 21
148.5249999999995
 31
0.0
  0
LINE
  5
206
330
17
100
AcDbEntity
  8
ANCON-CHANNEL
100
AcDbLine
 10
16.97590000000036
 20
130.4909999999999
 30
0.0
 11
25.50180864441188
 21
130.4909999999999
 31
0.0
  0
LINE
  5
207
330
17
100
AcDbEntity
  8
ANCON-CHANNEL
100
AcDbLine
 10
16.97590000000025
 20
131.4909999999999
 30
0.0
 11
26.50180864441188
 21
131.4909999999999
 31
0.0
  0
LINE
  5
208
330
17
100
AcDbEntity
  8
ANCON-CHANNEL
100
AcDbLine
 10
16.97590000000025
 20
141.5089999999999
 30
0.0
 11
25.50180864441199
 21
141.5089999999999
 31
0.0
  0
LINE
  5
209
330
17
100
AcDbEntity
  8
ANCON-CHANNEL
100
AcDbLine
 10
16.97590000000025
 20
140.5089999999999
 30
0.0
 11
26.50180864441188
 21
140.5089999999999
 31
0.0
  0
ARC
  5
20A
330
17
100
AcDbEntity
  8
ANCON-CHANNEL
100
AcDbCircle
 10
13.9657228325899
 20
143.8025920635636
 30
0.0
 40
3.010177167410298
100
AcDbArc
 50
300.0459147637375
 51
59.9540852362683
  0
LINE
  5
20B
330
17
100
AcDbEntity
  8
ANCON-CHANNEL
100
AcDbLine
 10
16.97590000000025
 20
143.8025920635636
 30
0.0
 11
16.97590000000025
 21
128.1974079364362
 31
0.0
  0
ARC
  5
20C
330
17
100
AcDbEntity
  8
ANCON-CHANNEL
100
AcDbCircle
 10
7.239747812500354
 20
135.9999999999999
 30
0.0
 40
9.736152187499891
100
AcDbArc
 50
327.7391653073574
 51
32.26083469264252
  0
ARC
  5
20D
330
17
100
AcDbEntity
  8
ANCON-CHANNEL
100
AcDbCircle
 10
13.96572283259047
 20
128.1974079364362
 30
0.0
 40
3.010177167409903
100
AcDbArc
 50
300.045914763728
 51
59.95408523626245
  0
LINE
  5
20E
330
17
100
AcDbEntity
  8
ANCON-CHANNEL
100
AcDbLine
 10
25.50180864441188
 20
141.5089999999999
 30
0.0
 11
25.50180864441188
 21
130.4909999999999
 31
0.0
  0
LINE
  5
20F
330
17
100
AcDbEntity
  8
ANCON-CHANNEL
100
AcDbLine
 10
26.50180864441188
 20
140.5089999999999
 30
0.0
 11
26.50180864441188
 21
131.4909999999999
 31
0.0
  0
LINE
  5
210
330
17
100
AcDbEntity
  8
ANCON-CHANNEL
100
AcDbLine
 10
25.50180864441188
 20
130.4909999999999
 30
0.0
 11
26.50180864441188
 21
131.4909999999999
 31
0.0
  0
LINE
  5
211
330
17
100
AcDbEntity
  8
ANCON-CHANNEL
100
AcDbLine
 10
25.50180864441188
 20
141.5089999999999
 30
0.0
 11
26.50180864441188
 21
140.5089999999999
 31
0.0
  0
TEXT
  5
267
330
17
100
AcDbEntity
  8
ANCON-TEXT
100
AcDbText
 10
-298.9092676845862
 20
55.79461378991848
 30
0.0
 40
9.0
  1

  7
ROMANS
100
AcDbText
  0
TEXT
  5
268
330
17
100
AcDbEntity
  8
ANCON-TEXT
100
AcDbText
 10
-298.9092676845862
 20
41.43751041963097
 30
0.0
 40
9.0
  1

  7
ROMANS
100
AcDbText
  0
TEXT
  5
269
330
17
100
AcDbEntity
  8
ANCON-TEXT
100
AcDbText
 10
-243.8866757563046
 20
70.53019783572224
 30
0.0
 40
9.0
  1

  7
ROMANS
100
AcDbText
  0
LINE
  5
26C
330
17
100
AcDbEntity
  8
ANCON-CHANNEL
100
AcDbLine
 10
-83.50000000000003
 20
130.2432179909626
 30
0.0
 11
-83.50000000000003
 21
141.7567820090372
 31
0.0
  0
LINE
  5
26D
330
17
100
AcDbEntity
  8
ANCON-CHANNEL
100
AcDbLine
 10
-69.37668097754138
 20
132.8584262135713
 30
0.0
 11
-69.37668097754138
 21
136.6895908007571
 31
0.0
  0
LINE
  5
26E
330
17
100
AcDbEntity
  8
ANCON-CHANNEL
100
AcDbLine
 10
-70.37668097754139
 20
133.2789205433201
 30
0.0
 11
-70.37668097754139
 21
135.4748317009157
 31
0.0
  0
LINE
  5
26F
330
17
100
AcDbEntity
  8
ANCON-CHANNEL
100
AcDbLine
 10
-69.37668097754138
 20
130.2432179909626
 30
0.0
 11
-69.37668097754138
 21
132.2043262200616
 31
0.0
  0
LINE
  5
270
330
17
100
AcDbEntity
  8
ANCON-CHANNEL
100
AcDbLine
 10
-68.37668097754132
 20
130.2432179909626
 30
0.0
 11
-68.37668097754138
 21
132.157603708983
 31
0.0
  0
LINE
  5
271
330
17
100
AcDbEntity
  8
ANCON-CHANNEL
100
AcDbLine
 10
-68.37668097754138
 20
133.5592500964861
 30
0.0
 11
-68.37668097754138
 21
136.6895908007571
 31
0.0
  0
LINE
  5
272
330
17
100
AcDbEntity
  8
ANCON-CHANNEL
100
AcDbLine
 10
-68.37668097754138
 20
137.4838569491762
 30
0.0
 11
-68.37668097754138
 21
139.4928821974367
 31
0.0
  0
LINE
  5
273
330
17
100
AcDbEntity
  8
ANCON-CHANNEL
100
AcDbLine
 10
-69.37668097754138
 20
137.1568062632582
 30
0.0
 11
-69.37668097754138
 21
139.3059962881016
 31
0.0
  0
LINE
  5
274
330
17
100
AcDbEntity
  8
ANCON-CHANNEL
100
AcDbLine
 10
-70.37668097754139
 20
136.0822119399996
 30
0.0
 11
-70.37668097754139
 21
137.8109076350942
 31
0.0
  0
LINE
  5
275
330
17
100
AcDbEntity
  8
ANCON-CHANNEL
100
AcDbLine
 10
-70.37668097754139
 20
138.4650090069304
 30
0.0
 11
-70.37668097754139
 21
141.7567820090372
 31
0.0
  0
LINE
  5
276
330
17
100
AcDbEntity
  8
ANCON-CHANNEL
100
AcDbLine
 10
-59.33128721408209
 20
132.8584262135713
 30
0.0
 11
-59.33128721408209
 21
136.6895908007571
 31
0.0
  0
LINE
  5
277
330
17
100
AcDbEntity
  8
ANCON-CHANNEL
100
AcDbLine
 10
-60.3312872140821
 20
133.2789205433201
 30
0.0
 11
-60.3312872140821
 21
135.4748317009157
 31
0.0
  0
LINE
  5
278
330
17
100
AcDbEntity
  8
ANCON-CHANNEL
100
AcDbLine
 10
-58.33128721408204
 20
130.2432179909626
 30
0.0
 11
-58.33128721408209
 21
132.157603708983
 31
0.0
  0
LINE
  5
279
330
17
100
AcDbEntity
  8
ANCON-CHANNEL
100
AcDbLine
 10
-59.33128721408209
 20
130.2432179909626
 30
0.0
 11
-59.33128721408209
 21
132.2043262200616
 31
0.0
  0
LINE
  5
27A
330
17
100
AcDbEntity
  8
ANCON-CHANNEL
100
AcDbLine
 10
-59.33128721408209
 20
137.1568062632582
 30
0.0
 11
-59.33128721408209
 21
139.3059962881016
 31
0.0
  0
LINE
  5
27B
330
17
100
AcDbEntity
  8
ANCON-CHANNEL
100
AcDbLine
 10
-58.33128721408209
 20
137.4838569491762
 30
0.0
 11
-58.33128721408209
 21
139.4928821974367
 31
0.0
  0
LINE
  5
27C
330
17
100
AcDbEntity
  8
ANCON-CHANNEL
100
AcDbLine
 10
-58.33128721408209
 20
133.5592500964861
 30
0.0
 11
-58.33128721408209
 21
136.6895908007571
 31
0.0
  0
LINE
  5
27D
330
17
100
AcDbEntity
  8
ANCON-CHANNEL
100
AcDbLine
 10
-60.3312872140821
 20
136.0822119399996
 30
0.0
 11
-60.3312872140821
 21
137.8109076350942
 31
0.0
  0
LINE
  5
27E
330
17
100
AcDbEntity
  8
ANCON-CHANNEL
100
AcDbLine
 10
-60.3312872140821
 20
138.4650090069304
 30
0.0
 11
-60.3312872140821
 21
142.0068187926899
 31
0.0
  0
LINE
  5
27F
330
17
100
AcDbEntity
  8
ANCON-CHANNEL
100
AcDbLine
 10
-49.28589345062277
 20
132.8584262135713
 30
0.0
 11
-49.28589345062277
 21
136.6895908007571
 31
0.0
  0
LINE
  5
280
330
17
100
AcDbEntity
  8
ANCON-CHANNEL
100
AcDbLine
 10
-50.28589345062278
 20
133.2789205433201
 30
0.0
 11
-50.28589345062278
 21
135.4748317009157
 31
0.0
  0
LINE
  5
281
330
17
100
AcDbEntity
  8
ANCON-CHANNEL
100
AcDbLine
 10
-49.28589345062275
 20
130.2432179909626
 30
0.0
 11
-49.28589345062277
 21
132.2043262200616
 31
0.0
  0
LINE
  5
282
330
17
100
AcDbEntity
  8
ANCON-CHANNEL
100
AcDbLine
 10
-48.28589345062275
 20
130.2432179909626
 30
0.0
 11
-48.28589345062278
 21
132.157603708983
 31
0.0
  0
LINE
  5
283
330
17
100
AcDbEntity
  8
ANCON-CHANNEL
100
AcDbLine
 10
-48.28589345062278
 20
133.5592500964861
 30
0.0
 11
-48.28589345062278
 21
136.6895908007571
 31
0.0
  0
LINE
  5
284
330
17
100
AcDbEntity
  8
ANCON-CHANNEL
100
AcDbLine
 10
-48.28589345062278
 20
137.4838569491762
 30
0.0
 11
-48.28589345062278
 21
139.4928821974367
 31
0.0
  0
LINE
  5
285
330
17
100
AcDbEntity
  8
ANCON-CHANNEL
100
AcDbLine
 10
-49.28589345062277
 20
137.1568062632582
 30
0.0
 11
-49.28589345062277
 21
139.3059962881016
 31
0.0
  0
LINE
  5
286
330
17
100
AcDbEntity
  8
ANCON-CHANNEL
100
AcDbLine
 10
-50.28589345062278
 20
136.0822119399996
 30
0.0
 11
-50.28589345062278
 21
137.8109076350942
 31
0.0
  0
LINE
  5
287
330
17
100
AcDbEntity
  8
ANCON-CHANNEL
100
AcDbLine
 10
-50.28589345062278
 20
138.4650090069304
 30
0.0
 11
-50.28589345062278
 21
142.0068187926899
 31
0.0
  0
LINE
  5
288
330
17
100
AcDbEntity
  8
ANCON-CHANNEL
100
AcDbLine
 10
-30.19510592370423
 20
133.2789205433201
 30
0.0
 11
-30.19510592370423
 21
135.4748317009157
 31
0.0
  0
LINE
  5
289
330
17
100
AcDbEntity
  8
ANCON-CHANNEL
100
AcDbLine
 10
-39.24049968716349
 20
132.8584262135713
 30
0.0
 11
-39.24049968716349
 21
136.6895908007571
 31
0.0
  0
LINE
  5
28A
330
17
100
AcDbEntity
  8
ANCON-CHANNEL
100
AcDbLine
 10
-40.24049968716349
 20
133.2789205433201
 30
0.0
 11
-40.24049968716349
 21
135.4748317009157
 31
0.0
  0
LINE
  5
28B
330
17
100
AcDbEntity
  8
ANCON-CHANNEL
100
AcDbLine
 10
-38.24049968716346
 20
130.2432179909626
 30
0.0
 11
-38.24049968716349
 21
132.157603708983
 31
0.0
  0
LINE
  5
28C
330
17
100
AcDbEntity
  8
ANCON-CHANNEL
100
AcDbLine
 10
-39.24049968716349
 20
130.2432179909626
 30
0.0
 11
-39.24049968716349
 21
132.2043262200616
 31
0.0
  0
LINE
  5
28D
330
17
100
AcDbEntity
  8
ANCON-CHANNEL
100
AcDbLine
 10
-38.24049968716349
 20
137.4838569491762
 30
0.0
 11
-38.24049968716349
 21
139.4928821974367
 31
0.0
  0
LINE
  5
28E
330
17
100
AcDbEntity
  8
ANCON-CHANNEL
100
AcDbLine
 10
-38.24049968716349
 20
133.5592500964861
 30
0.0
 11
-38.24049968716349
 21
136.6895908007571
 31
0.0
  0
LINE
  5
28F
330
17
100
AcDbEntity
  8
ANCON-CHANNEL
100
AcDbLine
 10
-39.24049968716349
 20
137.1568062632582
 30
0.0
 11
-39.24049968716349
 21
139.3059962881016
 31
0.0
  0
LINE
  5
290
330
17
100
AcDbEntity
  8
ANCON-CHANNEL
100
AcDbLine
 10
-40.24049968716349
 20
136.0822119399996
 30
0.0
 11
-40.24049968716349
 21
137.8109076350942
 31
0.0
  0
LINE
  5
291
330
17
100
AcDbEntity
  8
ANCON-CHANNEL
100
AcDbLine
 10
-40.24049968716349
 20
138.4650090069304
 30
0.0
 11
-40.24049968716349
 21
141.7567820090372
 31
0.0
  0
LINE
  5
292
330
17
100
AcDbEntity
  8
ANCON-CHANNEL
100
AcDbLine
 10
-30.19510592370423
 20
136.0822119399996
 30
0.0
 11
-30.19510592370423
 21
137.8109076350942
 31
0.0
  0
LINE
  5
293
330
17
100
AcDbEntity
  8
ANCON-CHANNEL
100
AcDbLine
 10
-30.19510592370423
 20
138.4650090069304
 30
0.0
 11
-30.19510592370423
 21
142.0068187926899
 31
0.0
  0
LINE
  5
294
330
17
100
AcDbEntity
  8
ANCON-CHANNEL
100
AcDbLine
 10
-29.19510592370423
 20
132.8584262135713
 30
0.0
 11
-29.19510592370423
 21
136.6895908007571
 31
0.0
  0
LINE
  5
295
330
17
100
AcDbEntity
  8
ANCON-CHANNEL
100
AcDbLine
 10
-28.1951059237042
 20
130.2432179909626
 30
0.0
 11
-28.19510592370423
 21
132.157603708983
 31
0.0
  0
LINE
  5
296
330
17
100
AcDbEntity
  8
ANCON-CHANNEL
100
AcDbLine
 10
-29.19510592370423
 20
130.2432179909626
 30
0.0
 11
-29.19510592370423
 21
132.2043262200616
 31
0.0
  0
LINE
  5
297
330
17
100
AcDbEntity
  8
ANCON-CHANNEL
100
AcDbLine
 10
-28.19510592370423
 20
133.5592500964861
 30
0.0
 11
-28.19510592370423
 21
136.6895908007571
 31
0.0
  0
LINE
  5
298
330
17
100
AcDbEntity
  8
ANCON-CHANNEL
100
AcDbLine
 10
-28.19510592370423
 20
137.4838569491762
 30
0.0
 11
-28.19510592370423
 21
139.4928821974367
 31
0.0
  0
LINE
  5
299
330
17
100
AcDbEntity
  8
ANCON-CHANNEL
100
AcDbLine
 10
-29.19510592370423
 20
137.1568062632582
 30
0.0
 11
-29.19510592370423
 21
139.3059962881016
 31
0.0
  0
LINE
  5
29A
330
17
100
AcDbEntity
  8
ANCON-CHANNEL
100
AcDbLine
 10
-16.50000000000003
 20
130.2432179909626
 30
0.0
 11
-16.50000000000005
 21
141.7567820090371
 31
0.0
  0
LINE
  5
29B
330
17
100
AcDbEntity
  8
ANCON-CHANNEL
100
AcDbLine
 10
-13.50000000000008
 20
130.2432179909626
 30
0.0
 11
-13.50000000000005
 21
141.7567820090371
 31
0.0
  0
LINE
  5
29C
330
17
100
AcDbEntity
  8
ANCON-CHANNEL
100
AcDbLine
 10
-19.00000000000003
 20
135.9999999999999
 30
0.0
 11
-19.00000000000005
 21
141.7567820090372
 31
0.0
  0
LINE
  5
29D
330
17
100
AcDbEntity
  8
ANCON-CHANNEL
100
AcDbLine
 10
-19.00000000000003
 20
135.9999999999999
 30
0.0
 11
-19.00000000000005
 21
130.2432179909626
 31
0.0
  0
LINE
  5
29E
330
17
100
AcDbEntity
  8
ANCON-CHANNEL
100
AcDbLine
 10
-0.0000000000000284
 20
142.9999999999999
 30
0.0
 11
-0.0000000000000284
 21
143.4999999999999
 31
0.0
  0
LINE
  5
29F
330
17
100
AcDbEntity
  8
ANCON-CHANNEL
100
AcDbLine
 10
-0.0000000000000284
 20
143.4999999999999
 30
0.0
 11
-0.0000000000000284
 21
142.9999999999999
 31
0.0
  0
LINE
  5
2A0
330
17
100
AcDbEntity
  8
ANCON-CHANNEL
100
AcDbLine
 10
0.0
 20
127.953581857417
 30
0.0
 11
0.0
 21
128.9999999999999
 31
0.0
  0
LINE
  5
2A1
330
17
100
AcDbEntity
  8
ANCON-CHANNEL
100
AcDbLine
 10
-0.0000000000000284
 20
128.4999999999999
 30
0.0
 11
0.0
 21
127.953581857417
 31
0.0
  0
LINE
  5
2A2
330
17
100
AcDbEntity
  8
ANCON-CHANNEL
100
AcDbLine
 10
-17.36426339706844
 20
144.10263980108
 30
0.0
 11
-6.055674114723132
 21
148.2689621682597
 31
0.0
  0
LINE
  5
2A3
330
17
100
AcDbEntity
  8
ANCON-CHANNEL
100
AcDbLine
 10
-6.055674114723075
 20
123.7310378317399
 30
0.0
 11
-17.36426339706844
 21
127.8973601989198
 31
0.0
  0
LINE
  5
2A4
330
17
100
AcDbEntity
  8
ANCON-CHANNEL
100
AcDbLine
 10
-16.50000000000003
 20
141.7567820090371
 30
0.0
 11
-5.191410717654747
 21
145.923104376217
 31
0.0
  0
LINE
  5
2A5
330
17
100
AcDbEntity
  8
ANCON-CHANNEL
100
AcDbLine
 10
-5.19141071765469
 20
126.0768956237827
 30
0.0
 11
-16.50000000000003
 21
130.2432179909626
 31
0.0
  0
LINE
  5
2A6
330
17
100
AcDbEntity
  8
ANCON-CHANNEL
100
AcDbLine
 10
-19.00000000000005
 20
141.7567820090372
 30
0.0
 11
-83.49999999999997
 21
141.7567820090371
 31
0.0
  0
LINE
  5
2A7
330
17
100
AcDbEntity
  8
ANCON-CHANNEL
100
AcDbLine
 10
-19.00000000000003
 20
130.2432179909626
 30
0.0
 11
-83.50000000000003
 21
130.2432179909626
 31
0.0
  0
LINE
  5
2A8
330
17
100
AcDbEntity
  8
ANCON-CHANNEL
100
AcDbLine
 10
-16.50000000000005
 20
141.7567820090371
 30
0.0
 11
-13.50000000000005
 21
141.7567820090371
 31
0.0
  0
LINE
  5
2A9
330
17
100
AcDbEntity
  8
ANCON-CHANNEL
100
AcDbLine
 10
-16.50000000000003
 20
130.2432179909626
 30
0.0
 11
-13.50000000000002
 21
130.2432179909626
 31
0.0
  0
ARC
  5
2AA
330
17
100
AcDbEntity
  8
ANCON-CHANNEL
100
AcDbCircle
 10
-16.50000000000005
 20
141.7567820090372
 30
0.0
 40
2.5
100
AcDbArc
 50
110.2248594311682
 51
180.0
  0
ARC
  5
2AB
330
17
100
AcDbEntity
  8
ANCON-CHANNEL
100
AcDbCircle
 10
-16.50000000000005
 20
130.2432179909626
 30
0.0
 40
2.5
100
AcDbArc
 50
180.0
 51
249.7751405688317
  0
LINE
  5
2AC
330
17
100
AcDbEntity
  8
ANCON-CHANNEL
100
AcDbLine
 10
-2.499999999999971
 20
127.953581857417
 30
0.0
 11
-2.5
 21
128.9999999999999
 31
0.0
  0
ARC
  5
2AD
330
17
100
AcDbEntity
  8
ANCON-CHANNEL
100
AcDbCircle
 10
-4.500000000000028
 20
144.0464181425828
 30
0.0
 40
2.0
100
AcDbArc
 50
0.0
 51
110.2248594311682
  0
ARC
  5
2AE
330
17
100
AcDbEntity
  8
ANCON-CHANNEL
100
AcDbCircle
 10
-4.499999999999971
 20
127.953581857417
 30
0.0
 40
2.0
100
AcDbArc
 50
249.7751405688317
 51
0.0
  0
ARC
  5
2AF
330
17
100
AcDbEntity
  8
ANCON-CHANNEL
100
AcDbCircle
 10
-4.500000000000028
 20
144.0464181425828
 30
0.0
 40
4.5
100
AcDbArc
 50
0.0
 51
110.2248594311682
  0
ARC
  5
2B0
330
17
100
AcDbEntity
  8
ANCON-CHANNEL
100
AcDbCircle
 10
-4.499999999999971
 20
127.953581857417
 30
0.0
 40
4.5
100
AcDbArc
 50
249.7751405688317
 51
0.0
  0
LINE
  5
2B1
330
17
100
AcDbEntity
  8
ANCON-CHANNEL
100
AcDbLine
 10
-2.500000000000056
 20
142.9999999999999
 30
0.0
 11
-2.500000000000028
 21
144.0464181425828
 31
0.0
  0
LINE
  5
2B2
330
17
100
AcDbEntity
  8
ANCON-CHANNEL
100
AcDbLine
 10
0.0
 20
142.9999999999999
 30
0.0
 11
0.0
 21
144.0464181425828
 31
0.0
  0
LINE
  5
2B3
330
17
100
AcDbEntity
  8
ANCON-CHANNEL
100
AcDbLine
 10
-0.0000000000000284
 20
128.9999999999999
 30
0.0
 11
-0.0000000000000284
 21
128.4999999999999
 31
0.0
  0
LINE
  5
2B4
330
17
100
AcDbEntity
  8
ANCON-CHANNEL
100
AcDbLine
 10
-2.500000000000056
 20
142.9999999999999
 30
0.0
 11
-0.0000000000000284
 21
142.9999999999999
 31
0.0
  0
LINE
  5
2B5
330
17
100
AcDbEntity
  8
ANCON-CHANNEL
100
AcDbLine
 10
-2.5
 20
128.9999999999999
 30
0.0
 11
-0.0000000000000284
 21
128.9999999999999
 31
0.0
  0
VIEWPORT
  5
8A
330
14
100
AcDbEntity
 67
     1
  8
0
100
AcDbViewport
 10
6.124108416547788
 20
4.5
 30
0.0
 40
12.24821683309557
 41
9.0
 68
     1
 69
     1
 12
6.124108416547788
 22
4.5
 13
0.0
 23
0.0
 14
1.0
 24
1.0
 15
0.0
 25
0.0
 16
0.0
 26
0.0
 36
1.0
 17
0.0
 27
0.0
 37
0.0
 42
50.0
 43
0.0
 44
0.0
 45
9.0
 50
0.0
 51
0.0
 72
   100
 90
    32800
  1

281
     0
 71
     1
 74
     0
110
0.0
120
0.0
130
0.0
111
1.0
121
0.0
131
0.0
112
0.0
122
1.0
132
0.0
 79
     0
146
0.0
  0
ENDSEC
  0
SECTION
  2
OBJECTS
  0
DICTIONARY
  5
C
330
0
100
AcDbDictionary
281
     1
  3
ACAD_GROUP
350
D
  3
ACAD_LAYOUT
350
16F
  3
ACAD_MLINESTYLE
350
1A
  3
ACAD_PLOTSETTINGS
350
170
  3
ACAD_PLOTSTYLENAME
350
16D
  3
ACDBVARIABLEDICTIONARY
350
38
  0
DICTIONARY
  5
D
102
{ACAD_REACTORS
330
C
102
}
330
C
100
AcDbDictionary
281
     1
  0
DICTIONARY
  5
16F
102
{ACAD_REACTORS
330
C
102
}
330
C
100
AcDbDictionary
281
     1
  3
Layout1
350
172
  3
Model
350
171
  0
DICTIONARY
  5
1A
102
{ACAD_REACTORS
330
C
102
}
330
C
100
AcDbDictionary
281
     1
  3
STANDARD
350
1B
  0
DICTIONARY
  5
170
102
{ACAD_REACTORS
330
C
102
}
330
C
100
AcDbDictionary
281
     1
  0
ACDBDICTIONARYWDFLT
  5
16D
102
{ACAD_REACTORS
330
C
102
}
330
C
100
AcDbDictionary
281
     1
  3
Normal
350
16E
100
AcDbDictionaryWithDefault
340
16E
  0
DICTIONARY
  5
38
102
{ACAD_REACTORS
330
C
102
}
330
C
100
AcDbDictionary
281
     1
  3
DIMADEC
350
39
  0
LAYOUT
  5
172
102
{ACAD_REACTORS
330
16F
102
}
330
16F
100
AcDbPlotSettings
  1

  2
Ancon 2
  4

  6

 40
0.0
 41
0.0
 42
0.0
 43
0.0
 44
0.0
 45
0.0
 46
0.0
 47
0.0
 48
0.0
 49
0.0
140
0.0
141
0.0
142
1.0
143
1.0
 70
   688
 72
     0
 73
     0
 74
     5
  7

 75
    16
147
1.0
148
0.0
149
0.0
100
AcDbLayout
  1
Layout1
 70
     1
 71
     1
 10
0.0
 20
0.0
 11
420.0
 21
297.0
 12
0.0
 22
0.0
 32
0.0
 14
1.000000000000000E+20
 24
1.000000000000000E+20
 34
1.000000000000000E+20
 15
-1.000000000000000E+20
 25
-1.000000000000000E+20
 35
-1.000000000000000E+20
146
0.0
 13
0.0
 23
0.0
 33
0.0
 16
1.0
 26
0.0
 36
0.0
 17
0.0
 27
1.0
 37
0.0
 76
     0
330
14
331
8A
  0
LAYOUT
  5
171
102
{ACAD_REACTORS
330
16F
102
}
330
16F
100
AcDbPlotSettings
  1

  2
Ancon 2
  4

  6

 40
0.0
 41
0.0
 42
0.0
 43
0.0
 44
0.0
 45
0.0
 46
0.0
 47
0.0
 48
0.0
 49
0.0
140
0.0
141
0.0
142
1.0
143
1.0
 70
  1712
 72
     0
 73
     0
 74
     0
  7

 75
     0
147
1.0
148
0.0
149
0.0
100
AcDbLayout
  1
Model
 70
     1
 71
     0
 10
0.0
 20
0.0
 11
12.0
 21
9.0
 12
0.0
 22
0.0
 32
0.0
 14
0.0
 24
0.0
 34
0.0
 15
0.0
 25
0.0
 35
0.0
146
0.0
 13
0.0
 23
0.0
 33
0.0
 16
1.0
 26
0.0
 36
0.0
 17
0.0
 27
1.0
 37
0.0
 76
     0
330
17
  0
MLINESTYLE
  5
1B
102
{ACAD_REACTORS
330
1A
102
}
330
1A
100
AcDbMlineStyle
  2
STANDARD
 70
     0
  3

 62
   256
 51
90.0
 52
90.0
 71
     2
 49
0.5
 62
   256
  6
BYLAYER
 49
-0.5
 62
   256
  6
BYLAYER
  0
ACDBPLACEHOLDER
  5
16E
102
{ACAD_REACTORS
330
16D
102
}
330
16D
  0
DICTIONARYVAR
  5
39
102
{ACAD_REACTORS
330
38
102
}
330
38
100
DictionaryVariables
280
     0
  1
4
  0
ENDSEC
  0
EOF
