  0
SECTION
  2
HEADER
  9
$ACADVER
  1
AC1015
  9
$ACADMAINTVER
 70
    10
  9
$DWGCODEPAGE
  3
ANSI_1252
  9
$INSBASE
 10
0.0
 20
0.0
 30
0.0
  9
$EXTMIN
 10
15.91278175813238
 20
136.0373848830785
 30
-0.0015258207003583
  9
$EXTMAX
 10
965.0399796397426
 20
726.0629436958847
 30
0.0000000349246037
  9
$LIMMIN
 10
0.0
 20
0.0
  9
$LIMMAX
 10
420.0
 20
297.0
  9
$ORTHOMODE
 70
     1
  9
$REGENMODE
 70
     1
  9
$FILLMODE
 70
     1
  9
$QTEXTMODE
 70
     0
  9
$MIRRTEXT
 70
     1
  9
$LTSCALE
 40
1.0
  9
$ATTMODE
 70
     1
  9
$TEXTSIZE
 40
2.5
  9
$TRACEWID
 40
1.0
  9
$TEXTSTYLE
  7
Standard
  9
$CLAYER
  8
0
  9
$CELTYPE
  6
ByLayer
  9
$CECOLOR
 62
   256
  9
$CELTSCALE
 40
1.0
  9
$DISPSILH
 70
     0
  9
$DIMSCALE
 40
1.0
  9
$DIMASZ
 40
2.5
  9
$DIMEXO
 40
0.625
  9
$DIMDLI
 40
3.75
  9
$DIMRND
 40
0.0
  9
$DIMDLE
 40
0.0
  9
$DIMEXE
 40
1.25
  9
$DIMTP
 40
0.0
  9
$DIMTM
 40
0.0
  9
$DIMTXT
 40
2.5
  9
$DIMCEN
 40
2.5
  9
$DIMTSZ
 40
0.0
  9
$DIMTOL
 70
     0
  9
$DIMLIM
 70
     0
  9
$DIMTIH
 70
     0
  9
$DIMTOH
 70
     0
  9
$DIMSE1
 70
     0
  9
$DIMSE2
 70
     0
  9
$DIMTAD
 70
     1
  9
$DIMZIN
 70
     8
  9
$DIMBLK
  1

  9
$DIMASO
 70
     1
  9
$DIMSHO
 70
     1
  9
$DIMPOST
  1

  9
$DIMAPOST
  1

  9
$DIMALT
 70
     0
  9
$DIMALTD
 70
     3
  9
$DIMALTF
 40
0.03937007874016
  9
$DIMLFAC
 40
1.0
  9
$DIMTOFL
 70
     1
  9
$DIMTVP
 40
0.0
  9
$DIMTIX
 70
     0
  9
$DIMSOXD
 70
     0
  9
$DIMSAH
 70
     0
  9
$DIMBLK1
  1

  9
$DIMBLK2
  1

  9
$DIMSTYLE
  2
ISO-25
  9
$DIMCLRD
 70
     0
  9
$DIMCLRE
 70
     0
  9
$DIMCLRT
 70
     0
  9
$DIMTFAC
 40
1.0
  9
$DIMGAP
 40
0.625
  9
$DIMJUST
 70
     0
  9
$DIMSD1
 70
     0
  9
$DIMSD2
 70
     0
  9
$DIMTOLJ
 70
     0
  9
$DIMTZIN
 70
     8
  9
$DIMALTZ
 70
     0
  9
$DIMALTTZ
 70
     0
  9
$DIMUPT
 70
     0
  9
$DIMDEC
 70
     2
  9
$DIMTDEC
 70
     2
  9
$DIMALTU
 70
     2
  9
$DIMALTTD
 70
     3
  9
$DIMTXSTY
  7
Standard
  9
$DIMAUNIT
 70
     0
  9
$DIMADEC
 70
     0
  9
$DIMALTRND
 40
0.0
  9
$DIMAZIN
 70
     0
  9
$DIMDSEP
 70
    44
  9
$DIMATFIT
 70
     3
  9
$DIMFRAC
 70
     0
  9
$DIMLDRBLK
  1

  9
$DIMLUNIT
 70
     2
  9
$DIMLWD
 70
    -2
  9
$DIMLWE
 70
    -2
  9
$DIMTMOVE
 70
     0
  9
$LUNITS
 70
     2
  9
$LUPREC
 70
     4
  9
$SKETCHINC
 40
1.0
  9
$FILLETRAD
 40
10.0
  9
$AUNITS
 70
     0
  9
$AUPREC
 70
     0
  9
$MENU
  1
.
  9
$ELEVATION
 40
0.0
  9
$PELEVATION
 40
0.0
  9
$THICKNESS
 40
0.0
  9
$LIMCHECK
 70
     0
  9
$CHAMFERA
 40
10.0
  9
$CHAMFERB
 40
10.0
  9
$CHAMFERC
 40
20.0
  9
$CHAMFERD
 40
0.0
  9
$SKPOLY
 70
     0
  9
$TDCREATE
 40
2452572.679531342
  9
$TDUCREATE
 40
2452572.637864676
  9
$TDUPDATE
 40
2452572.683533969
  9
$TDUUPDATE
 40
2452572.641867303
  9
$TDINDWG
 40
0.0040067940
  9
$TDUSRTIMER
 40
0.0040027431
  9
$USRTIMER
 70
     1
  9
$ANGBASE
 50
0.0
  9
$ANGDIR
 70
     0
  9
$PDMODE
 70
     0
  9
$PDSIZE
 40
0.0
  9
$PLINEWID
 40
0.0
  9
$SPLFRAME
 70
     0
  9
$SPLINETYPE
 70
     6
  9
$SPLINESEGS
 70
     8
  9
$HANDSEED
  5
2B4
  9
$SURFTAB1
 70
     6
  9
$SURFTAB2
 70
     6
  9
$SURFTYPE
 70
     6
  9
$SURFU
 70
     6
  9
$SURFV
 70
     6
  9
$UCSBASE
  2

  9
$UCSNAME
  2

  9
$UCSORG
 10
0.0
 20
0.0
 30
0.0
  9
$UCSXDIR
 10
1.0
 20
0.0
 30
0.0
  9
$UCSYDIR
 10
0.0
 20
1.0
 30
0.0
  9
$UCSORTHOREF
  2

  9
$UCSORTHOVIEW
 70
     0
  9
$UCSORGTOP
 10
0.0
 20
0.0
 30
0.0
  9
$UCSORGBOTTOM
 10
0.0
 20
0.0
 30
0.0
  9
$UCSORGLEFT
 10
0.0
 20
0.0
 30
0.0
  9
$UCSORGRIGHT
 10
0.0
 20
0.0
 30
0.0
  9
$UCSORGFRONT
 10
0.0
 20
0.0
 30
0.0
  9
$UCSORGBACK
 10
0.0
 20
0.0
 30
0.0
  9
$PUCSBASE
  2

  9
$PUCSNAME
  2

  9
$PUCSORG
 10
0.0
 20
0.0
 30
0.0
  9
$PUCSXDIR
 10
1.0
 20
0.0
 30
0.0
  9
$PUCSYDIR
 10
0.0
 20
1.0
 30
0.0
  9
$PUCSORTHOREF
  2

  9
$PUCSORTHOVIEW
 70
     0
  9
$PUCSORGTOP
 10
0.0
 20
0.0
 30
0.0
  9
$PUCSORGBOTTOM
 10
0.0
 20
0.0
 30
0.0
  9
$PUCSORGLEFT
 10
0.0
 20
0.0
 30
0.0
  9
$PUCSORGRIGHT
 10
0.0
 20
0.0
 30
0.0
  9
$PUCSORGFRONT
 10
0.0
 20
0.0
 30
0.0
  9
$PUCSORGBACK
 10
0.0
 20
0.0
 30
0.0
  9
$USERI1
 70
     0
  9
$USERI2
 70
     0
  9
$USERI3
 70
     0
  9
$USERI4
 70
     0
  9
$USERI5
 70
     0
  9
$USERR1
 40
0.0
  9
$USERR2
 40
0.0
  9
$USERR3
 40
0.0
  9
$USERR4
 40
0.0
  9
$USERR5
 40
0.0
  9
$WORLDVIEW
 70
     1
  9
$SHADEDGE
 70
     3
  9
$SHADEDIF
 70
    70
  9
$TILEMODE
 70
     1
  9
$MAXACTVP
 70
    64
  9
$PINSBASE
 10
0.0
 20
0.0
 30
0.0
  9
$PLIMCHECK
 70
     0
  9
$PEXTMIN
 10
1.000000000000000E+20
 20
1.000000000000000E+20
 30
1.000000000000000E+20
  9
$PEXTMAX
 10
-1.000000000000000E+20
 20
-1.000000000000000E+20
 30
-1.000000000000000E+20
  9
$PLIMMIN
 10
0.0
 20
0.0
  9
$PLIMMAX
 10
420.0
 20
297.0
  9
$UNITMODE
 70
     0
  9
$VISRETAIN
 70
     1
  9
$PLINEGEN
 70
     0
  9
$PSLTSCALE
 70
     1
  9
$TREEDEPTH
 70
  3020
  9
$CMLSTYLE
  2
Standard
  9
$CMLJUST
 70
     0
  9
$CMLSCALE
 40
20.0
  9
$PROXYGRAPHICS
 70
     1
  9
$MEASUREMENT
 70
     1
  9
$CELWEIGHT
370
    -1
  9
$ENDCAPS
280
     0
  9
$JOINSTYLE
280
     0
  9
$LWDISPLAY
290
     0
  9
$INSUNITS
 70
     4
  9
$HYPERLINKBASE
  1

  9
$STYLESHEET
  1

  9
$XEDIT
290
     1
  9
$CEPSNTYPE
380
     0
  9
$PSTYLEMODE
290
     1
  9
$FINGERPRINTGUID
  2
{29F31759-D589-4769-B309-3B13FE2446A3}
  9
$VERSIONGUID
  2
{D64D6FA2-EB9A-4EA4-84E7-56DD66B6A1DA}
  9
$EXTNAMES
290
     1
  9
$PSVPSCALE
 40
0.0
  9
$OLESTARTUP
290
     0
  0
ENDSEC
  0
SECTION
  2
CLASSES
  0
CLASS
  1
ACDBDICTIONARYWDFLT
  2
AcDbDictionaryWithDefault
  3
AutoCAD 2000
 90
        0
280
     0
281
     0
  0
CLASS
  1
ACDBPLACEHOLDER
  2
AcDbPlaceHolder
  3
AutoCAD 2000
 90
        0
280
     0
281
     0
  0
CLASS
  1
LAYOUT
  2
AcDbLayout
  3
AutoCAD 2000
 90
        0
280
     0
281
     0
  0
ENDSEC
  0
SECTION
  2
TABLES
  0
TABLE
  2
VPORT
  5
8
330
0
100
AcDbSymbolTable
 70
     4
  0
VPORT
  5
2B3
330
8
100
AcDbSymbolTableRecord
100
AcDbViewportTableRecord
  2
*Active
 70
     0
 10
0.0
 20
0.0
 11
1.0
 21
1.0
 12
413.1304487053182
 22
389.9798675339956
 13
0.0
 23
0.0
 14
10.0
 24
10.0
 15
10.0
 25
10.0
 16
0.0
 26
0.0
 36
1.0
 17
0.0
 27
0.0
 37
0.0
 40
1002.040264240507
 41
1.760948905109489
 42
50.0
 43
0.0
 44
0.0
 50
0.0
 51
0.0
 71
     0
 72
   100
 73
     1
 74
     3
 75
     0
 76
     0
 77
     0
 78
     0
281
     0
 65
     1
110
0.0
120
0.0
130
0.0
111
1.0
121
0.0
131
0.0
112
0.0
122
1.0
132
0.0
 79
     0
146
0.0
  0
ENDTAB
  0
TABLE
  2
LTYPE
  5
5
330
0
100
AcDbSymbolTable
 70
     1
  0
LTYPE
  5
14
330
5
100
AcDbSymbolTableRecord
100
AcDbLinetypeTableRecord
  2
ByBlock
 70
     0
  3

 72
    65
 73
     0
 40
0.0
  0
LTYPE
  5
15
330
5
100
AcDbSymbolTableRecord
100
AcDbLinetypeTableRecord
  2
ByLayer
 70
     0
  3

 72
    65
 73
     0
 40
0.0
  0
LTYPE
  5
16
330
5
100
AcDbSymbolTableRecord
100
AcDbLinetypeTableRecord
  2
Continuous
 70
     0
  3
Solid line
 72
    65
 73
     0
 40
0.0
  0
ENDTAB
  0
TABLE
  2
LAYER
  5
2
330
0
100
AcDbSymbolTable
 70
    11
  0
LAYER
  5
10
330
2
100
AcDbSymbolTableRecord
100
AcDbLayerTableRecord
  2
0
 70
     0
 62
     7
  6
Continuous
370
    -3
390
F
  0
LAYER
  5
2B
330
2
100
AcDbSymbolTableRecord
100
AcDbLayerTableRecord
  2
ANCON-SUPPORT
 70
     0
 62
     3
  6
Continuous
370
    -3
390
F
  0
LAYER
  5
2C
330
2
100
AcDbSymbolTableRecord
100
AcDbLayerTableRecord
  2
ANCON-STRUC
 70
     0
 62
     2
  6
Continuous
370
    -3
390
F
  0
LAYER
  5
2D
330
2
100
AcDbSymbolTableRecord
100
AcDbLayerTableRecord
  2
ANCON-MASONRY
 70
     0
 62
     1
  6
Continuous
370
    -3
390
F
  0
LAYER
  5
2E
330
2
100
AcDbSymbolTableRecord
100
AcDbLayerTableRecord
  2
ANCON-CHANNEL
 70
     0
 62
     1
  6
Continuous
370
    -3
390
F
  0
LAYER
  5
2F
330
2
100
AcDbSymbolTableRecord
100
AcDbLayerTableRecord
  2
ANCON-TEXT
 70
     0
 62
     6
  6
Continuous
370
    -3
390
F
  0
LAYER
  5
30
330
2
100
AcDbSymbolTableRecord
100
AcDbLayerTableRecord
  2
ANCON-TIE
 70
     0
 62
     1
  6
Continuous
370
    -3
390
F
  0
LAYER
  5
31
330
2
100
AcDbSymbolTableRecord
100
AcDbLayerTableRecord
  2
ANCON-BOLT
 70
     0
 62
     1
  6
Continuous
370
    -3
390
F
  0
LAYER
  5
29D
330
2
100
AcDbSymbolTableRecord
100
AcDbLayerTableRecord
  2
Defpoints
 70
     0
 62
     7
  6
Continuous
290
     0
370
    -3
390
F
  0
LAYER
  5
29E
330
2
100
AcDbSymbolTableRecord
100
AcDbLayerTableRecord
  2
ANCON-ORIGIN
 70
     0
 62
     1
  6
Continuous
370
    -3
390
F
  0
LAYER
  5
29F
330
2
100
AcDbSymbolTableRecord
100
AcDbLayerTableRecord
  2
DANGLE
 70
     0
 62
     4
  6
Continuous
370
    -3
390
F
  0
ENDTAB
  0
TABLE
  2
STYLE
  5
3
330
0
100
AcDbSymbolTable
 70
     2
  0
STYLE
  5
11
330
3
100
AcDbSymbolTableRecord
100
AcDbTextStyleTableRecord
  2
Standard
 70
     0
 40
0.0
 41
1.0
 50
0.0
 71
     0
 42
2.5
  3
txt
  4

  0
STYLE
  5
32
330
3
100
AcDbSymbolTableRecord
100
AcDbTextStyleTableRecord
  2
ROMANS
 70
     0
 40
0.0
 41
1.0
 50
0.0
 71
     0
 42
9.0
  3
romans
  4

  0
ENDTAB
  0
TABLE
  2
VIEW
  5
6
330
0
100
AcDbSymbolTable
 70
     0
  0
ENDTAB
  0
TABLE
  2
UCS
  5
7
330
0
100
AcDbSymbolTable
 70
     0
  0
ENDTAB
  0
TABLE
  2
APPID
  5
9
330
0
100
AcDbSymbolTable
 70
     1
  0
APPID
  5
12
330
9
100
AcDbSymbolTableRecord
100
AcDbRegAppTableRecord
  2
ACAD
 70
     0
  0
ENDTAB
  0
TABLE
  2
DIMSTYLE
  5
A
330
0
100
AcDbSymbolTable
 70
     4
100
AcDbDimStyleTable
 71
     0
  0
DIMSTYLE
105
27
330
A
100
AcDbSymbolTableRecord
100
AcDbDimStyleTableRecord
  2
ISO-25
 70
     0
 41
2.5
 42
0.625
 43
3.75
 44
1.25
 73
     0
 74
     0
 77
     1
 78
     8
140
2.5
141
2.5
143
0.03937007874016
147
0.625
171
     3
172
     1
271
     2
272
     2
274
     3
278
    44
283
     0
284
     8
340
11
  0
DIMSTYLE
105
33
330
A
100
AcDbSymbolTableRecord
100
AcDbDimStyleTableRecord
  2
1-5
 70
     0
 40
5.0
 41
0.0
 42
4.5
 43
0.0
 44
1.5
 45
1.0
 46
1.25
 73
     0
 74
     0
 77
     1
 78
    12
140
1.8
141
0.0
142
1.0
143
0.04
146
1.25
147
0.1
271
     2
272
     2
279
     2
284
    12
285
    12
286
    12
340
32
  0
DIMSTYLE
105
2A0
330
A
100
AcDbSymbolTableRecord
100
AcDbDimStyleTableRecord
  2
1-1
 70
     0
 41
2.0
 42
4.5
 43
0.0
 44
1.5
 45
1.0
 73
     0
 74
     0
 77
     1
 78
    12
140
1.8
141
0.0
146
1.25
147
0.8
279
     2
284
    12
285
    12
286
    12
340
32
  0
DIMSTYLE
105
2A1
330
A
100
AcDbSymbolTableRecord
100
AcDbDimStyleTableRecord
  2
1-2
 70
     0
 40
2.0
 41
2.0
 42
4.5
 43
0.0
 44
1.5
 45
1.0
 73
     0
 74
     0
 77
     1
 78
    12
140
1.8
141
0.0
146
1.25
147
0.8
279
     2
284
    12
285
    12
286
    12
340
32
  0
ENDTAB
  0
TABLE
  2
BLOCK_RECORD
  5
1
330
0
100
AcDbSymbolTable
 70
     4
  0
BLOCK_RECORD
  5
1F
330
1
100
AcDbSymbolTableRecord
100
AcDbBlockTableRecord
  2
*Model_Space
340
22
  0
BLOCK_RECORD
  5
1B
330
1
100
AcDbSymbolTableRecord
100
AcDbBlockTableRecord
  2
*Paper_Space
340
1E
  0
BLOCK_RECORD
  5
23
330
1
100
AcDbSymbolTableRecord
100
AcDbBlockTableRecord
  2
*Paper_Space0
340
26
  0
BLOCK_RECORD
  5
34
330
1
100
AcDbSymbolTableRecord
100
AcDbBlockTableRecord
  2
a_ldb_i_ssupport
340
0
102
{BLKREFS
331
168
102
}
  0
BLOCK_RECORD
  5
299
330
1
100
AcDbSymbolTableRecord
100
AcDbBlockTableRecord
  2
OR
340
0
102
{BLKREFS
331
2A3
331
2AD
102
}
  0
BLOCK_RECORD
  5
2A2
330
1
100
AcDbSymbolTableRecord
100
AcDbBlockTableRecord
  2
tieheads
340
0
102
{BLKREFS
331
2AA
102
}
  0
ENDTAB
  0
ENDSEC
  0
SECTION
  2
BLOCKS
  0
BLOCK
  5
20
330
1F
100
AcDbEntity
  8
0
100
AcDbBlockBegin
  2
*Model_Space
 70
     0
 10
0.0
 20
0.0
 30
0.0
  3
*Model_Space
  1

  0
ENDBLK
  5
21
330
1F
100
AcDbEntity
  8
0
100
AcDbBlockEnd
  0
BLOCK
  5
1C
330
1B
100
AcDbEntity
 67
     1
  8
0
100
AcDbBlockBegin
  2
*Paper_Space
 70
     0
 10
0.0
 20
0.0
 30
0.0
  3
*Paper_Space
  1

  0
ENDBLK
  5
1D
330
1B
100
AcDbEntity
 67
     1
  8
0
100
AcDbBlockEnd
  0
BLOCK
  5
24
330
23
100
AcDbEntity
  8
0
100
AcDbBlockBegin
  2
*Paper_Space0
 70
     0
 10
0.0
 20
0.0
 30
0.0
  3
*Paper_Space0
  1

  0
ENDBLK
  5
25
330
23
100
AcDbEntity
  8
0
100
AcDbBlockEnd
  0
BLOCK
  5
165
330
34
100
AcDbEntity
  8
0
100
AcDbBlockBegin
  2
a_ldb_i_ssupport
 70
     0
 10
0.0
 20
0.0
 30
0.0
  3
a_ldb_i_ssupport
  1

  0
TEXT
  5
35
330
34
100
AcDbEntity
  8
ANCON-TEXT
100
AcDbText
 10
305.7841326933564
 20
358.6525190947603
 30
0.0
 40
9.0
  1
Brackets fixed at 225mm centres.
  7
ROMANS
100
AcDbText
  0
TEXT
  5
36
330
34
100
AcDbEntity
  8
ANCON-TEXT
100
AcDbText
 10
305.7841326933564
 20
417.2915636515178
 30
0.0
 40
9.0
  1
and carry 8 kilonewtons load per metre run.
  7
ROMANS
100
AcDbText
  0
TEXT
  5
37
330
34
100
AcDbEntity
  8
ANCON-TEXT
100
AcDbText
 10
305.7841326933564
 20
431.8629922229464
 30
0.0
 40
9.0
  1
Ancon Building Products will design a system to suit a 75mm cavity
  7
ROMANS
100
AcDbText
  0
TEXT
  5
38
330
34
100
AcDbEntity
  8
ANCON-TEXT
100
AcDbText
 10
305.7841326933564
 20
446.434420794375
 30
0.0
 40
9.0
  1
cavity width ie. LDB/IS/75
  7
ROMANS
100
AcDbText
  0
TEXT
  5
39
330
34
100
AcDbEntity
  8
ANCON-TEXT
100
AcDbText
 10
305.7841326933564
 20
461.0058493658036
 30
0.0
 40
9.0
  1
Ancon LDB/IS Systems can be specified by the
  7
ROMANS
100
AcDbText
  0
TEXT
  5
3A
330
34
100
AcDbEntity
  8
ANCON-TEXT
100
AcDbText
 10
305.7841326933564
 20
373.3828140287549
 30
0.0
 40
9.0
  1
System to support a maximum height of brickwork of 4 metres
  7
ROMANS
100
AcDbText
  0
ARC
  5
3B
330
34
100
AcDbEntity
  8
ANCON-CHANNEL
100
AcDbCircle
 10
-4.500000000000028
 20
275.0464181425828
 30
0.0
 40
4.5
100
AcDbArc
 50
0.0
 51
110.2248594311679
  0
LINE
  5
3C
330
34
100
AcDbEntity
  8
ANCON-SUPPORT
100
AcDbLine
 10
7.0
 20
280.0
 30
0.0
 11
10.0
 21
277.0
 31
0.0
  0
LINE
  5
3D
330
34
100
AcDbEntity
  8
ANCON-BOLT
100
AcDbLine
 10
14.72218194374954
 20
280.6109097187501
 30
0.0
 11
14.72218194374954
 21
253.3890902812499
 31
0.0
  0
LINE
  5
3E
330
34
100
AcDbEntity
  8
ANCON-BOLT
100
AcDbLine
 10
12.0
 20
280.6109097187501
 30
0.0
 11
12.0
 21
253.3890902812499
 31
0.0
  0
LINE
  5
3F
330
34
100
AcDbEntity
  8
ANCON-SUPPORT
100
AcDbLine
 10
0.0000000000000004
 20
307.0
 30
0.0
 11
0.0000000000000004
 21
147.0
 31
0.0
  0
LINE
  5
40
330
34
100
AcDbEntity
  8
ANCON-CHANNEL
100
AcDbLine
 10
12.0
 20
247.0
 30
0.0
 11
12.0
 21
287.0
 31
0.0
  0
LINE
  5
41
330
34
100
AcDbEntity
  8
ANCON-MASONRY
100
AcDbLine
 10
75.00000000000003
 20
225.0
 30
0.0
 11
74.99999999999997
 21
290.0
 31
0.0
  0
LINE
  5
42
330
34
100
AcDbEntity
  8
ANCON-MASONRY
100
AcDbLine
 10
177.4999999999999
 20
225.0
 30
0.0
 11
177.4999999999999
 21
290.0
 31
0.0
  0
LINE
  5
43
330
34
100
AcDbEntity
  8
ANCON-STRUC
100
AcDbLine
 10
0.0
 20
0.0
 30
0.0
 11
0.0000000000000004
 21
590.0
 31
0.0
  0
LINE
  5
44
330
34
100
AcDbEntity
  8
ANCON-TIE
100
AcDbLine
 10
87.769001842569
 20
94.50000000000015
 30
0.0
 11
0.0000000000000004
 21
94.50000000000004
 31
0.0
  0
LINE
  5
45
330
34
100
AcDbEntity
  8
ANCON-TIE
100
AcDbLine
 10
87.769001842569
 20
114.4999999999999
 30
0.0
 11
0.0000000000000004
 21
114.4999999999999
 31
0.0
  0
LINE
  5
46
330
34
100
AcDbEntity
  8
ANCON-SUPPORT
100
AcDbLine
 10
10.0
 20
147.9999999999999
 30
0.0
 11
150.0
 21
218.0
 31
0.0
  0
LINE
  5
47
330
34
100
AcDbEntity
  8
ANCON-SUPPORT
100
AcDbLine
 10
10.0
 20
181.4999999999999
 30
0.0
 11
83.0
 21
218.0
 31
0.0
  0
LINE
  5
48
330
34
100
AcDbEntity
  8
ANCON-SUPPORT
100
AcDbLine
 10
9.999999999999886
 20
222.0
 30
0.0
 11
47.5
 21
222.0
 31
0.0
  0
LINE
  5
49
330
34
100
AcDbEntity
  8
ANCON-SUPPORT
100
AcDbLine
 10
9.999999999999886
 20
218.0
 30
0.0
 11
47.5
 21
218.0
 31
0.0
  0
LINE
  5
4A
330
34
100
AcDbEntity
  8
ANCON-BOLT
100
AcDbLine
 10
23.79612175624959
 20
272.1344902017556
 30
0.0
 11
39.09260601875007
 21
272.1344902017556
 31
0.0
  0
LINE
  5
4B
330
34
100
AcDbEntity
  8
ANCON-BOLT
100
AcDbLine
 10
23.79612175624959
 20
271.2270962205056
 30
0.0
 11
40.0
 21
271.2270962205056
 31
0.0
  0
LINE
  5
4C
330
34
100
AcDbEntity
  8
ANCON-BOLT
100
AcDbLine
 10
23.79612175624959
 20
262.1368233163431
 30
0.0
 11
39.09260601874996
 21
262.1368233163431
 31
0.0
  0
LINE
  5
4D
330
34
100
AcDbEntity
  8
ANCON-BOLT
100
AcDbLine
 10
23.79612175624959
 20
263.044217297593
 30
0.0
 11
40.0
 21
263.0442172975931
 31
0.0
  0
LINE
  5
4E
330
34
100
AcDbEntity
  8
ANCON-STRUC
100
AcDbLine
 10
0.0
 20
0.0
 30
0.0
 11
-150.0107129008262
 21
0.0
 31
0.0
  0
LINE
  5
4F
330
34
100
AcDbEntity
  8
ANCON-SUPPORT
100
AcDbLine
 10
9.999999999999886
 20
222.0
 30
0.0
 11
10.0
 21
147.0
 31
0.0
  0
LINE
  5
50
330
34
100
AcDbEntity
  8
ANCON-BOLT
100
AcDbLine
 10
-7.405312925368207
 20
107.5060000000001
 30
0.0
 11
-48.45387292536827
 21
107.5060000000002
 31
0.0
  0
LINE
  5
51
330
34
100
AcDbEntity
  8
ANCON-BOLT
100
AcDbLine
 10
-7.405312925368207
 20
101.4651424000003
 30
0.0
 11
-48.45387292536827
 21
101.4651424000002
 31
0.0
  0
LINE
  5
52
330
34
100
AcDbEntity
  8
ANCON-BOLT
100
AcDbLine
 10
-64.89340117534436
 20
101.1697312000002
 30
0.0
 11
-61.27612117534432
 21
101.1697312000002
 31
0.0
  0
LINE
  5
53
330
34
100
AcDbEntity
  8
ANCON-BOLT
100
AcDbLine
 10
-59.14281384953472
 20
103.5812512000002
 30
0.0
 11
-64.89340117534436
 21
103.5812512000002
 31
0.0
  0
LINE
  5
54
330
34
100
AcDbEntity
  8
ANCON-BOLT
100
AcDbLine
 10
-64.89340117534436
 20
107.8014112000002
 30
0.0
 11
-61.27612117534432
 21
107.8014112000002
 31
0.0
  0
LINE
  5
55
330
34
100
AcDbEntity
  8
ANCON-BOLT
100
AcDbLine
 10
-59.14281384953472
 20
105.3898912000002
 30
0.0
 11
-64.89340117534436
 21
105.3898912000002
 31
0.0
  0
LINE
  5
56
330
34
100
AcDbEntity
  8
ANCON-BOLT
100
AcDbLine
 10
-64.89340117534436
 20
103.5812512000002
 30
0.0
 11
-64.89340117534436
 21
101.1697312000002
 31
0.0
  0
LINE
  5
57
330
34
100
AcDbEntity
  8
ANCON-BOLT
100
AcDbLine
 10
-70.35650332536818
 20
107.5060000000001
 30
0.0
 11
-70.35650332536818
 21
101.4651424000007
 31
0.0
  0
LINE
  5
58
330
34
100
AcDbEntity
  8
ANCON-BOLT
100
AcDbLine
 10
-70.96058908536827
 20
107.5060000000001
 30
0.0
 11
-70.96058908536827
 21
101.4651424000002
 31
0.0
  0
LINE
  5
59
330
34
100
AcDbEntity
  8
ANCON-BOLT
100
AcDbLine
 10
-71.36331292536818
 20
107.1032761600002
 30
0.0
 11
-71.36331292536818
 21
101.8678662400003
 31
0.0
  0
LINE
  5
5A
330
34
100
AcDbEntity
  8
ANCON-BOLT
100
AcDbLine
 10
-70.35650332536818
 20
101.4651424000007
 30
0.0
 11
-64.89340117534436
 21
101.7726467146704
 31
0.0
  0
LINE
  5
5B
330
34
100
AcDbEntity
  8
ANCON-BOLT
100
AcDbLine
 10
-70.35650332536818
 20
101.4651424000002
 30
0.0
 11
-70.96058908536827
 21
101.4651424000002
 31
0.0
  0
LINE
  5
5C
330
34
100
AcDbEntity
  8
ANCON-BOLT
100
AcDbLine
 10
-71.36331292536818
 20
101.8678662400003
 30
0.0
 11
-70.96058908536827
 21
101.4651424000002
 31
0.0
  0
LINE
  5
5D
330
34
100
AcDbEntity
  8
ANCON-BOLT
100
AcDbLine
 10
-70.35650332536818
 20
107.5060000000002
 30
0.0
 11
-64.89340117534436
 21
107.1984956853304
 31
0.0
  0
LINE
  5
5E
330
34
100
AcDbEntity
  8
ANCON-BOLT
100
AcDbLine
 10
-70.35650332536818
 20
107.5060000000002
 30
0.0
 11
-70.96058908536827
 21
107.5060000000002
 31
0.0
  0
LINE
  5
5F
330
34
100
AcDbEntity
  8
ANCON-BOLT
100
AcDbLine
 10
-70.96058908536827
 20
107.5060000000001
 30
0.0
 11
-71.36331292536818
 21
107.1032761600002
 31
0.0
  0
LINE
  5
60
330
34
100
AcDbEntity
  8
ANCON-BOLT
100
AcDbLine
 10
-64.89340117534436
 20
107.8014112000002
 30
0.0
 11
-64.89340117534436
 21
105.3898912000002
 31
0.0
  0
LINE
  5
61
330
34
100
AcDbEntity
  8
ANCON-BOLT
100
AcDbLine
 10
-51.02716117534431
 20
103.5812512000002
 30
0.0
 11
-51.02716117534431
 21
101.1697312000002
 31
0.0
  0
LINE
  5
62
330
34
100
AcDbEntity
  8
ANCON-BOLT
100
AcDbLine
 10
-54.64444117534435
 20
101.1697312000002
 30
0.0
 11
-51.02716117534431
 21
101.1697312000002
 31
0.0
  0
LINE
  5
63
330
34
100
AcDbEntity
  8
ANCON-BOLT
100
AcDbLine
 10
-61.27612117534432
 20
100.8682912000002
 30
0.0
 11
-54.64444117534435
 21
100.8682912000002
 31
0.0
  0
LINE
  5
64
330
34
100
AcDbEntity
  8
ANCON-BOLT
100
AcDbLine
 10
-61.27612117534432
 20
100.8682912000002
 30
0.0
 11
-61.27612117534432
 21
101.1697312000002
 31
0.0
  0
LINE
  5
65
330
34
100
AcDbEntity
  8
ANCON-BOLT
100
AcDbLine
 10
-54.64444117534435
 20
100.8682912000002
 30
0.0
 11
-54.64444117534435
 21
101.1697312000002
 31
0.0
  0
LINE
  5
66
330
34
100
AcDbEntity
  8
ANCON-BOLT
100
AcDbLine
 10
-53.74012117534437
 20
103.5812512000002
 30
0.0
 11
-51.02716117534431
 21
103.5812512000002
 31
0.0
  0
LINE
  5
67
330
34
100
AcDbEntity
  8
ANCON-BOLT
100
AcDbLine
 10
-54.64444117534435
 20
107.8014112000002
 30
0.0
 11
-51.02716117534431
 21
107.8014112000002
 31
0.0
  0
LINE
  5
68
330
34
100
AcDbEntity
  8
ANCON-BOLT
100
AcDbLine
 10
-53.74012117534437
 20
105.3898912000002
 30
0.0
 11
-51.02716117534431
 21
105.3898912000002
 31
0.0
  0
ARC
  5
69
330
34
100
AcDbEntity
  8
ANCON-BOLT
100
AcDbCircle
 10
-53.74012117534437
 20
104.4855712000002
 30
0.0
 40
0.9043200000000002
100
AcDbArc
 50
90.0
 51
270.0
  0
ARC
  5
6A
330
34
100
AcDbEntity
  8
ANCON-BOLT
100
AcDbCircle
 10
-59.14281384953472
 20
104.4855712000002
 30
0.0
 40
0.9043200000000002
100
AcDbArc
 50
270.0
 51
90.0
  0
LINE
  5
6B
330
34
100
AcDbEntity
  8
ANCON-BOLT
100
AcDbLine
 10
-61.27612117534432
 20
108.1028512000002
 30
0.0
 11
-54.64444117534435
 21
108.1028512000002
 31
0.0
  0
LINE
  5
6C
330
34
100
AcDbEntity
  8
ANCON-BOLT
100
AcDbLine
 10
-61.27612117534432
 20
107.8014112000002
 30
0.0
 11
-61.27612117534432
 21
108.1028512000002
 31
0.0
  0
LINE
  5
6D
330
34
100
AcDbEntity
  8
ANCON-BOLT
100
AcDbLine
 10
-54.64444117534435
 20
107.8014112000002
 30
0.0
 11
-54.64444117534435
 21
108.1028512000002
 31
0.0
  0
LINE
  5
6E
330
34
100
AcDbEntity
  8
ANCON-BOLT
100
AcDbLine
 10
-48.45387292536827
 20
101.4651424000002
 30
0.0
 11
-48.45387292536827
 21
107.5060000000002
 31
0.0
  0
LINE
  5
6F
330
34
100
AcDbEntity
  8
ANCON-BOLT
100
AcDbLine
 10
-48.45387292536827
 20
101.7665824000002
 30
0.0
 11
-51.02716117534431
 21
101.7665824000002
 31
0.0
  0
LINE
  5
70
330
34
100
AcDbEntity
  8
ANCON-BOLT
100
AcDbLine
 10
-51.02716117534431
 20
107.8014112000002
 30
0.0
 11
-51.02716117534431
 21
105.3898912000002
 31
0.0
  0
LINE
  5
71
330
34
100
AcDbEntity
  8
ANCON-BOLT
100
AcDbLine
 10
-48.45387292536827
 20
107.2045600000001
 30
0.0
 11
-51.02716117534431
 21
107.2045600000001
 31
0.0
  0
LINE
  5
72
330
34
100
AcDbEntity
  8
ANCON-BOLT
100
AcDbLine
 10
-7.405312925368207
 20
102.2455
 30
0.0
 11
0.0000000000000004
 21
102.2455
 31
0.0
  0
LINE
  5
73
330
34
100
AcDbEntity
  8
ANCON-BOLT
100
AcDbLine
 10
-7.405312925368207
 20
101.7455
 30
0.0
 11
0.0000000000000004
 21
101.7455
 31
0.0
  0
LINE
  5
74
330
34
100
AcDbEntity
  8
ANCON-BOLT
100
AcDbLine
 10
-7.405312925368207
 20
106.7545
 30
0.0
 11
0.0000000000000004
 21
106.7545
 31
0.0
  0
LINE
  5
75
330
34
100
AcDbEntity
  8
ANCON-BOLT
100
AcDbLine
 10
-7.405312925368207
 20
107.2545
 30
0.0
 11
0.0000000000000004
 21
107.2545
 31
0.0
  0
LINE
  5
76
330
34
100
AcDbEntity
  8
ANCON-BOLT
100
AcDbLine
 10
-7.405312925368207
 20
107.5060000000001
 30
0.0
 11
-7.405312925368207
 21
101.4651424000003
 31
0.0
  0
LINE
  5
77
330
34
100
AcDbEntity
  8
ANCON-BOLT
100
AcDbLine
 10
9.024904750845848
 20
102.2455
 30
0.0
 11
13.63668707463171
 21
102.2455
 31
0.0
  0
LINE
  5
78
330
34
100
AcDbEntity
  8
ANCON-BOLT
100
AcDbLine
 10
9.024904750845848
 20
101.7455
 30
0.0
 11
13.13668707463182
 21
101.7455
 31
0.0
  0
LINE
  5
79
330
34
100
AcDbEntity
  8
ANCON-BOLT
100
AcDbLine
 10
9.024904750845848
 20
106.7545
 30
0.0
 11
13.63668707463182
 21
106.7545
 31
0.0
  0
LINE
  5
7A
330
34
100
AcDbEntity
  8
ANCON-BOLT
100
AcDbLine
 10
9.024904750845848
 20
107.2545
 30
0.0
 11
13.13668707463182
 21
107.2545
 31
0.0
  0
LINE
  5
7B
330
34
100
AcDbEntity
  8
ANCON-BOLT
100
AcDbLine
 10
4.103200000000128
 20
108.401296031782
 30
0.0
 11
4.103200000000128
 21
100.5987039682181
 31
0.0
  0
LINE
  5
7C
330
34
100
AcDbEntity
  8
ANCON-BOLT
100
AcDbLine
 10
9.024904750845848
 20
108.401296031782
 30
0.0
 11
9.024904750845848
 21
100.5987039682181
 31
0.0
  0
LINE
  5
7D
330
34
100
AcDbEntity
  8
ANCON-TIE
100
AcDbLine
 10
0.0000000000000004
 20
94.50000000000004
 30
0.0
 11
0.0000000000000004
 21
114.4999999999999
 31
0.0
  0
LINE
  5
7E
330
34
100
AcDbEntity
  8
ANCON-TIE
100
AcDbLine
 10
2.5
 20
94.50000000000004
 30
0.0
 11
2.5
 21
114.4999999999999
 31
0.0
  0
LINE
  5
7F
330
34
100
AcDbEntity
  8
ANCON-BOLT
100
AcDbLine
 10
4.103200000000128
 20
110.7624999999999
 30
0.0
 11
4.103200000000015
 21
98.23750000000002
 31
0.0
  0
LINE
  5
80
330
34
100
AcDbEntity
  8
ANCON-BOLT
100
AcDbLine
 10
2.5
 20
110.7624999999999
 30
0.0
 11
2.5
 21
98.23750000000002
 31
0.0
  0
ARC
  5
81
330
34
100
AcDbEntity
  8
ANCON-BOLT
100
AcDbCircle
 10
5.608288583705302
 20
100.5987039682181
 30
0.0
 40
1.505088583704951
100
AcDbArc
 50
120.0459147637483
 51
239.9540852362638
  0
ARC
  5
82
330
34
100
AcDbEntity
  8
ANCON-BOLT
100
AcDbCircle
 10
7.482861416295236
 20
100.5987039682181
 30
0.0
 40
1.505088583704951
100
AcDbArc
 50
300.0459147637361
 51
59.95408523625167
  0
LINE
  5
83
330
34
100
AcDbEntity
  8
ANCON-BOLT
100
AcDbLine
 10
2.5
 20
98.23750000000002
 30
0.0
 11
4.103200000000015
 21
98.23750000000002
 31
0.0
  0
LINE
  5
84
330
34
100
AcDbEntity
  8
ANCON-BOLT
100
AcDbLine
 10
4.854700000000093
 20
99.29586250000006
 30
0.0
 11
8.236450000000104
 21
99.29586250000006
 31
0.0
  0
LINE
  5
85
330
34
100
AcDbEntity
  8
ANCON-BOLT
100
AcDbLine
 10
2.5
 20
110.7624999999999
 30
0.0
 11
4.103200000000015
 21
110.7624999999999
 31
0.0
  0
ARC
  5
86
330
34
100
AcDbEntity
  8
ANCON-BOLT
100
AcDbCircle
 10
8.971276093750361
 20
104.4999999999999
 30
0.0
 40
4.868076093749946
100
AcDbArc
 50
147.7391653073663
 51
212.2608346926336
  0
ARC
  5
87
330
34
100
AcDbEntity
  8
ANCON-BOLT
100
AcDbCircle
 10
5.608288583704961
 20
108.4012960317821
 30
0.0
 40
1.505088583704906
100
AcDbArc
 50
120.0459147637347
 51
239.954085236265
  0
ARC
  5
88
330
34
100
AcDbEntity
  8
ANCON-BOLT
100
AcDbCircle
 10
4.119873906250177
 20
104.4999999999999
 30
0.0
 40
4.868076093749946
100
AcDbArc
 50
327.7391653073663
 51
32.26083469263362
  0
LINE
  5
89
330
34
100
AcDbEntity
  8
ANCON-BOLT
100
AcDbLine
 10
4.854700000000093
 20
101.901545436436
 30
0.0
 11
8.236450000000445
 21
101.901545436436
 31
0.0
  0
LINE
  5
8A
330
34
100
AcDbEntity
  8
ANCON-BOLT
100
AcDbLine
 10
4.854700000000093
 20
109.7041375000001
 30
0.0
 11
8.236450000000445
 21
109.7041375000001
 31
0.0
  0
LINE
  5
8B
330
34
100
AcDbEntity
  8
ANCON-BOLT
100
AcDbLine
 10
4.854699999999979
 20
107.0984545635639
 30
0.0
 11
8.236450000000218
 21
107.0984545635639
 31
0.0
  0
ARC
  5
8C
330
34
100
AcDbEntity
  8
ANCON-BOLT
100
AcDbCircle
 10
7.482861416295236
 20
108.401296031782
 30
0.0
 40
1.505088583704951
100
AcDbArc
 50
300.0459147637483
 51
59.95408523626384
  0
LINE
  5
8D
330
34
100
AcDbEntity
  8
ANCON-BOLT
100
AcDbLine
 10
13.63668707463182
 20
106.7545
 30
0.0
 11
13.63668707463182
 21
102.2455
 31
0.0
  0
LINE
  5
8E
330
34
100
AcDbEntity
  8
ANCON-BOLT
100
AcDbLine
 10
13.13668707463182
 20
107.2545
 30
0.0
 11
13.13668707463182
 21
101.7455
 31
0.0
  0
LINE
  5
8F
330
34
100
AcDbEntity
  8
ANCON-BOLT
100
AcDbLine
 10
13.13668707463182
 20
101.7455
 30
0.0
 11
13.63668707463182
 21
102.2455
 31
0.0
  0
LINE
  5
90
330
34
100
AcDbEntity
  8
ANCON-BOLT
100
AcDbLine
 10
13.13668707463182
 20
107.2545
 30
0.0
 11
13.63668707463182
 21
106.7545
 31
0.0
  0
LINE
  5
91
330
34
100
AcDbEntity
  8
ANCON-SUPPORT
100
AcDbLine
 10
0.0000000000000004
 20
147.0
 30
0.0
 11
10.0
 21
147.0
 31
0.0
  0
LINE
  5
92
330
34
100
AcDbEntity
  8
ANCON-CHANNEL
100
AcDbLine
 10
-19.00000000000003
 20
272.7567820090373
 30
0.0
 11
-83.49999999999997
 21
272.7567820090372
 31
0.0
  0
LINE
  5
93
330
34
100
AcDbEntity
  8
ANCON-CHANNEL
100
AcDbLine
 10
-19.00000000000003
 20
261.2432179909627
 30
0.0
 11
-83.50000000000003
 21
261.2432179909627
 31
0.0
  0
LINE
  5
94
330
34
100
AcDbEntity
  8
ANCON-CHANNEL
100
AcDbLine
 10
-83.50000000000003
 20
261.2432179909627
 30
0.0
 11
-83.50000000000003
 21
272.7567820090373
 31
0.0
  0
LINE
  5
95
330
34
100
AcDbEntity
  8
ANCON-CHANNEL
100
AcDbLine
 10
-69.37668097754138
 20
261.2432179909627
 30
0.0
 11
-69.37668097754138
 21
263.2043262200617
 31
0.0
  0
LINE
  5
96
330
34
100
AcDbEntity
  8
ANCON-CHANNEL
100
AcDbLine
 10
-68.37668097754132
 20
261.2432179909627
 30
0.0
 11
-68.37668097754138
 21
263.1576037089831
 31
0.0
  0
LINE
  5
97
330
34
100
AcDbEntity
  8
ANCON-CHANNEL
100
AcDbLine
 10
-68.37668097754138
 20
268.4838569491763
 30
0.0
 11
-68.37668097754138
 21
270.4928821974368
 31
0.0
  0
LINE
  5
98
330
34
100
AcDbEntity
  8
ANCON-CHANNEL
100
AcDbLine
 10
-69.37668097754138
 20
268.1568062632582
 30
0.0
 11
-69.37668097754138
 21
270.3059962881017
 31
0.0
  0
LINE
  5
99
330
34
100
AcDbEntity
  8
ANCON-CHANNEL
100
AcDbLine
 10
-70.37668097754139
 20
267.0822119399997
 30
0.0
 11
-70.37668097754139
 21
268.8109076350943
 31
0.0
  0
LINE
  5
9A
330
34
100
AcDbEntity
  8
ANCON-CHANNEL
100
AcDbLine
 10
-70.37668097754139
 20
269.4650090069304
 30
0.0
 11
-70.37668097754139
 21
272.7567820090373
 31
0.0
  0
LINE
  5
9B
330
34
100
AcDbEntity
  8
ANCON-CHANNEL
100
AcDbLine
 10
-69.37668097754138
 20
263.8584262135713
 30
0.0
 11
-69.37668097754138
 21
267.6895908007572
 31
0.0
  0
LINE
  5
9C
330
34
100
AcDbEntity
  8
ANCON-CHANNEL
100
AcDbLine
 10
-70.37668097754139
 20
264.2789205433202
 30
0.0
 11
-70.37668097754139
 21
266.4748317009158
 31
0.0
  0
LINE
  5
9D
330
34
100
AcDbEntity
  8
ANCON-CHANNEL
100
AcDbLine
 10
-68.37668097754138
 20
264.5592500964861
 30
0.0
 11
-68.37668097754138
 21
267.6895908007572
 31
0.0
  0
LINE
  5
9E
330
34
100
AcDbEntity
  8
ANCON-CHANNEL
100
AcDbLine
 10
-58.33128721408204
 20
261.2432179909627
 30
0.0
 11
-58.33128721408209
 21
263.1576037089831
 31
0.0
  0
LINE
  5
9F
330
34
100
AcDbEntity
  8
ANCON-CHANNEL
100
AcDbLine
 10
-59.33128721408209
 20
261.2432179909627
 30
0.0
 11
-59.33128721408209
 21
263.2043262200617
 31
0.0
  0
LINE
  5
A0
330
34
100
AcDbEntity
  8
ANCON-CHANNEL
100
AcDbLine
 10
-49.28589345062275
 20
261.2432179909627
 30
0.0
 11
-49.28589345062281
 21
263.2043262200617
 31
0.0
  0
LINE
  5
A1
330
34
100
AcDbEntity
  8
ANCON-CHANNEL
100
AcDbLine
 10
-48.28589345062275
 20
261.2432179909627
 30
0.0
 11
-48.2858934506228
 21
263.1576037089831
 31
0.0
  0
LINE
  5
A2
330
34
100
AcDbEntity
  8
ANCON-CHANNEL
100
AcDbLine
 10
-59.33128721408209
 20
268.1568062632582
 30
0.0
 11
-59.33128721408209
 21
270.3059962881017
 31
0.0
  0
LINE
  5
A3
330
34
100
AcDbEntity
  8
ANCON-CHANNEL
100
AcDbLine
 10
-58.33128721408209
 20
268.4838569491763
 30
0.0
 11
-58.33128721408209
 21
270.4928821974368
 31
0.0
  0
LINE
  5
A4
330
34
100
AcDbEntity
  8
ANCON-CHANNEL
100
AcDbLine
 10
-60.3312872140821
 20
267.0822119399997
 30
0.0
 11
-60.3312872140821
 21
268.8109076350943
 31
0.0
  0
LINE
  5
A5
330
34
100
AcDbEntity
  8
ANCON-CHANNEL
100
AcDbLine
 10
-60.3312872140821
 20
269.4650090069304
 30
0.0
 11
-60.3312872140821
 21
273.0068187926899
 31
0.0
  0
LINE
  5
A6
330
34
100
AcDbEntity
  8
ANCON-CHANNEL
100
AcDbLine
 10
-59.33128721408209
 20
263.8584262135713
 30
0.0
 11
-59.33128721408209
 21
267.6895908007572
 31
0.0
  0
LINE
  5
A7
330
34
100
AcDbEntity
  8
ANCON-CHANNEL
100
AcDbLine
 10
-60.3312872140821
 20
264.2789205433202
 30
0.0
 11
-60.3312872140821
 21
266.4748317009158
 31
0.0
  0
LINE
  5
A8
330
34
100
AcDbEntity
  8
ANCON-CHANNEL
100
AcDbLine
 10
-58.33128721408209
 20
264.5592500964861
 30
0.0
 11
-58.33128721408209
 21
267.6895908007572
 31
0.0
  0
LINE
  5
A9
330
34
100
AcDbEntity
  8
ANCON-CHANNEL
100
AcDbLine
 10
-48.2858934506228
 20
268.4838569491763
 30
0.0
 11
-48.2858934506228
 21
270.4928821974368
 31
0.0
  0
LINE
  5
AA
330
34
100
AcDbEntity
  8
ANCON-CHANNEL
100
AcDbLine
 10
-49.28589345062281
 20
268.1568062632582
 30
0.0
 11
-49.28589345062281
 21
270.3059962881017
 31
0.0
  0
LINE
  5
AB
330
34
100
AcDbEntity
  8
ANCON-CHANNEL
100
AcDbLine
 10
-50.28589345062281
 20
267.0822119399997
 30
0.0
 11
-50.28589345062281
 21
268.8109076350943
 31
0.0
  0
LINE
  5
AC
330
34
100
AcDbEntity
  8
ANCON-CHANNEL
100
AcDbLine
 10
-50.28589345062281
 20
269.4650090069304
 30
0.0
 11
-50.28589345062281
 21
273.0068187926899
 31
0.0
  0
LINE
  5
AD
330
34
100
AcDbEntity
  8
ANCON-CHANNEL
100
AcDbLine
 10
-49.28589345062281
 20
263.8584262135713
 30
0.0
 11
-49.28589345062281
 21
267.6895908007572
 31
0.0
  0
LINE
  5
AE
330
34
100
AcDbEntity
  8
ANCON-CHANNEL
100
AcDbLine
 10
-50.28589345062281
 20
264.2789205433202
 30
0.0
 11
-50.28589345062281
 21
266.4748317009158
 31
0.0
  0
LINE
  5
AF
330
34
100
AcDbEntity
  8
ANCON-CHANNEL
100
AcDbLine
 10
-48.2858934506228
 20
264.5592500964861
 30
0.0
 11
-48.2858934506228
 21
267.6895908007572
 31
0.0
  0
LINE
  5
B0
330
34
100
AcDbEntity
  8
ANCON-SUPPORT
100
AcDbLine
 10
10.0
 20
183.5
 30
0.0
 11
10.0
 21
217.0
 31
0.0
  0
LINE
  5
B1
330
34
100
AcDbEntity
  8
ANCON-CHANNEL
100
AcDbLine
 10
-16.50000000000003
 20
272.7567820090372
 30
0.0
 11
-5.191410717654747
 21
276.9231043762171
 31
0.0
  0
ARC
  5
B2
330
34
100
AcDbEntity
  8
ANCON-CHANNEL
100
AcDbCircle
 10
-4.499999999999971
 20
258.953581857417
 30
0.0
 40
4.5
100
AcDbArc
 50
249.775140568832
 51
0.0
  0
LINE
  5
B3
330
34
100
AcDbEntity
  8
ANCON-CHANNEL
100
AcDbLine
 10
-5.19141071765469
 20
257.0768956237828
 30
0.0
 11
-16.50000000000003
 21
261.2432179909627
 31
0.0
  0
LINE
  5
B4
330
34
100
AcDbEntity
  8
ANCON-CHANNEL
100
AcDbLine
 10
-38.24049968716346
 20
261.2432179909627
 30
0.0
 11
-38.24049968716352
 21
263.1576037089831
 31
0.0
  0
LINE
  5
B5
330
34
100
AcDbEntity
  8
ANCON-CHANNEL
100
AcDbLine
 10
-39.24049968716352
 20
261.2432179909627
 30
0.0
 11
-39.24049968716352
 21
263.2043262200617
 31
0.0
  0
LINE
  5
B6
330
34
100
AcDbEntity
  8
ANCON-CHANNEL
100
AcDbLine
 10
-28.19510592370423
 20
261.2432179909627
 30
0.0
 11
-28.19510592370423
 21
263.1576037089831
 31
0.0
  0
LINE
  5
B7
330
34
100
AcDbEntity
  8
ANCON-CHANNEL
100
AcDbLine
 10
-29.19510592370423
 20
261.2432179909627
 30
0.0
 11
-29.19510592370423
 21
263.2043262200617
 31
0.0
  0
LINE
  5
B8
330
34
100
AcDbEntity
  8
ANCON-CHANNEL
100
AcDbLine
 10
-38.24049968716352
 20
268.4838569491763
 30
0.0
 11
-38.24049968716352
 21
270.4928821974368
 31
0.0
  0
LINE
  5
B9
330
34
100
AcDbEntity
  8
ANCON-CHANNEL
100
AcDbLine
 10
-39.24049968716352
 20
268.1568062632582
 30
0.0
 11
-39.24049968716352
 21
270.3059962881017
 31
0.0
  0
LINE
  5
BA
330
34
100
AcDbEntity
  8
ANCON-CHANNEL
100
AcDbLine
 10
-40.24049968716352
 20
267.0822119399997
 30
0.0
 11
-40.24049968716352
 21
268.8109076350943
 31
0.0
  0
LINE
  5
BB
330
34
100
AcDbEntity
  8
ANCON-CHANNEL
100
AcDbLine
 10
-40.24049968716352
 20
269.4650090069304
 30
0.0
 11
-40.24049968716352
 21
272.7567820090373
 31
0.0
  0
LINE
  5
BC
330
34
100
AcDbEntity
  8
ANCON-CHANNEL
100
AcDbLine
 10
-39.24049968716352
 20
263.8584262135713
 30
0.0
 11
-39.24049968716352
 21
267.6895908007572
 31
0.0
  0
LINE
  5
BD
330
34
100
AcDbEntity
  8
ANCON-CHANNEL
100
AcDbLine
 10
-40.24049968716352
 20
264.2789205433202
 30
0.0
 11
-40.24049968716352
 21
266.4748317009158
 31
0.0
  0
LINE
  5
BE
330
34
100
AcDbEntity
  8
ANCON-CHANNEL
100
AcDbLine
 10
-38.24049968716352
 20
264.5592500964861
 30
0.0
 11
-38.24049968716352
 21
267.6895908007572
 31
0.0
  0
LINE
  5
BF
330
34
100
AcDbEntity
  8
ANCON-CHANNEL
100
AcDbLine
 10
-30.19510592370423
 20
267.0822119399997
 30
0.0
 11
-30.19510592370423
 21
268.8109076350943
 31
0.0
  0
LINE
  5
C0
330
34
100
AcDbEntity
  8
ANCON-CHANNEL
100
AcDbLine
 10
-30.19510592370423
 20
269.4650090069304
 30
0.0
 11
-30.19510592370423
 21
273.0068187926899
 31
0.0
  0
LINE
  5
C1
330
34
100
AcDbEntity
  8
ANCON-CHANNEL
100
AcDbLine
 10
-28.19510592370423
 20
268.4838569491763
 30
0.0
 11
-28.19510592370423
 21
270.4928821974368
 31
0.0
  0
LINE
  5
C2
330
34
100
AcDbEntity
  8
ANCON-CHANNEL
100
AcDbLine
 10
-29.19510592370423
 20
268.1568062632582
 30
0.0
 11
-29.19510592370423
 21
270.3059962881017
 31
0.0
  0
LINE
  5
C3
330
34
100
AcDbEntity
  8
ANCON-CHANNEL
100
AcDbLine
 10
-30.19510592370423
 20
264.2789205433202
 30
0.0
 11
-30.19510592370423
 21
266.4748317009158
 31
0.0
  0
LINE
  5
C4
330
34
100
AcDbEntity
  8
ANCON-CHANNEL
100
AcDbLine
 10
-29.19510592370423
 20
263.8584262135713
 30
0.0
 11
-29.19510592370423
 21
267.6895908007572
 31
0.0
  0
LINE
  5
C5
330
34
100
AcDbEntity
  8
ANCON-CHANNEL
100
AcDbLine
 10
-28.19510592370423
 20
264.5592500964861
 30
0.0
 11
-28.19510592370423
 21
267.6895908007572
 31
0.0
  0
LINE
  5
C6
330
34
100
AcDbEntity
  8
ANCON-CHANNEL
100
AcDbLine
 10
-16.50000000000003
 20
261.2432179909627
 30
0.0
 11
-16.50000000000003
 21
272.7567820090372
 31
0.0
  0
LINE
  5
C7
330
34
100
AcDbEntity
  8
ANCON-CHANNEL
100
AcDbLine
 10
-13.50000000000008
 20
261.2432179909627
 30
0.0
 11
-13.50000000000002
 21
272.7567820090372
 31
0.0
  0
LINE
  5
C8
330
34
100
AcDbEntity
  8
ANCON-CHANNEL
100
AcDbLine
 10
-19.00000000000003
 20
267.0
 30
0.0
 11
-19.00000000000003
 21
261.2432179909627
 31
0.0
  0
LINE
  5
C9
330
34
100
AcDbEntity
  8
ANCON-CHANNEL
100
AcDbLine
 10
-16.50000000000003
 20
261.2432179909627
 30
0.0
 11
-13.50000000000002
 21
261.2432179909627
 31
0.0
  0
LINE
  5
CA
330
34
100
AcDbEntity
  8
ANCON-CHANNEL
100
AcDbLine
 10
-6.055674114723075
 20
254.73103783174
 30
0.0
 11
-17.36426339706841
 21
258.8973601989199
 31
0.0
  0
ARC
  5
CB
330
34
100
AcDbEntity
  8
ANCON-CHANNEL
100
AcDbCircle
 10
-16.50000000000003
 20
261.2432179909627
 30
0.0
 40
2.5
100
AcDbArc
 50
180.0
 51
249.775140568832
  0
LINE
  5
CC
330
34
100
AcDbEntity
  8
ANCON-CHANNEL
100
AcDbLine
 10
-16.50000000000003
 20
272.7567820090372
 30
0.0
 11
-13.50000000000002
 21
272.7567820090372
 31
0.0
  0
LINE
  5
CD
330
34
100
AcDbEntity
  8
ANCON-CHANNEL
100
AcDbLine
 10
-17.36426339706841
 20
275.10263980108
 30
0.0
 11
-6.055674114723132
 21
279.2689621682598
 31
0.0
  0
LINE
  5
CE
330
34
100
AcDbEntity
  8
ANCON-CHANNEL
100
AcDbLine
 10
-19.00000000000003
 20
267.0
 30
0.0
 11
-19.00000000000003
 21
272.7567820090373
 31
0.0
  0
ARC
  5
CF
330
34
100
AcDbEntity
  8
ANCON-CHANNEL
100
AcDbCircle
 10
-16.50000000000003
 20
272.7567820090373
 30
0.0
 40
2.5
100
AcDbArc
 50
110.2248594311679
 51
180.0
  0
LINE
  5
D0
330
34
100
AcDbEntity
  8
ANCON-SUPPORT
100
AcDbLine
 10
10.0
 20
247.0000000000001
 30
0.0
 11
7.0
 21
250.0
 31
0.0
  0
LINE
  5
D1
330
34
100
AcDbEntity
  8
ANCON-SUPPORT
100
AcDbLine
 10
7.0
 20
232.0
 30
0.0
 11
10.0
 21
229.0
 31
0.0
  0
LINE
  5
D2
330
34
100
AcDbEntity
  8
ANCON-SUPPORT
100
AcDbLine
 10
9.999999999999886
 20
222.0
 30
0.0
 11
9.999999999999886
 21
218.0
 31
0.0
  0
LINE
  5
D3
330
34
100
AcDbEntity
  8
ANCON-SUPPORT
100
AcDbLine
 10
7.0
 20
226.0
 30
0.0
 11
10.0
 21
229.0
 31
0.0
  0
LINE
  5
D4
330
34
100
AcDbEntity
  8
ANCON-SUPPORT
100
AcDbLine
 10
9.0
 20
222.0
 30
0.0
 11
9.999999999999886
 21
222.0
 31
0.0
  0
LINE
  5
D5
330
34
100
AcDbEntity
  8
ANCON-SUPPORT
100
AcDbLine
 10
10.0
 20
223.0
 30
0.0
 11
9.0
 21
222.0
 31
0.0
  0
LINE
  5
D6
330
34
100
AcDbEntity
  8
ANCON-SUPPORT
100
AcDbLine
 10
10.0
 20
223.0
 30
0.0
 11
7.0
 21
226.0
 31
0.0
  0
LINE
  5
D7
330
34
100
AcDbEntity
  8
ANCON-CHANNEL
100
AcDbLine
 10
12.0
 20
247.0
 30
0.0
 11
10.0
 21
247.0
 31
0.0
  0
LINE
  5
D8
330
34
100
AcDbEntity
  8
ANCON-SUPPORT
100
AcDbLine
 10
7.0
 20
244.0
 30
0.0
 11
10.0
 21
241.0000000000001
 31
0.0
  0
LINE
  5
D9
330
34
100
AcDbEntity
  8
ANCON-SUPPORT
100
AcDbLine
 10
10.0
 20
247.0000000000001
 30
0.0
 11
7.0
 21
244.0
 31
0.0
  0
LINE
  5
DA
330
34
100
AcDbEntity
  8
ANCON-SUPPORT
100
AcDbLine
 10
10.0
 20
235.0
 30
0.0
 11
7.0
 21
238.0
 31
0.0
  0
LINE
  5
DB
330
34
100
AcDbEntity
  8
ANCON-SUPPORT
100
AcDbLine
 10
10.0
 20
235.0
 30
0.0
 11
7.0
 21
232.0
 31
0.0
  0
LINE
  5
DC
330
34
100
AcDbEntity
  8
ANCON-SUPPORT
100
AcDbLine
 10
7.0
 20
238.0
 30
0.0
 11
10.0
 21
241.0000000000001
 31
0.0
  0
LINE
  5
DD
330
34
100
AcDbEntity
  8
ANCON-BOLT
100
AcDbLine
 10
12.0
 20
253.3890902812499
 30
0.0
 11
14.72218194374954
 21
253.3890902812499
 31
0.0
  0
LINE
  5
DE
330
34
100
AcDbEntity
  8
ANCON-SUPPORT
100
AcDbLine
 10
7.0
 20
262.0
 30
0.0
 11
10.0
 21
265.0
 31
0.0
  0
LINE
  5
DF
330
34
100
AcDbEntity
  8
ANCON-CHANNEL
100
AcDbLine
 10
0.0
 20
258.953581857417
 30
0.0
 11
0.0
 21
260.0
 31
0.0
  0
LINE
  5
E0
330
34
100
AcDbEntity
  8
ANCON-CHANNEL
100
AcDbLine
 10
-0.0000000000000284
 20
259.5
 30
0.0
 11
0.0
 21
258.953581857417
 31
0.0
  0
LINE
  5
E1
330
34
100
AcDbEntity
  8
ANCON-CHANNEL
100
AcDbLine
 10
-2.499999999999971
 20
258.953581857417
 30
0.0
 11
-2.5
 21
260.0
 31
0.0
  0
ARC
  5
E2
330
34
100
AcDbEntity
  8
ANCON-CHANNEL
100
AcDbCircle
 10
-4.499999999999971
 20
258.953581857417
 30
0.0
 40
2.0
100
AcDbArc
 50
249.775140568832
 51
0.0
  0
LINE
  5
E3
330
34
100
AcDbEntity
  8
ANCON-CHANNEL
100
AcDbLine
 10
-0.0000000000000284
 20
260.0
 30
0.0
 11
-0.0000000000000284
 21
259.5
 31
0.0
  0
LINE
  5
E4
330
34
100
AcDbEntity
  8
ANCON-CHANNEL
100
AcDbLine
 10
-2.5
 20
260.0
 30
0.0
 11
-0.0000000000000284
 21
260.0
 31
0.0
  0
LINE
  5
E5
330
34
100
AcDbEntity
  8
ANCON-SUPPORT
100
AcDbLine
 10
10.0
 20
259.0
 30
0.0
 11
7.0
 21
262.0
 31
0.0
  0
LINE
  5
E6
330
34
100
AcDbEntity
  8
ANCON-SUPPORT
100
AcDbLine
 10
10.0
 20
259.0000000000001
 30
0.0
 11
7.0
 21
256.0000000000001
 31
0.0
  0
LINE
  5
E7
330
34
100
AcDbEntity
  8
ANCON-SUPPORT
100
AcDbLine
 10
7.0
 20
250.0
 30
0.0
 11
10.0
 21
253.0
 31
0.0
  0
LINE
  5
E8
330
34
100
AcDbEntity
  8
ANCON-SUPPORT
100
AcDbLine
 10
7.0
 20
256.0000000000001
 30
0.0
 11
10.0
 21
253.0
 31
0.0
  0
LINE
  5
E9
330
34
100
AcDbEntity
  8
ANCON-CHANNEL
100
AcDbLine
 10
-0.0000000000000284
 20
274.0
 30
0.0
 11
-0.0000000000000284
 21
274.5
 31
0.0
  0
LINE
  5
EA
330
34
100
AcDbEntity
  8
ANCON-CHANNEL
100
AcDbLine
 10
-0.0000000000000284
 20
274.5
 30
0.0
 11
-0.0000000000000284
 21
274.0
 31
0.0
  0
ARC
  5
EB
330
34
100
AcDbEntity
  8
ANCON-CHANNEL
100
AcDbCircle
 10
-4.500000000000028
 20
275.0464181425828
 30
0.0
 40
2.0
100
AcDbArc
 50
0.0
 51
110.2248594311679
  0
LINE
  5
EC
330
34
100
AcDbEntity
  8
ANCON-CHANNEL
100
AcDbLine
 10
-2.500000000000056
 20
274.0
 30
0.0
 11
-2.500000000000028
 21
275.0464181425828
 31
0.0
  0
LINE
  5
ED
330
34
100
AcDbEntity
  8
ANCON-CHANNEL
100
AcDbLine
 10
0.0
 20
274.0
 30
0.0
 11
0.0
 21
275.0464181425828
 31
0.0
  0
LINE
  5
EE
330
34
100
AcDbEntity
  8
ANCON-CHANNEL
100
AcDbLine
 10
-2.500000000000056
 20
274.0
 30
0.0
 11
-0.0000000000000284
 21
274.0
 31
0.0
  0
LINE
  5
EF
330
34
100
AcDbEntity
  8
ANCON-SUPPORT
100
AcDbLine
 10
10.0
 20
271.0
 30
0.0
 11
7.0
 21
268.0
 31
0.0
  0
LINE
  5
F0
330
34
100
AcDbEntity
  8
ANCON-SUPPORT
100
AcDbLine
 10
7.0
 20
274.0
 30
0.0
 11
10.0
 21
277.0
 31
0.0
  0
LINE
  5
F1
330
34
100
AcDbEntity
  8
ANCON-SUPPORT
100
AcDbLine
 10
10.0
 20
271.0
 30
0.0
 11
7.0
 21
274.0
 31
0.0
  0
LINE
  5
F2
330
34
100
AcDbEntity
  8
ANCON-SUPPORT
100
AcDbLine
 10
7.0
 20
268.0
 30
0.0
 11
10.0
 21
265.0
 31
0.0
  0
LINE
  5
F3
330
34
100
AcDbEntity
  8
ANCON-BOLT
100
AcDbLine
 10
23.79612175624959
 20
267.0
 30
0.0
 11
23.79612175624959
 21
261.5556361125003
 31
0.0
  0
LINE
  5
F4
330
34
100
AcDbEntity
  8
ANCON-BOLT
100
AcDbLine
 10
23.79612175624959
 20
274.5065384155611
 30
0.0
 11
23.79612175624959
 21
259.4934615844393
 31
0.0
  0
ARC
  5
F5
330
34
100
AcDbEntity
  8
ANCON-BOLT
100
AcDbCircle
 10
13.81478796250553
 20
267.0000000000005
 30
0.0
 40
9.981333793743797
100
AcDbArc
 50
329.7273586810804
 51
30.27264131891897
  0
LINE
  5
F6
330
34
100
AcDbEntity
  8
ANCON-BOLT
100
AcDbLine
 10
14.72218194374954
 20
274.5065384155611
 30
0.0
 11
14.72218194374954
 21
259.4934615844393
 31
0.0
  0
ARC
  5
F7
330
34
100
AcDbEntity
  8
ANCON-BOLT
100
AcDbCircle
 10
24.70351573749463
 20
267.0000000000005
 30
0.0
 40
9.981333793744667
100
AcDbArc
 50
149.727358681085
 51
210.2726413189181
  0
ARC
  5
F8
330
34
100
AcDbEntity
  8
ANCON-BOLT
100
AcDbCircle
 10
20.8656854509411
 20
259.4934615844388
 30
0.0
 40
2.930436305308636
100
AcDbArc
 50
302.3800650937876
 51
57.61993490621683
  0
ARC
  5
F9
330
34
100
AcDbEntity
  8
ANCON-BOLT
100
AcDbCircle
 10
17.65261824905599
 20
259.4934615844378
 30
0.0
 40
2.930436305306611
100
AcDbArc
 50
122.3800650936792
 51
237.6199349062345
  0
LINE
  5
FA
330
34
100
AcDbEntity
  8
ANCON-BOLT
100
AcDbLine
 10
16.08327291562432
 20
261.9682569626275
 30
0.0
 11
22.4350307843747
 21
261.9682569626275
 31
0.0
  0
LINE
  5
FB
330
34
100
AcDbEntity
  8
ANCON-BOLT
100
AcDbLine
 10
16.08327291561613
 20
257.0186662062508
 30
0.0
 11
22.43503078440369
 21
257.0186662062508
 31
0.0
  0
ARC
  5
FC
330
34
100
AcDbEntity
  8
ANCON-BOLT
100
AcDbCircle
 10
20.8656854509411
 20
274.5065384155617
 30
0.0
 40
2.930436305308463
100
AcDbArc
 50
302.3800650937798
 51
57.6199349062147
  0
ARC
  5
FD
330
34
100
AcDbEntity
  8
ANCON-BOLT
100
AcDbCircle
 10
17.65261824905599
 20
274.5065384155626
 30
0.0
 40
2.930436305306414
100
AcDbArc
 50
122.380065093762
 51
237.619934906323
  0
LINE
  5
FE
330
34
100
AcDbEntity
  8
ANCON-BOLT
100
AcDbLine
 10
16.08327291562955
 20
276.9813337937492
 30
0.0
 11
22.43503078435719
 21
276.9813337937492
 31
0.0
  0
LINE
  5
FF
330
34
100
AcDbEntity
  8
ANCON-BOLT
100
AcDbLine
 10
16.08327291562432
 20
272.0317430373729
 30
0.0
 11
22.4350307843747
 21
272.0317430373729
 31
0.0
  0
LINE
  5
100
330
34
100
AcDbEntity
  8
ANCON-MASONRY
100
AcDbLine
 10
177.4999999999999
 20
0.0
 30
0.0
 11
177.4999999999999
 21
215.0
 31
0.0
  0
LINE
  5
101
330
34
100
AcDbEntity
  8
ANCON-MASONRY
100
AcDbLine
 10
75.00000000000007
 20
0.0
 30
0.0
 11
74.99999999999999
 21
180.4999999999999
 31
0.0
  0
LINE
  5
102
330
34
100
AcDbEntity
  8
ANCON-MASONRY
100
AcDbLine
 10
75.00000000000007
 20
0.0
 30
0.0
 11
177.4999999999999
 21
0.0
 31
0.0
  0
LINE
  5
103
330
34
100
AcDbEntity
  8
ANCON-SUPPORT
100
AcDbLine
 10
155.0
 20
218.0
 30
0.0
 11
155.0
 21
52.99999999999998
 31
0.0
  0
LINE
  5
104
330
34
100
AcDbEntity
  8
ANCON-SUPPORT
100
AcDbLine
 10
104.9999999999997
 20
189.3196539405802
 30
0.0
 11
105.0
 21
52.99999999999998
 31
0.0
  0
LINE
  5
105
330
34
100
AcDbEntity
  8
ANCON-SUPPORT
100
AcDbLine
 10
110.0
 20
189.3196539405803
 30
0.0
 11
110.0
 21
52.99999999999998
 31
0.0
  0
LINE
  5
106
330
34
100
AcDbEntity
  8
ANCON-SUPPORT
100
AcDbLine
 10
150.0
 20
218.0
 30
0.0
 11
150.0
 21
52.99999999999998
 31
0.0
  0
ARC
  5
107
330
34
100
AcDbEntity
  8
ANCON-SUPPORT
100
AcDbCircle
 10
130.0
 20
52.99999999999998
 30
0.0
 40
25.0
100
AcDbArc
 50
180.0
 51
0.0
  0
LINE
  5
108
330
34
100
AcDbEntity
  8
ANCON-TIE
100
AcDbLine
 10
91.14764937863656
 20
115.0880532923828
 30
0.0
 11
105.0
 21
120.0606919769747
 31
0.0
  0
ARC
  5
109
330
34
100
AcDbEntity
  8
ANCON-TIE
100
AcDbCircle
 10
87.769001842569
 20
124.4999999999999
 30
0.0
 40
10.0
100
AcDbArc
 50
270.0
 51
289.7468366054259
  0
ARC
  5
10A
330
34
100
AcDbEntity
  8
ANCON-TIE
100
AcDbCircle
 10
87.769001842569
 20
84.50000000000015
 30
0.0
 40
10.0
100
AcDbArc
 50
70.25316339457408
 51
90.0
  0
ARC
  5
10B
330
34
100
AcDbEntity
  8
ANCON-TIE
100
AcDbCircle
 10
92.24999999999981
 20
104.5000000000001
 30
0.0
 40
5.5
100
AcDbArc
 50
109.7468366054263
 51
250.2531633945735
  0
LINE
  5
10C
330
34
100
AcDbEntity
  8
ANCON-TIE
100
AcDbLine
 10
91.14764937863656
 20
93.91194670761722
 30
0.0
 11
105.0
 21
88.93930802302532
 31
0.0
  0
LINE
  5
10D
330
34
100
AcDbEntity
  8
ANCON-TIE
100
AcDbLine
 10
90.39174385516234
 20
99.3234293108108
 30
0.0
 11
105.0
 21
93.7959810397912
 31
0.0
  0
LINE
  5
10E
330
34
100
AcDbEntity
  8
ANCON-TIE
100
AcDbLine
 10
90.39174385516234
 20
109.6765706891896
 30
0.0
 11
105.0
 21
115.2040189602092
 31
0.0
  0
ARC
  5
10F
330
34
100
AcDbEntity
  8
ANCON-SUPPORT
100
AcDbCircle
 10
130.0
 20
52.99999999999998
 30
0.0
 40
20.0
100
AcDbArc
 50
180.0
 51
0.0
  0
CIRCLE
  5
110
330
34
100
AcDbEntity
  8
ANCON-MASONRY
100
AcDbCircle
 10
130.0
 20
59.99999999999999
 30
0.0
 40
12.5
  0
CIRCLE
  5
111
330
34
100
AcDbEntity
  8
ANCON-SUPPORT
100
AcDbCircle
 10
126.4933573848743
 20
63.72778603810615
 30
0.0
 40
2.5
  0
CIRCLE
  5
112
330
34
100
AcDbEntity
  8
ANCON-SUPPORT
100
AcDbCircle
 10
134.0653528663797
 20
55.48938924323135
 30
0.0
 40
2.5
  0
LINE
  5
113
330
34
100
AcDbEntity
  8
ANCON-TIE
100
AcDbLine
 10
130.3523506213628
 20
115.0880532923828
 30
0.0
 11
114.1286475360675
 21
120.911946707617
 31
0.0
  0
LINE
  5
114
330
34
100
AcDbEntity
  8
ANCON-TIE
100
AcDbLine
 10
130.3523506213628
 20
93.91194670761722
 30
0.0
 11
114.1286475360675
 21
88.08805329238309
 31
0.0
  0
LINE
  5
115
330
34
100
AcDbEntity
  8
ANCON-TIE
100
AcDbLine
 10
131.1082561448372
 20
99.3234293108108
 30
0.0
 11
112.6082561448372
 21
92.32342931081079
 31
0.0
  0
LINE
  5
116
330
34
100
AcDbEntity
  8
ANCON-TIE
100
AcDbLine
 10
131.1082561448372
 20
109.6765706891896
 30
0.0
 11
112.6082561448372
 21
116.6765706891896
 31
0.0
  0
ARC
  5
117
330
34
100
AcDbEntity
  8
ANCON-TIE
100
AcDbCircle
 10
110.7499999999998
 20
97.50000000000015
 30
0.0
 40
5.5
100
AcDbArc
 50
262.1625202369178
 51
289.7468366054265
  0
ARC
  5
118
330
34
100
AcDbEntity
  8
ANCON-TIE
100
AcDbCircle
 10
110.7499999999998
 20
97.50000000000015
 30
0.0
 40
10.0
100
AcDbArc
 50
265.6987776953307
 51
289.7468366054265
  0
ARC
  5
119
330
34
100
AcDbEntity
  8
ANCON-TIE
100
AcDbCircle
 10
110.7499999999998
 20
111.5000000000001
 30
0.0
 40
5.5
100
AcDbArc
 50
70.25316339457353
 51
97.83747976308234
  0
ARC
  5
11A
330
34
100
AcDbEntity
  8
ANCON-TIE
100
AcDbCircle
 10
130.7500000000002
 20
104.4999999999999
 30
0.0
 40
13.0
100
AcDbArc
 50
309.7151372318272
 51
50.28486276817314
  0
ARC
  5
11B
330
34
100
AcDbEntity
  8
ANCON-TIE
100
AcDbCircle
 10
129.2500000000002
 20
104.5000000000001
 30
0.0
 40
5.5
100
AcDbArc
 50
289.7468366054265
 51
70.25316339457463
  0
LINE
  5
11C
330
34
100
AcDbEntity
  8
ANCON-TIE
100
AcDbLine
 10
139.0566238629185
 20
94.50000000000015
 30
0.0
 11
133.7309981574306
 21
94.50000000000015
 31
0.0
  0
ARC
  5
11D
330
34
100
AcDbEntity
  8
ANCON-TIE
100
AcDbCircle
 10
133.7309981574306
 20
84.50000000000015
 30
0.0
 40
10.0
100
AcDbArc
 50
90.0
 51
109.7468366054259
  0
LINE
  5
11E
330
34
100
AcDbEntity
  8
ANCON-TIE
100
AcDbLine
 10
139.0566238629183
 20
114.4999999999998
 30
0.0
 11
133.7309981574306
 21
114.4999999999999
 31
0.0
  0
ARC
  5
11F
330
34
100
AcDbEntity
  8
ANCON-TIE
100
AcDbCircle
 10
133.7309981574306
 20
124.4999999999999
 30
0.0
 40
10.0
100
AcDbArc
 50
250.2531633945739
 51
270.0
  0
ARC
  5
120
330
34
100
AcDbEntity
  8
ANCON-TIE
100
AcDbCircle
 10
110.7499999999998
 20
111.4999999999999
 30
0.0
 40
10.0
100
AcDbArc
 50
70.25316339457353
 51
94.30122230466928
  0
ARC
  5
121
330
34
100
AcDbEntity
  8
ANCON-SUPPORT
100
AcDbCircle
 10
115.0
 20
189.3196539405803
 30
0.0
 40
10.0
100
AcDbArc
 50
116.5649999999879
 51
180.0
  0
LINE
  5
122
330
34
100
AcDbEntity
  8
ANCON-SUPPORT
100
AcDbLine
 10
150.0
 20
222.0
 30
0.0
 11
83.0
 21
222.0
 31
0.0
  0
LINE
  5
123
330
34
100
AcDbEntity
  8
ANCON-SUPPORT
100
AcDbLine
 10
62.5
 20
222.0
 30
0.0
 11
155.0
 21
222.0
 31
0.0
  0
LINE
  5
124
330
34
100
AcDbEntity
  8
ANCON-SUPPORT
100
AcDbLine
 10
62.5
 20
218.0
 30
0.0
 11
155.0
 21
218.0
 31
0.0
  0
LINE
  5
125
330
34
100
AcDbEntity
  8
ANCON-MASONRY
100
AcDbLine
 10
75.00000000000003
 20
225.0
 30
0.0
 11
177.4999999999999
 21
225.0
 31
0.0
  0
LINE
  5
126
330
34
100
AcDbEntity
  8
ANCON-MASONRY
100
AcDbLine
 10
74.99999999999997
 20
213.9999999999999
 30
0.0
 11
74.99999999999997
 21
215.0
 31
0.0
  0
LINE
  5
127
330
34
100
AcDbEntity
  8
ANCON-SUPPORT
100
AcDbLine
 10
47.5
 20
218.0
 30
0.0
 11
55.0
 21
213.0
 31
0.0
  0
LINE
  5
128
330
34
100
AcDbEntity
  8
ANCON-SUPPORT
100
AcDbLine
 10
55.0
 20
213.0
 30
0.0
 11
62.5
 21
218.0
 31
0.0
  0
LINE
  5
129
330
34
100
AcDbEntity
  8
ANCON-SUPPORT
100
AcDbLine
 10
47.5
 20
222.0
 30
0.0
 11
55.0
 21
217.0
 31
0.0
  0
LINE
  5
12A
330
34
100
AcDbEntity
  8
ANCON-SUPPORT
100
AcDbLine
 10
55.0
 20
217.0
 30
0.0
 11
62.5
 21
222.0
 31
0.0
  0
LINE
  5
12B
330
34
100
AcDbEntity
  8
ANCON-BOLT
100
AcDbLine
 10
40.0
 20
271.2270962205056
 30
0.0
 11
40.0
 21
263.0442172975931
 31
0.0
  0
LINE
  5
12C
330
34
100
AcDbEntity
  8
ANCON-BOLT
100
AcDbLine
 10
39.09260601874996
 20
272.1344902017556
 30
0.0
 11
39.09260601874996
 21
262.1368233163431
 31
0.0
  0
LINE
  5
12D
330
34
100
AcDbEntity
  8
ANCON-BOLT
100
AcDbLine
 10
39.09260601874996
 20
262.1368233163431
 30
0.0
 11
40.0
 21
263.0442172975931
 31
0.0
  0
LINE
  5
12E
330
34
100
AcDbEntity
  8
ANCON-BOLT
100
AcDbLine
 10
39.09260601874996
 20
272.1344902017556
 30
0.0
 11
40.0
 21
271.2270962205056
 31
0.0
  0
LINE
  5
12F
330
34
100
AcDbEntity
  8
ANCON-MASONRY
100
AcDbLine
 10
74.99999999999997
 20
215.0
 30
0.0
 11
77.00000000000001
 21
215.0
 31
0.0
  0
CIRCLE
  5
130
330
34
100
AcDbEntity
  8
ANCON-SUPPORT
100
AcDbCircle
 10
126.4933573848743
 20
168.7277860381061
 30
0.0
 40
2.5
  0
CIRCLE
  5
131
330
34
100
AcDbEntity
  8
ANCON-MASONRY
100
AcDbCircle
 10
130.0
 20
165.0
 30
0.0
 40
12.5
  0
CIRCLE
  5
132
330
34
100
AcDbEntity
  8
ANCON-SUPPORT
100
AcDbCircle
 10
134.0653528663797
 20
160.4893892432313
 30
0.0
 40
2.5
  0
LINE
  5
133
330
34
100
AcDbEntity
  8
ANCON-SUPPORT
100
AcDbLine
 10
112.763936017051
 20
193.791791892853
 30
0.0
 11
125.1246157920388
 21
199.9721179795226
 31
0.0
  0
LINE
  5
134
330
34
100
AcDbEntity
  8
ANCON-SUPPORT
100
AcDbLine
 10
110.527872034102
 20
198.2639298451259
 30
0.0
 11
122.8885518090908
 21
204.4442559317959
 31
0.0
  0
ARC
  5
135
330
34
100
AcDbEntity
  8
ANCON-SUPPORT
100
AcDbCircle
 10
115.0
 20
189.3196539405803
 30
0.0
 40
5.0
100
AcDbArc
 50
116.5649999999879
 51
180.0
  0
LINE
  5
136
330
34
100
AcDbEntity
  8
ANCON-SUPPORT
100
AcDbLine
 10
122.8885518090908
 20
204.4442559317959
 30
0.0
 11
125.1246157920388
 21
199.9721179795226
 31
0.0
  0
LINE
  5
137
330
34
100
AcDbEntity
  8
ANCON-MASONRY
100
AcDbLine
 10
144.0
 20
215.0
 30
0.0
 11
150.0
 21
215.0
 31
0.0
  0
LINE
  5
138
330
34
100
AcDbEntity
  8
ANCON-MASONRY
100
AcDbLine
 10
155.0
 20
215.0
 30
0.0
 11
177.4999999999999
 21
215.0
 31
0.0
  0
LINE
  5
139
330
34
100
AcDbEntity
  8
ANCON-SUPPORT
100
AcDbLine
 10
155.0
 20
218.0
 30
0.0
 11
150.0
 21
218.0
 31
0.0
  0
LINE
  5
13A
330
34
100
AcDbEntity
  8
ANCON-SUPPORT
100
AcDbLine
 10
155.0
 20
222.0
 30
0.0
 11
155.0
 21
218.0
 31
0.0
  0
LINE
  5
13B
330
34
100
AcDbEntity
  8
ANCON-TIE
100
AcDbLine
 10
35.00000000000005
 20
518.75
 30
0.0
 11
0.0000000000000004
 21
518.75
 31
0.0
  0
LINE
  5
13C
330
34
100
AcDbEntity
  8
ANCON-TIE
100
AcDbLine
 10
35.00000000000005
 20
521.25
 30
0.0
 11
0.0000000000000004
 21
521.25
 31
0.0
  0
LINE
  5
13D
330
34
100
AcDbEntity
  8
ANCON-CHANNEL
100
AcDbLine
 10
-11.0
 20
570.0
 30
0.0
 11
-11.0
 21
470.0
 31
0.0
  0
LINE
  5
13E
330
34
100
AcDbEntity
  8
ANCON-CHANNEL
100
AcDbLine
 10
0.0000000000000004
 20
570.0
 30
0.0
 11
0.0000000000000004
 21
470.0
 31
0.0
  0
LINE
  5
13F
330
34
100
AcDbEntity
  8
ANCON-CHANNEL
100
AcDbLine
 10
-18.0
 20
570.0
 30
0.0
 11
-18.0
 21
470.0
 31
0.0
  0
LINE
  5
140
330
34
100
AcDbEntity
  8
ANCON-BOLT
100
AcDbLine
 10
14.72218194374954
 20
280.6109097187501
 30
0.0
 11
12.0
 21
280.6109097187501
 31
0.0
  0
LINE
  5
141
330
34
100
AcDbEntity
  8
ANCON-SUPPORT
100
AcDbLine
 10
10.0
 20
295.0
 30
0.0
 11
7.0
 21
298.0
 31
0.0
  0
LINE
  5
142
330
34
100
AcDbEntity
  8
ANCON-SUPPORT
100
AcDbLine
 10
10.0
 20
283.0
 30
0.0
 11
7.0
 21
286.0
 31
0.0
  0
LINE
  5
143
330
34
100
AcDbEntity
  8
ANCON-SUPPORT
100
AcDbLine
 10
7.0
 20
286.0
 30
0.0
 11
10.0
 21
289.0
 31
0.0
  0
LINE
  5
144
330
34
100
AcDbEntity
  8
ANCON-SUPPORT
100
AcDbLine
 10
10.0
 20
295.0
 30
0.0
 11
7.0
 21
292.0
 31
0.0
  0
LINE
  5
145
330
34
100
AcDbEntity
  8
ANCON-SUPPORT
100
AcDbLine
 10
7.0
 20
292.0
 30
0.0
 11
10.0
 21
289.0
 31
0.0
  0
LINE
  5
146
330
34
100
AcDbEntity
  8
ANCON-CHANNEL
100
AcDbLine
 10
12.0
 20
287.0
 30
0.0
 11
8.0
 21
287.0
 31
0.0
  0
LINE
  5
147
330
34
100
AcDbEntity
  8
ANCON-SUPPORT
100
AcDbLine
 10
10.0
 20
283.0
 30
0.0
 11
7.0
 21
280.0
 31
0.0
  0
LINE
  5
148
330
34
100
AcDbEntity
  8
ANCON-SUPPORT
100
AcDbLine
 10
0.0000000000000004
 20
307.0
 30
0.0
 11
10.0
 21
307.0
 31
0.0
  0
LINE
  5
149
330
34
100
AcDbEntity
  8
ANCON-SUPPORT
100
AcDbLine
 10
10.0
 20
307.0
 30
0.0
 11
7.0
 21
304.0
 31
0.0
  0
LINE
  5
14A
330
34
100
AcDbEntity
  8
ANCON-SUPPORT
100
AcDbLine
 10
7.0
 20
304.0
 30
0.0
 11
10.0
 21
301.0
 31
0.0
  0
LINE
  5
14B
330
34
100
AcDbEntity
  8
ANCON-SUPPORT
100
AcDbLine
 10
7.0
 20
298.0
 30
0.0
 11
10.0
 21
301.0
 31
0.0
  0
LINE
  5
14C
330
34
100
AcDbEntity
  8
ANCON-CHANNEL
100
AcDbLine
 10
0.0000000000000004
 20
470.0
 30
0.0
 11
-18.0
 21
470.0
 31
0.0
  0
LINE
  5
14D
330
34
100
AcDbEntity
  8
ANCON-CHANNEL
100
AcDbLine
 10
0.0000000000000004
 20
570.0
 30
0.0
 11
-18.0
 21
570.0
 31
0.0
  0
LINE
  5
14E
330
34
100
AcDbEntity
  8
ANCON-MASONRY
100
AcDbLine
 10
177.5
 20
525.0
 30
0.0
 11
177.5
 21
590.0
 31
0.0
  0
LINE
  5
14F
330
34
100
AcDbEntity
  8
ANCON-MASONRY
100
AcDbLine
 10
75.00000000000006
 20
525.0
 30
0.0
 11
75.00000000000006
 21
590.0
 31
0.0
  0
LINE
  5
150
330
34
100
AcDbEntity
  8
ANCON-MASONRY
100
AcDbLine
 10
177.4999999999999
 20
375.0
 30
0.0
 11
177.4999999999999
 21
440.0
 31
0.0
  0
LINE
  5
151
330
34
100
AcDbEntity
  8
ANCON-MASONRY
100
AcDbLine
 10
75.0
 20
375.0
 30
0.0
 11
75.0
 21
440.0
 31
0.0
  0
LINE
  5
152
330
34
100
AcDbEntity
  8
ANCON-MASONRY
100
AcDbLine
 10
75.0
 20
375.0
 30
0.0
 11
177.4999999999999
 21
375.0
 31
0.0
  0
LINE
  5
153
330
34
100
AcDbEntity
  8
ANCON-MASONRY
100
AcDbLine
 10
75.0
 20
365.0
 30
0.0
 11
177.4999999999999
 21
365.0
 31
0.0
  0
LINE
  5
154
330
34
100
AcDbEntity
  8
ANCON-MASONRY
100
AcDbLine
 10
75.0
 20
300.0
 30
0.0
 11
177.4999999999999
 21
300.0
 31
0.0
  0
LINE
  5
155
330
34
100
AcDbEntity
  8
ANCON-MASONRY
100
AcDbLine
 10
75.0
 20
290.0
 30
0.0
 11
177.4999999999999
 21
290.0
 31
0.0
  0
LINE
  5
156
330
34
100
AcDbEntity
  8
ANCON-MASONRY
100
AcDbLine
 10
75.0
 20
300.0
 30
0.0
 11
75.0
 21
365.0
 31
0.0
  0
LINE
  5
157
330
34
100
AcDbEntity
  8
ANCON-MASONRY
100
AcDbLine
 10
177.4999999999999
 20
300.0
 30
0.0
 11
177.4999999999999
 21
365.0
 31
0.0
  0
LINE
  5
158
330
34
100
AcDbEntity
  8
ANCON-TIE
100
AcDbLine
 10
140.0
 20
518.75
 30
0.0
 11
65.00000000000006
 21
518.75
 31
0.0
  0
LINE
  5
159
330
34
100
AcDbEntity
  8
ANCON-TIE
100
AcDbLine
 10
140.0
 20
521.25
 30
0.0
 11
65.00000000000006
 21
521.25
 31
0.0
  0
LINE
  5
15A
330
34
100
AcDbEntity
  8
ANCON-MASONRY
100
AcDbLine
 10
75.00000000000006
 20
525.0
 30
0.0
 11
177.5
 21
525.0
 31
0.0
  0
LINE
  5
15B
330
34
100
AcDbEntity
  8
ANCON-MASONRY
100
AcDbLine
 10
75.00000000000003
 20
450.0
 30
0.0
 11
177.5
 21
450.0
 31
0.0
  0
LINE
  5
15C
330
34
100
AcDbEntity
  8
ANCON-MASONRY
100
AcDbLine
 10
75.00000000000003
 20
515.0
 30
0.0
 11
177.5
 21
515.0
 31
0.0
  0
LINE
  5
15D
330
34
100
AcDbEntity
  8
ANCON-MASONRY
100
AcDbLine
 10
75.0
 20
440.0
 30
0.0
 11
177.4999999999999
 21
440.0
 31
0.0
  0
LINE
  5
15E
330
34
100
AcDbEntity
  8
ANCON-MASONRY
100
AcDbLine
 10
75.00000000000003
 20
450.0
 30
0.0
 11
75.00000000000003
 21
515.0
 31
0.0
  0
LINE
  5
15F
330
34
100
AcDbEntity
  8
ANCON-TIE
100
AcDbLine
 10
50.00000000000006
 20
514.7499999999999
 30
0.0
 11
65.00000000000006
 21
518.75
 31
0.0
  0
LINE
  5
160
330
34
100
AcDbEntity
  8
ANCON-TIE
100
AcDbLine
 10
50.00000000000006
 20
517.25
 30
0.0
 11
65.00000000000006
 21
521.25
 31
0.0
  0
LINE
  5
161
330
34
100
AcDbEntity
  8
ANCON-TIE
100
AcDbLine
 10
35.00000000000005
 20
518.75
 30
0.0
 11
50.00000000000006
 21
514.7499999999999
 31
0.0
  0
LINE
  5
162
330
34
100
AcDbEntity
  8
ANCON-TIE
100
AcDbLine
 10
35.00000000000005
 20
521.25
 30
0.0
 11
50.00000000000006
 21
517.25
 31
0.0
  0
LINE
  5
163
330
34
100
AcDbEntity
  8
ANCON-MASONRY
100
AcDbLine
 10
177.5
 20
450.0
 30
0.0
 11
177.4999999999999
 21
515.0
 31
0.0
  0
LINE
  5
164
330
34
100
AcDbEntity
  8
ANCON-TIE
100
AcDbLine
 10
140.0
 20
521.25
 30
0.0
 11
140.0
 21
518.75
 31
0.0
  0
ENDBLK
  5
166
330
34
100
AcDbEntity
  8
0
100
AcDbBlockEnd
  0
BLOCK
  5
29B
330
299
100
AcDbEntity
  8
0
100
AcDbBlockBegin
  2
OR
 70
     0
 10
0.0
 20
0.0
 30
0.0
  3
OR
  1

  0
LWPOLYLINE
  5
29A
330
299
100
AcDbEntity
  8
ANCON-ORIGIN
100
AcDbPolyline
 90
        5
 70
     0
 43
0.0
 10
-10.17326135673704
 20
-6.213917405744268
 10
-10.17326135673704
 20
6.213917405744268
 10
10.17326135673704
 20
-6.213917405744268
 10
10.17326135673704
 20
6.213917405744268
 10
-10.17326135673704
 20
-6.213917405744268
  0
ENDBLK
  5
29C
330
299
100
AcDbEntity
  8
0
100
AcDbBlockEnd
  0
BLOCK
  5
2A8
330
2A2
100
AcDbEntity
  8
0
100
AcDbBlockBegin
  2
tieheads
 70
     0
 10
0.0
 20
0.0
 30
0.0
  3
tieheads
  1

  0
INSERT
  5
2A3
330
2A2
100
AcDbEntity
  8
ANCON-ORIGIN
100
AcDbBlockReference
  2
OR
 10
0.0
 20
0.0
 30
0.0
 41
0.9600000000000363
 42
0.9600000000000363
 43
0.9599999999999999
 50
180.0
  0
CIRCLE
  5
2A4
330
2A2
100
AcDbEntity
  8
DANGLE
 62
     1
100
AcDbCircle
 10
-46.99999999999977
 20
0.0
 30
0.0
 40
6.0
  0
LWPOLYLINE
  5
2A5
330
2A2
100
AcDbEntity
  8
DANGLE
 62
     1
100
AcDbPolyline
 90
       12
 70
     0
 43
0.0
 10
0.0
 20
-10.0
 10
-35.99999999999977
 20
-10.0
 42
0.9999999999999998
 10
-40.99999999999977
 20
-10.0
 10
-52.99999999999977
 20
-10.0
 42
0.9999999999999998
 10
-57.99999999999977
 20
-10.0
 10
-71.99999999999954
 20
-10.0
 42
-0.2999999999999987
 10
-71.99999999999977
 20
10.0
 10
-57.99999999999977
 20
10.0
 42
0.9999999999999998
 10
-52.99999999999977
 20
10.0
 10
-40.99999999999977
 20
10.0
 42
0.9999999999999998
 10
-35.99999999999977
 20
10.0
 10
-0.0000000000001137
 20
10.0
  0
CIRCLE
  5
2A6
330
2A2
100
AcDbEntity
  8
DANGLE
 62
     1
100
AcDbCircle
 10
-63.99999999999977
 20
0.0
 30
0.0
 40
6.0
  0
CIRCLE
  5
2A7
330
2A2
100
AcDbEntity
  8
DANGLE
 62
     1
100
AcDbCircle
 10
-29.99999999999977
 20
0.0
 30
0.0
 40
6.0
  0
ENDBLK
  5
2A9
330
2A2
100
AcDbEntity
  8
0
100
AcDbBlockEnd
  0
ENDSEC
  0
SECTION
  2
ENTITIES
  0
TEXT
  5
169
330
1F
100
AcDbEntity
  8
ANCON-TEXT
100
AcDbText
 10
471.7262222998474
 20
494.7098963128497
 30
0.0
 40
9.0
  1
Brackets fixed at 225mm centres.
  7
ROMANS
100
AcDbText
  0
TEXT
  5
16A
330
1F
100
AcDbEntity
  8
ANCON-TEXT
100
AcDbText
 10
471.7262222998474
 20
553.3489408696072
 30
0.0
 40
9.0
  1
and carry 8 kilonewtons load per metre run.
  7
ROMANS
100
AcDbText
  0
TEXT
  5
16B
330
1F
100
AcDbEntity
  8
ANCON-TEXT
100
AcDbText
 10
471.7262222998474
 20
567.9203694410359
 30
0.0
 40
9.0
  1
Ancon Building Products will design a system to suit a 75mm cavity
  7
ROMANS
100
AcDbText
  0
TEXT
  5
16C
330
1F
100
AcDbEntity
  8
ANCON-TEXT
100
AcDbText
 10
471.7262222998474
 20
582.4917980124644
 30
0.0
 40
9.0
  1
cavity width ie. LDB/IS/75
  7
ROMANS
100
AcDbText
  0
TEXT
  5
16D
330
1F
100
AcDbEntity
  8
ANCON-TEXT
100
AcDbText
 10
471.7262222998474
 20
597.063226583893
 30
0.0
 40
9.0
  1
Ancon LDB/IS Systems can be specified by the
  7
ROMANS
100
AcDbText
  0
TEXT
  5
16E
330
1F
100
AcDbEntity
  8
ANCON-TEXT
100
AcDbText
 10
471.7262222998474
 20
509.4401912468444
 30
0.0
 40
9.0
  1
System to support a maximum height of brickwork of 4 metres
  7
ROMANS
100
AcDbText
  0
ARC
  5
16F
330
1F
100
AcDbEntity
  8
ANCON-CHANNEL
100
AcDbCircle
 10
161.4420896064909
 20
411.1037953606722
 30
0.0
 40
4.5
100
AcDbArc
 50
0.0
 51
110.2248594311679
  0
LINE
  5
170
330
1F
100
AcDbEntity
  8
ANCON-SUPPORT
100
AcDbLine
 10
172.9420896064909
 20
416.0573772180894
 30
0.0
 11
175.9420896064909
 21
413.0573772180894
 31
0.0
  0
LINE
  5
171
330
1F
100
AcDbEntity
  8
ANCON-BOLT
100
AcDbLine
 10
180.6642715502405
 20
416.6682869368395
 30
0.0
 11
180.6642715502405
 21
389.4464674993394
 31
0.0
  0
LINE
  5
172
330
1F
100
AcDbEntity
  8
ANCON-BOLT
100
AcDbLine
 10
177.9420896064909
 20
416.6682869368395
 30
0.0
 11
177.9420896064909
 21
389.4464674993394
 31
0.0
  0
LINE
  5
173
330
1F
100
AcDbEntity
  8
ANCON-SUPPORT
100
AcDbLine
 10
165.9420896064909
 20
443.0573772180895
 30
0.0
 11
165.9420896064909
 21
283.0573772180894
 31
0.0
  0
LINE
  5
174
330
1F
100
AcDbEntity
  8
ANCON-CHANNEL
100
AcDbLine
 10
177.9420896064909
 20
383.0573772180894
 30
0.0
 11
177.9420896064909
 21
423.0573772180894
 31
0.0
  0
LINE
  5
175
330
1F
100
AcDbEntity
  8
ANCON-MASONRY
100
AcDbLine
 10
240.942089606491
 20
361.0573772180894
 30
0.0
 11
240.9420896064909
 21
426.0573772180894
 31
0.0
  0
LINE
  5
176
330
1F
100
AcDbEntity
  8
ANCON-MASONRY
100
AcDbLine
 10
343.442089606491
 20
361.0573772180894
 30
0.0
 11
343.442089606491
 21
426.0573772180894
 31
0.0
  0
LINE
  5
177
330
1F
100
AcDbEntity
  8
ANCON-STRUC
100
AcDbLine
 10
165.9420896064909
 20
136.0573772180894
 30
0.0
 11
165.9420896064909
 21
726.0573772180894
 31
0.0
  0
LINE
  5
17A
330
1F
100
AcDbEntity
  8
ANCON-SUPPORT
100
AcDbLine
 10
175.9420896064909
 20
284.0573772180894
 30
0.0
 11
315.9420896064909
 21
354.0573772180894
 31
0.0
  0
LINE
  5
17B
330
1F
100
AcDbEntity
  8
ANCON-SUPPORT
100
AcDbLine
 10
175.9420896064909
 20
317.5573772180894
 30
0.0
 11
248.9420896064909
 21
354.0573772180894
 31
0.0
  0
LINE
  5
17C
330
1F
100
AcDbEntity
  8
ANCON-SUPPORT
100
AcDbLine
 10
175.9420896064908
 20
358.0573772180894
 30
0.0
 11
213.4420896064909
 21
358.0573772180894
 31
0.0
  0
LINE
  5
17D
330
1F
100
AcDbEntity
  8
ANCON-SUPPORT
100
AcDbLine
 10
175.9420896064908
 20
354.0573772180894
 30
0.0
 11
213.4420896064909
 21
354.0573772180894
 31
0.0
  0
LINE
  5
17E
330
1F
100
AcDbEntity
  8
ANCON-BOLT
100
AcDbLine
 10
189.7382113627405
 20
408.191867419845
 30
0.0
 11
205.034695625241
 21
408.191867419845
 31
0.0
  0
LINE
  5
17F
330
1F
100
AcDbEntity
  8
ANCON-BOLT
100
AcDbLine
 10
189.7382113627405
 20
407.2844734385951
 30
0.0
 11
205.9420896064909
 21
407.2844734385951
 31
0.0
  0
LINE
  5
180
330
1F
100
AcDbEntity
  8
ANCON-BOLT
100
AcDbLine
 10
189.7382113627405
 20
398.1942005344325
 30
0.0
 11
205.0346956252409
 21
398.1942005344325
 31
0.0
  0
LINE
  5
181
330
1F
100
AcDbEntity
  8
ANCON-BOLT
100
AcDbLine
 10
189.7382113627405
 20
399.1015945156824
 30
0.0
 11
205.9420896064909
 21
399.1015945156825
 31
0.0
  0
LINE
  5
182
330
1F
100
AcDbEntity
  8
ANCON-STRUC
100
AcDbLine
 10
165.9420896064909
 20
136.0573772180894
 30
0.0
 11
15.93137670566477
 21
136.0573772180894
 31
0.0
  0
LINE
  5
183
330
1F
100
AcDbEntity
  8
ANCON-SUPPORT
100
AcDbLine
 10
175.9420896064908
 20
358.0573772180894
 30
0.0
 11
175.9420896064909
 21
283.0573772180894
 31
0.0
  0
LINE
  5
184
330
1F
100
AcDbEntity
  8
ANCON-BOLT
100
AcDbLine
 10
158.5367766811227
 20
243.5633772180895
 30
0.0
 11
117.4882166811227
 21
243.5633772180896
 31
0.0
  0
LINE
  5
185
330
1F
100
AcDbEntity
  8
ANCON-BOLT
100
AcDbLine
 10
158.5367766811227
 20
237.5225196180897
 30
0.0
 11
117.4882166811227
 21
237.5225196180896
 31
0.0
  0
LINE
  5
186
330
1F
100
AcDbEntity
  8
ANCON-BOLT
100
AcDbLine
 10
101.0486884311466
 20
237.2271084180896
 30
0.0
 11
104.6659684311466
 21
237.2271084180896
 31
0.0
  0
LINE
  5
187
330
1F
100
AcDbEntity
  8
ANCON-BOLT
100
AcDbLine
 10
106.7992757569562
 20
239.6386284180897
 30
0.0
 11
101.0486884311466
 21
239.6386284180897
 31
0.0
  0
LINE
  5
188
330
1F
100
AcDbEntity
  8
ANCON-BOLT
100
AcDbLine
 10
101.0486884311466
 20
243.8587884180896
 30
0.0
 11
104.6659684311466
 21
243.8587884180896
 31
0.0
  0
LINE
  5
189
330
1F
100
AcDbEntity
  8
ANCON-BOLT
100
AcDbLine
 10
106.7992757569562
 20
241.4472684180896
 30
0.0
 11
101.0486884311466
 21
241.4472684180896
 31
0.0
  0
LINE
  5
18A
330
1F
100
AcDbEntity
  8
ANCON-BOLT
100
AcDbLine
 10
101.0486884311466
 20
239.6386284180897
 30
0.0
 11
101.0486884311466
 21
237.2271084180896
 31
0.0
  0
LINE
  5
18B
330
1F
100
AcDbEntity
  8
ANCON-BOLT
100
AcDbLine
 10
95.5855862811228
 20
243.5633772180895
 30
0.0
 11
95.5855862811228
 21
237.5225196180901
 31
0.0
  0
LINE
  5
18C
330
1F
100
AcDbEntity
  8
ANCON-BOLT
100
AcDbLine
 10
94.9815005211227
 20
243.5633772180895
 30
0.0
 11
94.9815005211227
 21
237.5225196180896
 31
0.0
  0
LINE
  5
18D
330
1F
100
AcDbEntity
  8
ANCON-BOLT
100
AcDbLine
 10
94.5787766811228
 20
243.1606533780896
 30
0.0
 11
94.5787766811228
 21
237.9252434580897
 31
0.0
  0
LINE
  5
18E
330
1F
100
AcDbEntity
  8
ANCON-BOLT
100
AcDbLine
 10
95.5855862811228
 20
237.5225196180901
 30
0.0
 11
101.0486884311466
 21
237.8300239327598
 31
0.0
  0
LINE
  5
18F
330
1F
100
AcDbEntity
  8
ANCON-BOLT
100
AcDbLine
 10
95.5855862811228
 20
237.5225196180896
 30
0.0
 11
94.9815005211227
 21
237.5225196180896
 31
0.0
  0
LINE
  5
190
330
1F
100
AcDbEntity
  8
ANCON-BOLT
100
AcDbLine
 10
94.5787766811228
 20
237.9252434580897
 30
0.0
 11
94.9815005211227
 21
237.5225196180896
 31
0.0
  0
LINE
  5
191
330
1F
100
AcDbEntity
  8
ANCON-BOLT
100
AcDbLine
 10
95.5855862811228
 20
243.5633772180896
 30
0.0
 11
101.0486884311466
 21
243.2558729034198
 31
0.0
  0
LINE
  5
192
330
1F
100
AcDbEntity
  8
ANCON-BOLT
100
AcDbLine
 10
95.5855862811228
 20
243.5633772180896
 30
0.0
 11
94.9815005211227
 21
243.5633772180896
 31
0.0
  0
LINE
  5
193
330
1F
100
AcDbEntity
  8
ANCON-BOLT
100
AcDbLine
 10
94.9815005211227
 20
243.5633772180895
 30
0.0
 11
94.5787766811228
 21
243.1606533780896
 31
0.0
  0
LINE
  5
194
330
1F
100
AcDbEntity
  8
ANCON-BOLT
100
AcDbLine
 10
101.0486884311466
 20
243.8587884180896
 30
0.0
 11
101.0486884311466
 21
241.4472684180896
 31
0.0
  0
LINE
  5
195
330
1F
100
AcDbEntity
  8
ANCON-BOLT
100
AcDbLine
 10
114.9149284311466
 20
239.6386284180897
 30
0.0
 11
114.9149284311466
 21
237.2271084180896
 31
0.0
  0
LINE
  5
196
330
1F
100
AcDbEntity
  8
ANCON-BOLT
100
AcDbLine
 10
111.2976484311466
 20
237.2271084180896
 30
0.0
 11
114.9149284311466
 21
237.2271084180896
 31
0.0
  0
LINE
  5
197
330
1F
100
AcDbEntity
  8
ANCON-BOLT
100
AcDbLine
 10
104.6659684311466
 20
236.9256684180896
 30
0.0
 11
111.2976484311466
 21
236.9256684180896
 31
0.0
  0
LINE
  5
198
330
1F
100
AcDbEntity
  8
ANCON-BOLT
100
AcDbLine
 10
104.6659684311466
 20
236.9256684180896
 30
0.0
 11
104.6659684311466
 21
237.2271084180896
 31
0.0
  0
LINE
  5
199
330
1F
100
AcDbEntity
  8
ANCON-BOLT
100
AcDbLine
 10
111.2976484311466
 20
236.9256684180896
 30
0.0
 11
111.2976484311466
 21
237.2271084180896
 31
0.0
  0
LINE
  5
19A
330
1F
100
AcDbEntity
  8
ANCON-BOLT
100
AcDbLine
 10
112.2019684311466
 20
239.6386284180897
 30
0.0
 11
114.9149284311466
 21
239.6386284180897
 31
0.0
  0
LINE
  5
19B
330
1F
100
AcDbEntity
  8
ANCON-BOLT
100
AcDbLine
 10
111.2976484311466
 20
243.8587884180896
 30
0.0
 11
114.9149284311466
 21
243.8587884180896
 31
0.0
  0
LINE
  5
19C
330
1F
100
AcDbEntity
  8
ANCON-BOLT
100
AcDbLine
 10
112.2019684311466
 20
241.4472684180896
 30
0.0
 11
114.9149284311466
 21
241.4472684180896
 31
0.0
  0
ARC
  5
19D
330
1F
100
AcDbEntity
  8
ANCON-BOLT
100
AcDbCircle
 10
112.2019684311466
 20
240.5429484180896
 30
0.0
 40
0.9043200000000002
100
AcDbArc
 50
90.0
 51
270.0
  0
ARC
  5
19E
330
1F
100
AcDbEntity
  8
ANCON-BOLT
100
AcDbCircle
 10
106.7992757569562
 20
240.5429484180896
 30
0.0
 40
0.9043200000000002
100
AcDbArc
 50
270.0
 51
90.0
  0
LINE
  5
19F
330
1F
100
AcDbEntity
  8
ANCON-BOLT
100
AcDbLine
 10
104.6659684311466
 20
244.1602284180896
 30
0.0
 11
111.2976484311466
 21
244.1602284180896
 31
0.0
  0
LINE
  5
1A0
330
1F
100
AcDbEntity
  8
ANCON-BOLT
100
AcDbLine
 10
104.6659684311466
 20
243.8587884180896
 30
0.0
 11
104.6659684311466
 21
244.1602284180896
 31
0.0
  0
LINE
  5
1A1
330
1F
100
AcDbEntity
  8
ANCON-BOLT
100
AcDbLine
 10
111.2976484311466
 20
243.8587884180896
 30
0.0
 11
111.2976484311466
 21
244.1602284180896
 31
0.0
  0
LINE
  5
1A2
330
1F
100
AcDbEntity
  8
ANCON-BOLT
100
AcDbLine
 10
117.4882166811227
 20
237.5225196180896
 30
0.0
 11
117.4882166811227
 21
243.5633772180896
 31
0.0
  0
LINE
  5
1A3
330
1F
100
AcDbEntity
  8
ANCON-BOLT
100
AcDbLine
 10
117.4882166811227
 20
237.8239596180896
 30
0.0
 11
114.9149284311466
 21
237.8239596180896
 31
0.0
  0
LINE
  5
1A4
330
1F
100
AcDbEntity
  8
ANCON-BOLT
100
AcDbLine
 10
114.9149284311466
 20
243.8587884180896
 30
0.0
 11
114.9149284311466
 21
241.4472684180896
 31
0.0
  0
LINE
  5
1A5
330
1F
100
AcDbEntity
  8
ANCON-BOLT
100
AcDbLine
 10
117.4882166811227
 20
243.2619372180896
 30
0.0
 11
114.9149284311466
 21
243.2619372180896
 31
0.0
  0
LINE
  5
1A6
330
1F
100
AcDbEntity
  8
ANCON-BOLT
100
AcDbLine
 10
158.5367766811227
 20
238.3028772180894
 30
0.0
 11
165.9420896064909
 21
238.3028772180894
 31
0.0
  0
LINE
  5
1A7
330
1F
100
AcDbEntity
  8
ANCON-BOLT
100
AcDbLine
 10
158.5367766811227
 20
237.8028772180894
 30
0.0
 11
165.9420896064909
 21
237.8028772180894
 31
0.0
  0
LINE
  5
1A8
330
1F
100
AcDbEntity
  8
ANCON-BOLT
100
AcDbLine
 10
158.5367766811227
 20
242.8118772180894
 30
0.0
 11
165.9420896064909
 21
242.8118772180894
 31
0.0
  0
LINE
  5
1A9
330
1F
100
AcDbEntity
  8
ANCON-BOLT
100
AcDbLine
 10
158.5367766811227
 20
243.3118772180894
 30
0.0
 11
165.9420896064909
 21
243.3118772180894
 31
0.0
  0
LINE
  5
1AA
330
1F
100
AcDbEntity
  8
ANCON-BOLT
100
AcDbLine
 10
158.5367766811227
 20
243.5633772180895
 30
0.0
 11
158.5367766811227
 21
237.5225196180897
 31
0.0
  0
LINE
  5
1AB
330
1F
100
AcDbEntity
  8
ANCON-BOLT
100
AcDbLine
 10
174.9669943573368
 20
238.3028772180894
 30
0.0
 11
179.5787766811226
 21
238.3028772180894
 31
0.0
  0
LINE
  5
1AC
330
1F
100
AcDbEntity
  8
ANCON-BOLT
100
AcDbLine
 10
174.9669943573368
 20
237.8028772180894
 30
0.0
 11
179.0787766811227
 21
237.8028772180894
 31
0.0
  0
LINE
  5
1AD
330
1F
100
AcDbEntity
  8
ANCON-BOLT
100
AcDbLine
 10
174.9669943573368
 20
242.8118772180894
 30
0.0
 11
179.5787766811228
 21
242.8118772180894
 31
0.0
  0
LINE
  5
1AE
330
1F
100
AcDbEntity
  8
ANCON-BOLT
100
AcDbLine
 10
174.9669943573368
 20
243.3118772180894
 30
0.0
 11
179.0787766811227
 21
243.3118772180894
 31
0.0
  0
LINE
  5
1AF
330
1F
100
AcDbEntity
  8
ANCON-BOLT
100
AcDbLine
 10
170.0452896064911
 20
244.4586732498714
 30
0.0
 11
170.0452896064911
 21
236.6560811863075
 31
0.0
  0
LINE
  5
1B0
330
1F
100
AcDbEntity
  8
ANCON-BOLT
100
AcDbLine
 10
174.9669943573368
 20
244.4586732498714
 30
0.0
 11
174.9669943573368
 21
236.6560811863075
 31
0.0
  0
LINE
  5
1B1
330
1F
100
AcDbEntity
  8
ANCON-TIE
100
AcDbLine
 10
165.9420896064909
 20
230.5573772180894
 30
0.0
 11
165.9420896064909
 21
250.5573772180893
 31
0.0
  0
LINE
  5
1B2
330
1F
100
AcDbEntity
  8
ANCON-TIE
100
AcDbLine
 10
168.4420896064909
 20
230.5573772180894
 30
0.0
 11
168.4420896064909
 21
250.5573772180893
 31
0.0
  0
LINE
  5
1B3
330
1F
100
AcDbEntity
  8
ANCON-BOLT
100
AcDbLine
 10
170.0452896064911
 20
246.8198772180894
 30
0.0
 11
170.0452896064909
 21
234.2948772180894
 31
0.0
  0
LINE
  5
1B4
330
1F
100
AcDbEntity
  8
ANCON-BOLT
100
AcDbLine
 10
168.4420896064909
 20
246.8198772180894
 30
0.0
 11
168.4420896064909
 21
234.2948772180894
 31
0.0
  0
ARC
  5
1B5
330
1F
100
AcDbEntity
  8
ANCON-BOLT
100
AcDbCircle
 10
171.5503781901962
 20
236.6560811863075
 30
0.0
 40
1.505088583704951
100
AcDbArc
 50
120.0459147637484
 51
239.9540852362646
  0
ARC
  5
1B6
330
1F
100
AcDbEntity
  8
ANCON-BOLT
100
AcDbCircle
 10
173.4249510227862
 20
236.6560811863075
 30
0.0
 40
1.505088583704951
100
AcDbArc
 50
300.0459147637353
 51
59.95408523625155
  0
LINE
  5
1B7
330
1F
100
AcDbEntity
  8
ANCON-BOLT
100
AcDbLine
 10
168.4420896064909
 20
234.2948772180894
 30
0.0
 11
170.0452896064909
 21
234.2948772180894
 31
0.0
  0
LINE
  5
1B8
330
1F
100
AcDbEntity
  8
ANCON-BOLT
100
AcDbLine
 10
170.796789606491
 20
235.3532397180894
 30
0.0
 11
174.178539606491
 21
235.3532397180894
 31
0.0
  0
LINE
  5
1B9
330
1F
100
AcDbEntity
  8
ANCON-BOLT
100
AcDbLine
 10
168.4420896064909
 20
246.8198772180894
 30
0.0
 11
170.0452896064909
 21
246.8198772180894
 31
0.0
  0
ARC
  5
1BA
330
1F
100
AcDbEntity
  8
ANCON-BOLT
100
AcDbCircle
 10
174.9133657002413
 20
240.5573772180893
 30
0.0
 40
4.868076093749946
100
AcDbArc
 50
147.7391653073655
 51
212.2608346926344
  0
ARC
  5
1BB
330
1F
100
AcDbEntity
  8
ANCON-BOLT
100
AcDbCircle
 10
171.5503781901959
 20
244.4586732498715
 30
0.0
 40
1.505088583704906
100
AcDbArc
 50
120.0459147637353
 51
239.9540852362646
  0
ARC
  5
1BC
330
1F
100
AcDbEntity
  8
ANCON-BOLT
100
AcDbCircle
 10
170.0619635127411
 20
240.5573772180893
 30
0.0
 40
4.868076093749946
100
AcDbArc
 50
327.7391653073656
 51
32.2608346926344
  0
LINE
  5
1BD
330
1F
100
AcDbEntity
  8
ANCON-BOLT
100
AcDbLine
 10
170.796789606491
 20
237.9589226545254
 30
0.0
 11
174.1785396064914
 21
237.9589226545254
 31
0.0
  0
LINE
  5
1BE
330
1F
100
AcDbEntity
  8
ANCON-BOLT
100
AcDbLine
 10
170.796789606491
 20
245.7615147180896
 30
0.0
 11
174.1785396064914
 21
245.7615147180896
 31
0.0
  0
LINE
  5
1BF
330
1F
100
AcDbEntity
  8
ANCON-BOLT
100
AcDbLine
 10
170.7967896064909
 20
243.1558317816533
 30
0.0
 11
174.1785396064912
 21
243.1558317816533
 31
0.0
  0
ARC
  5
1C0
330
1F
100
AcDbEntity
  8
ANCON-BOLT
100
AcDbCircle
 10
173.4249510227862
 20
244.4586732498714
 30
0.0
 40
1.505088583704951
100
AcDbArc
 50
300.0459147637484
 51
59.95408523626467
  0
LINE
  5
1C1
330
1F
100
AcDbEntity
  8
ANCON-BOLT
100
AcDbLine
 10
179.5787766811228
 20
242.8118772180894
 30
0.0
 11
179.5787766811228
 21
238.3028772180894
 31
0.0
  0
LINE
  5
1C2
330
1F
100
AcDbEntity
  8
ANCON-BOLT
100
AcDbLine
 10
179.0787766811227
 20
243.3118772180894
 30
0.0
 11
179.0787766811227
 21
237.8028772180894
 31
0.0
  0
LINE
  5
1C3
330
1F
100
AcDbEntity
  8
ANCON-BOLT
100
AcDbLine
 10
179.0787766811227
 20
237.8028772180894
 30
0.0
 11
179.5787766811228
 21
238.3028772180894
 31
0.0
  0
LINE
  5
1C4
330
1F
100
AcDbEntity
  8
ANCON-BOLT
100
AcDbLine
 10
179.0787766811227
 20
243.3118772180894
 30
0.0
 11
179.5787766811228
 21
242.8118772180894
 31
0.0
  0
LINE
  5
1C5
330
1F
100
AcDbEntity
  8
ANCON-SUPPORT
100
AcDbLine
 10
165.9420896064909
 20
283.0573772180894
 30
0.0
 11
175.9420896064909
 21
283.0573772180894
 31
0.0
  0
LINE
  5
1C6
330
1F
100
AcDbEntity
  8
ANCON-CHANNEL
100
AcDbLine
 10
146.9420896064909
 20
408.8141592271266
 30
0.0
 11
82.44208960649102
 21
408.8141592271266
 31
0.0
  0
LINE
  5
1C7
330
1F
100
AcDbEntity
  8
ANCON-CHANNEL
100
AcDbLine
 10
146.9420896064909
 20
397.3005952090521
 30
0.0
 11
82.44208960649094
 21
397.3005952090521
 31
0.0
  0
LINE
  5
1C8
330
1F
100
AcDbEntity
  8
ANCON-CHANNEL
100
AcDbLine
 10
82.44208960649094
 20
397.3005952090521
 30
0.0
 11
82.44208960649094
 21
408.8141592271266
 31
0.0
  0
LINE
  5
1C9
330
1F
100
AcDbEntity
  8
ANCON-CHANNEL
100
AcDbLine
 10
96.5654086289496
 20
397.3005952090521
 30
0.0
 11
96.5654086289496
 21
399.2617034381511
 31
0.0
  0
LINE
  5
1CA
330
1F
100
AcDbEntity
  8
ANCON-CHANNEL
100
AcDbLine
 10
97.56540862894965
 20
397.3005952090521
 30
0.0
 11
97.5654086289496
 21
399.2149809270725
 31
0.0
  0
LINE
  5
1CB
330
1F
100
AcDbEntity
  8
ANCON-CHANNEL
100
AcDbLine
 10
97.5654086289496
 20
404.5412341672657
 30
0.0
 11
97.5654086289496
 21
406.5502594155262
 31
0.0
  0
LINE
  5
1CC
330
1F
100
AcDbEntity
  8
ANCON-CHANNEL
100
AcDbLine
 10
96.5654086289496
 20
404.2141834813476
 30
0.0
 11
96.5654086289496
 21
406.3633735061911
 31
0.0
  0
LINE
  5
1CD
330
1F
100
AcDbEntity
  8
ANCON-CHANNEL
100
AcDbLine
 10
95.5654086289496
 20
403.1395891580891
 30
0.0
 11
95.5654086289496
 21
404.8682848531838
 31
0.0
  0
LINE
  5
1CE
330
1F
100
AcDbEntity
  8
ANCON-CHANNEL
100
AcDbLine
 10
95.5654086289496
 20
405.5223862250199
 30
0.0
 11
95.5654086289496
 21
408.8141592271266
 31
0.0
  0
LINE
  5
1CF
330
1F
100
AcDbEntity
  8
ANCON-CHANNEL
100
AcDbLine
 10
96.5654086289496
 20
399.9158034316607
 30
0.0
 11
96.5654086289496
 21
403.7469680188466
 31
0.0
  0
LINE
  5
1D0
330
1F
100
AcDbEntity
  8
ANCON-CHANNEL
100
AcDbLine
 10
95.5654086289496
 20
400.3362977614096
 30
0.0
 11
95.5654086289496
 21
402.5322089190052
 31
0.0
  0
LINE
  5
1D1
330
1F
100
AcDbEntity
  8
ANCON-CHANNEL
100
AcDbLine
 10
97.5654086289496
 20
400.6166273145756
 30
0.0
 11
97.5654086289496
 21
403.7469680188466
 31
0.0
  0
LINE
  5
1D2
330
1F
100
AcDbEntity
  8
ANCON-CHANNEL
100
AcDbLine
 10
107.6108023924089
 20
397.3005952090521
 30
0.0
 11
107.6108023924088
 21
399.2149809270725
 31
0.0
  0
LINE
  5
1D3
330
1F
100
AcDbEntity
  8
ANCON-CHANNEL
100
AcDbLine
 10
106.6108023924088
 20
397.3005952090521
 30
0.0
 11
106.6108023924088
 21
399.2617034381511
 31
0.0
  0
LINE
  5
1D4
330
1F
100
AcDbEntity
  8
ANCON-CHANNEL
100
AcDbLine
 10
116.6561961558682
 20
397.3005952090521
 30
0.0
 11
116.6561961558681
 21
399.2617034381511
 31
0.0
  0
LINE
  5
1D5
330
1F
100
AcDbEntity
  8
ANCON-CHANNEL
100
AcDbLine
 10
117.6561961558682
 20
397.3005952090521
 30
0.0
 11
117.6561961558681
 21
399.2149809270725
 31
0.0
  0
LINE
  5
1D6
330
1F
100
AcDbEntity
  8
ANCON-CHANNEL
100
AcDbLine
 10
106.6108023924088
 20
404.2141834813476
 30
0.0
 11
106.6108023924088
 21
406.3633735061911
 31
0.0
  0
LINE
  5
1D7
330
1F
100
AcDbEntity
  8
ANCON-CHANNEL
100
AcDbLine
 10
107.6108023924088
 20
404.5412341672657
 30
0.0
 11
107.6108023924088
 21
406.5502594155262
 31
0.0
  0
LINE
  5
1D8
330
1F
100
AcDbEntity
  8
ANCON-CHANNEL
100
AcDbLine
 10
105.6108023924088
 20
403.1395891580891
 30
0.0
 11
105.6108023924088
 21
404.8682848531838
 31
0.0
  0
LINE
  5
1D9
330
1F
100
AcDbEntity
  8
ANCON-CHANNEL
100
AcDbLine
 10
105.6108023924088
 20
405.5223862250199
 30
0.0
 11
105.6108023924088
 21
409.0641960107793
 31
0.0
  0
LINE
  5
1DA
330
1F
100
AcDbEntity
  8
ANCON-CHANNEL
100
AcDbLine
 10
106.6108023924088
 20
399.9158034316607
 30
0.0
 11
106.6108023924088
 21
403.7469680188466
 31
0.0
  0
LINE
  5
1DB
330
1F
100
AcDbEntity
  8
ANCON-CHANNEL
100
AcDbLine
 10
105.6108023924088
 20
400.3362977614096
 30
0.0
 11
105.6108023924088
 21
402.5322089190052
 31
0.0
  0
LINE
  5
1DC
330
1F
100
AcDbEntity
  8
ANCON-CHANNEL
100
AcDbLine
 10
107.6108023924088
 20
400.6166273145756
 30
0.0
 11
107.6108023924088
 21
403.7469680188466
 31
0.0
  0
LINE
  5
1DD
330
1F
100
AcDbEntity
  8
ANCON-CHANNEL
100
AcDbLine
 10
117.6561961558681
 20
404.5412341672657
 30
0.0
 11
117.6561961558681
 21
406.5502594155262
 31
0.0
  0
LINE
  5
1DE
330
1F
100
AcDbEntity
  8
ANCON-CHANNEL
100
AcDbLine
 10
116.6561961558681
 20
404.2141834813476
 30
0.0
 11
116.6561961558681
 21
406.3633735061911
 31
0.0
  0
LINE
  5
1DF
330
1F
100
AcDbEntity
  8
ANCON-CHANNEL
100
AcDbLine
 10
115.6561961558681
 20
403.1395891580891
 30
0.0
 11
115.6561961558681
 21
404.8682848531838
 31
0.0
  0
LINE
  5
1E0
330
1F
100
AcDbEntity
  8
ANCON-CHANNEL
100
AcDbLine
 10
115.6561961558681
 20
405.5223862250199
 30
0.0
 11
115.6561961558681
 21
409.0641960107793
 31
0.0
  0
LINE
  5
1E1
330
1F
100
AcDbEntity
  8
ANCON-CHANNEL
100
AcDbLine
 10
116.6561961558681
 20
399.9158034316607
 30
0.0
 11
116.6561961558681
 21
403.7469680188466
 31
0.0
  0
LINE
  5
1E2
330
1F
100
AcDbEntity
  8
ANCON-CHANNEL
100
AcDbLine
 10
115.6561961558681
 20
400.3362977614096
 30
0.0
 11
115.6561961558681
 21
402.5322089190052
 31
0.0
  0
LINE
  5
1E3
330
1F
100
AcDbEntity
  8
ANCON-CHANNEL
100
AcDbLine
 10
117.6561961558681
 20
400.6166273145756
 30
0.0
 11
117.6561961558681
 21
403.7469680188466
 31
0.0
  0
LINE
  5
1E4
330
1F
100
AcDbEntity
  8
ANCON-SUPPORT
100
AcDbLine
 10
175.9420896064909
 20
319.5573772180894
 30
0.0
 11
175.9420896064909
 21
353.0573772180894
 31
0.0
  0
LINE
  5
1E5
330
1F
100
AcDbEntity
  8
ANCON-CHANNEL
100
AcDbLine
 10
149.4420896064909
 20
408.8141592271266
 30
0.0
 11
160.7506788888362
 21
412.9804815943065
 31
0.0
  0
ARC
  5
1E6
330
1F
100
AcDbEntity
  8
ANCON-CHANNEL
100
AcDbCircle
 10
161.442089606491
 20
395.0109590755065
 30
0.0
 40
4.5
100
AcDbArc
 50
249.775140568832
 51
0.0
  0
LINE
  5
1E7
330
1F
100
AcDbEntity
  8
ANCON-CHANNEL
100
AcDbLine
 10
160.7506788888362
 20
393.1342728418722
 30
0.0
 11
149.4420896064909
 21
397.3005952090521
 31
0.0
  0
LINE
  5
1E8
330
1F
100
AcDbEntity
  8
ANCON-CHANNEL
100
AcDbLine
 10
127.7015899193275
 20
397.3005952090521
 30
0.0
 11
127.7015899193274
 21
399.2149809270725
 31
0.0
  0
LINE
  5
1E9
330
1F
100
AcDbEntity
  8
ANCON-CHANNEL
100
AcDbLine
 10
126.7015899193274
 20
397.3005952090521
 30
0.0
 11
126.7015899193274
 21
399.2617034381511
 31
0.0
  0
LINE
  5
1EA
330
1F
100
AcDbEntity
  8
ANCON-CHANNEL
100
AcDbLine
 10
137.7469836827867
 20
397.3005952090521
 30
0.0
 11
137.7469836827867
 21
399.2149809270725
 31
0.0
  0
LINE
  5
1EB
330
1F
100
AcDbEntity
  8
ANCON-CHANNEL
100
AcDbLine
 10
136.7469836827867
 20
397.3005952090521
 30
0.0
 11
136.7469836827867
 21
399.2617034381511
 31
0.0
  0
LINE
  5
1EC
330
1F
100
AcDbEntity
  8
ANCON-CHANNEL
100
AcDbLine
 10
127.7015899193274
 20
404.5412341672657
 30
0.0
 11
127.7015899193274
 21
406.5502594155262
 31
0.0
  0
LINE
  5
1ED
330
1F
100
AcDbEntity
  8
ANCON-CHANNEL
100
AcDbLine
 10
126.7015899193274
 20
404.2141834813476
 30
0.0
 11
126.7015899193274
 21
406.3633735061911
 31
0.0
  0
LINE
  5
1EE
330
1F
100
AcDbEntity
  8
ANCON-CHANNEL
100
AcDbLine
 10
125.7015899193274
 20
403.1395891580891
 30
0.0
 11
125.7015899193274
 21
404.8682848531838
 31
0.0
  0
LINE
  5
1EF
330
1F
100
AcDbEntity
  8
ANCON-CHANNEL
100
AcDbLine
 10
125.7015899193274
 20
405.5223862250199
 30
0.0
 11
125.7015899193274
 21
408.8141592271266
 31
0.0
  0
LINE
  5
1F0
330
1F
100
AcDbEntity
  8
ANCON-CHANNEL
100
AcDbLine
 10
126.7015899193274
 20
399.9158034316607
 30
0.0
 11
126.7015899193274
 21
403.7469680188466
 31
0.0
  0
LINE
  5
1F1
330
1F
100
AcDbEntity
  8
ANCON-CHANNEL
100
AcDbLine
 10
125.7015899193274
 20
400.3362977614096
 30
0.0
 11
125.7015899193274
 21
402.5322089190052
 31
0.0
  0
LINE
  5
1F2
330
1F
100
AcDbEntity
  8
ANCON-CHANNEL
100
AcDbLine
 10
127.7015899193274
 20
400.6166273145756
 30
0.0
 11
127.7015899193274
 21
403.7469680188466
 31
0.0
  0
LINE
  5
1F3
330
1F
100
AcDbEntity
  8
ANCON-CHANNEL
100
AcDbLine
 10
135.7469836827867
 20
403.1395891580891
 30
0.0
 11
135.7469836827867
 21
404.8682848531838
 31
0.0
  0
LINE
  5
1F4
330
1F
100
AcDbEntity
  8
ANCON-CHANNEL
100
AcDbLine
 10
135.7469836827867
 20
405.5223862250199
 30
0.0
 11
135.7469836827867
 21
409.0641960107793
 31
0.0
  0
LINE
  5
1F5
330
1F
100
AcDbEntity
  8
ANCON-CHANNEL
100
AcDbLine
 10
137.7469836827867
 20
404.5412341672657
 30
0.0
 11
137.7469836827867
 21
406.5502594155262
 31
0.0
  0
LINE
  5
1F6
330
1F
100
AcDbEntity
  8
ANCON-CHANNEL
100
AcDbLine
 10
136.7469836827867
 20
404.2141834813476
 30
0.0
 11
136.7469836827867
 21
406.3633735061911
 31
0.0
  0
LINE
  5
1F7
330
1F
100
AcDbEntity
  8
ANCON-CHANNEL
100
AcDbLine
 10
135.7469836827867
 20
400.3362977614096
 30
0.0
 11
135.7469836827867
 21
402.5322089190052
 31
0.0
  0
LINE
  5
1F8
330
1F
100
AcDbEntity
  8
ANCON-CHANNEL
100
AcDbLine
 10
136.7469836827867
 20
399.9158034316607
 30
0.0
 11
136.7469836827867
 21
403.7469680188466
 31
0.0
  0
LINE
  5
1F9
330
1F
100
AcDbEntity
  8
ANCON-CHANNEL
100
AcDbLine
 10
137.7469836827867
 20
400.6166273145756
 30
0.0
 11
137.7469836827867
 21
403.7469680188466
 31
0.0
  0
LINE
  5
1FA
330
1F
100
AcDbEntity
  8
ANCON-CHANNEL
100
AcDbLine
 10
149.4420896064909
 20
397.3005952090521
 30
0.0
 11
149.4420896064909
 21
408.8141592271266
 31
0.0
  0
LINE
  5
1FB
330
1F
100
AcDbEntity
  8
ANCON-CHANNEL
100
AcDbLine
 10
152.4420896064909
 20
397.3005952090521
 30
0.0
 11
152.4420896064909
 21
408.8141592271266
 31
0.0
  0
LINE
  5
1FC
330
1F
100
AcDbEntity
  8
ANCON-CHANNEL
100
AcDbLine
 10
146.9420896064909
 20
403.0573772180893
 30
0.0
 11
146.9420896064909
 21
397.3005952090521
 31
0.0
  0
LINE
  5
1FD
330
1F
100
AcDbEntity
  8
ANCON-CHANNEL
100
AcDbLine
 10
149.4420896064909
 20
397.3005952090521
 30
0.0
 11
152.4420896064909
 21
397.3005952090521
 31
0.0
  0
LINE
  5
1FE
330
1F
100
AcDbEntity
  8
ANCON-CHANNEL
100
AcDbLine
 10
159.8864154917679
 20
390.7884150498294
 30
0.0
 11
148.5778262094225
 21
394.9547374170093
 31
0.0
  0
ARC
  5
1FF
330
1F
100
AcDbEntity
  8
ANCON-CHANNEL
100
AcDbCircle
 10
149.4420896064909
 20
397.3005952090521
 30
0.0
 40
2.5
100
AcDbArc
 50
180.0
 51
249.775140568832
  0
LINE
  5
200
330
1F
100
AcDbEntity
  8
ANCON-CHANNEL
100
AcDbLine
 10
149.4420896064909
 20
408.8141592271266
 30
0.0
 11
152.4420896064909
 21
408.8141592271266
 31
0.0
  0
LINE
  5
201
330
1F
100
AcDbEntity
  8
ANCON-CHANNEL
100
AcDbLine
 10
148.5778262094225
 20
411.1600170191694
 30
0.0
 11
159.8864154917678
 21
415.3263393863492
 31
0.0
  0
LINE
  5
202
330
1F
100
AcDbEntity
  8
ANCON-CHANNEL
100
AcDbLine
 10
146.9420896064909
 20
403.0573772180893
 30
0.0
 11
146.9420896064909
 21
408.8141592271266
 31
0.0
  0
ARC
  5
203
330
1F
100
AcDbEntity
  8
ANCON-CHANNEL
100
AcDbCircle
 10
149.4420896064909
 20
408.8141592271266
 30
0.0
 40
2.5
100
AcDbArc
 50
110.2248594311679
 51
180.0
  0
LINE
  5
204
330
1F
100
AcDbEntity
  8
ANCON-SUPPORT
100
AcDbLine
 10
175.9420896064909
 20
383.0573772180895
 30
0.0
 11
172.9420896064909
 21
386.0573772180895
 31
0.0
  0
LINE
  5
205
330
1F
100
AcDbEntity
  8
ANCON-SUPPORT
100
AcDbLine
 10
172.9420896064909
 20
368.0573772180894
 30
0.0
 11
175.9420896064909
 21
365.0573772180894
 31
0.0
  0
LINE
  5
206
330
1F
100
AcDbEntity
  8
ANCON-SUPPORT
100
AcDbLine
 10
175.9420896064908
 20
358.0573772180894
 30
0.0
 11
175.9420896064908
 21
354.0573772180894
 31
0.0
  0
LINE
  5
207
330
1F
100
AcDbEntity
  8
ANCON-SUPPORT
100
AcDbLine
 10
172.9420896064909
 20
362.0573772180894
 30
0.0
 11
175.9420896064909
 21
365.0573772180894
 31
0.0
  0
LINE
  5
208
330
1F
100
AcDbEntity
  8
ANCON-SUPPORT
100
AcDbLine
 10
174.9420896064909
 20
358.0573772180894
 30
0.0
 11
175.9420896064908
 21
358.0573772180894
 31
0.0
  0
LINE
  5
209
330
1F
100
AcDbEntity
  8
ANCON-SUPPORT
100
AcDbLine
 10
175.9420896064909
 20
359.0573772180894
 30
0.0
 11
174.9420896064909
 21
358.0573772180894
 31
0.0
  0
LINE
  5
20A
330
1F
100
AcDbEntity
  8
ANCON-SUPPORT
100
AcDbLine
 10
175.9420896064909
 20
359.0573772180894
 30
0.0
 11
172.9420896064909
 21
362.0573772180894
 31
0.0
  0
LINE
  5
20B
330
1F
100
AcDbEntity
  8
ANCON-CHANNEL
100
AcDbLine
 10
177.9420896064909
 20
383.0573772180894
 30
0.0
 11
175.9420896064909
 21
383.0573772180894
 31
0.0
  0
LINE
  5
20C
330
1F
100
AcDbEntity
  8
ANCON-SUPPORT
100
AcDbLine
 10
172.9420896064909
 20
380.0573772180895
 30
0.0
 11
175.9420896064909
 21
377.0573772180895
 31
0.0
  0
LINE
  5
20D
330
1F
100
AcDbEntity
  8
ANCON-SUPPORT
100
AcDbLine
 10
175.9420896064909
 20
383.0573772180895
 30
0.0
 11
172.9420896064909
 21
380.0573772180895
 31
0.0
  0
LINE
  5
20E
330
1F
100
AcDbEntity
  8
ANCON-SUPPORT
100
AcDbLine
 10
175.9420896064909
 20
371.0573772180895
 30
0.0
 11
172.9420896064909
 21
374.0573772180895
 31
0.0
  0
LINE
  5
20F
330
1F
100
AcDbEntity
  8
ANCON-SUPPORT
100
AcDbLine
 10
175.9420896064909
 20
371.0573772180895
 30
0.0
 11
172.9420896064909
 21
368.0573772180894
 31
0.0
  0
LINE
  5
210
330
1F
100
AcDbEntity
  8
ANCON-SUPPORT
100
AcDbLine
 10
172.9420896064909
 20
374.0573772180895
 30
0.0
 11
175.9420896064909
 21
377.0573772180895
 31
0.0
  0
LINE
  5
211
330
1F
100
AcDbEntity
  8
ANCON-BOLT
100
AcDbLine
 10
177.9420896064909
 20
389.4464674993394
 30
0.0
 11
180.6642715502405
 21
389.4464674993394
 31
0.0
  0
LINE
  5
212
330
1F
100
AcDbEntity
  8
ANCON-SUPPORT
100
AcDbLine
 10
172.9420896064909
 20
398.0573772180894
 30
0.0
 11
175.9420896064909
 21
401.0573772180894
 31
0.0
  0
LINE
  5
213
330
1F
100
AcDbEntity
  8
ANCON-CHANNEL
100
AcDbLine
 10
165.9420896064909
 20
395.0109590755065
 30
0.0
 11
165.9420896064909
 21
396.0573772180893
 31
0.0
  0
LINE
  5
214
330
1F
100
AcDbEntity
  8
ANCON-CHANNEL
100
AcDbLine
 10
165.9420896064909
 20
395.5573772180894
 30
0.0
 11
165.9420896064909
 21
395.0109590755065
 31
0.0
  0
LINE
  5
215
330
1F
100
AcDbEntity
  8
ANCON-CHANNEL
100
AcDbLine
 10
163.4420896064909
 20
395.0109590755065
 30
0.0
 11
163.4420896064909
 21
396.0573772180893
 31
0.0
  0
ARC
  5
216
330
1F
100
AcDbEntity
  8
ANCON-CHANNEL
100
AcDbCircle
 10
161.442089606491
 20
395.0109590755065
 30
0.0
 40
2.0
100
AcDbArc
 50
249.775140568832
 51
0.0
  0
LINE
  5
217
330
1F
100
AcDbEntity
  8
ANCON-CHANNEL
100
AcDbLine
 10
165.9420896064909
 20
396.0573772180893
 30
0.0
 11
165.9420896064909
 21
395.5573772180894
 31
0.0
  0
LINE
  5
218
330
1F
100
AcDbEntity
  8
ANCON-CHANNEL
100
AcDbLine
 10
163.4420896064909
 20
396.0573772180893
 30
0.0
 11
165.9420896064909
 21
396.0573772180893
 31
0.0
  0
LINE
  5
219
330
1F
100
AcDbEntity
  8
ANCON-SUPPORT
100
AcDbLine
 10
175.9420896064909
 20
395.0573772180894
 30
0.0
 11
172.9420896064909
 21
398.0573772180894
 31
0.0
  0
LINE
  5
21A
330
1F
100
AcDbEntity
  8
ANCON-SUPPORT
100
AcDbLine
 10
175.9420896064909
 20
395.0573772180895
 30
0.0
 11
172.9420896064909
 21
392.0573772180895
 31
0.0
  0
LINE
  5
21B
330
1F
100
AcDbEntity
  8
ANCON-SUPPORT
100
AcDbLine
 10
172.9420896064909
 20
386.0573772180895
 30
0.0
 11
175.9420896064909
 21
389.0573772180895
 31
0.0
  0
LINE
  5
21C
330
1F
100
AcDbEntity
  8
ANCON-SUPPORT
100
AcDbLine
 10
172.9420896064909
 20
392.0573772180895
 30
0.0
 11
175.9420896064909
 21
389.0573772180895
 31
0.0
  0
LINE
  5
21D
330
1F
100
AcDbEntity
  8
ANCON-CHANNEL
100
AcDbLine
 10
165.9420896064909
 20
410.0573772180894
 30
0.0
 11
165.9420896064909
 21
410.5573772180894
 31
0.0
  0
LINE
  5
21E
330
1F
100
AcDbEntity
  8
ANCON-CHANNEL
100
AcDbLine
 10
165.9420896064909
 20
410.5573772180894
 30
0.0
 11
165.9420896064909
 21
410.0573772180894
 31
0.0
  0
ARC
  5
21F
330
1F
100
AcDbEntity
  8
ANCON-CHANNEL
100
AcDbCircle
 10
161.4420896064909
 20
411.1037953606722
 30
0.0
 40
2.0
100
AcDbArc
 50
0.0
 51
110.2248594311679
  0
LINE
  5
220
330
1F
100
AcDbEntity
  8
ANCON-CHANNEL
100
AcDbLine
 10
163.4420896064909
 20
410.0573772180894
 30
0.0
 11
163.4420896064909
 21
411.1037953606722
 31
0.0
  0
LINE
  5
221
330
1F
100
AcDbEntity
  8
ANCON-CHANNEL
100
AcDbLine
 10
165.9420896064909
 20
410.0573772180894
 30
0.0
 11
165.9420896064909
 21
411.1037953606722
 31
0.0
  0
LINE
  5
222
330
1F
100
AcDbEntity
  8
ANCON-CHANNEL
100
AcDbLine
 10
163.4420896064909
 20
410.0573772180894
 30
0.0
 11
165.9420896064909
 21
410.0573772180894
 31
0.0
  0
LINE
  5
223
330
1F
100
AcDbEntity
  8
ANCON-SUPPORT
100
AcDbLine
 10
175.9420896064909
 20
407.0573772180894
 30
0.0
 11
172.9420896064909
 21
404.0573772180894
 31
0.0
  0
LINE
  5
224
330
1F
100
AcDbEntity
  8
ANCON-SUPPORT
100
AcDbLine
 10
172.9420896064909
 20
410.0573772180895
 30
0.0
 11
175.9420896064909
 21
413.0573772180894
 31
0.0
  0
LINE
  5
225
330
1F
100
AcDbEntity
  8
ANCON-SUPPORT
100
AcDbLine
 10
175.9420896064909
 20
407.0573772180894
 30
0.0
 11
172.9420896064909
 21
410.0573772180895
 31
0.0
  0
LINE
  5
226
330
1F
100
AcDbEntity
  8
ANCON-SUPPORT
100
AcDbLine
 10
172.9420896064909
 20
404.0573772180894
 30
0.0
 11
175.9420896064909
 21
401.0573772180894
 31
0.0
  0
LINE
  5
227
330
1F
100
AcDbEntity
  8
ANCON-BOLT
100
AcDbLine
 10
189.7382113627405
 20
403.0573772180893
 30
0.0
 11
189.7382113627405
 21
397.6130133305897
 31
0.0
  0
LINE
  5
228
330
1F
100
AcDbEntity
  8
ANCON-BOLT
100
AcDbLine
 10
189.7382113627405
 20
410.5639156336505
 30
0.0
 11
189.7382113627405
 21
395.5508388025288
 31
0.0
  0
ARC
  5
229
330
1F
100
AcDbEntity
  8
ANCON-BOLT
100
AcDbCircle
 10
179.7568775689965
 20
403.05737721809
 30
0.0
 40
9.981333793743797
100
AcDbArc
 50
329.7273586810808
 51
30.2726413189191
  0
LINE
  5
22A
330
1F
100
AcDbEntity
  8
ANCON-BOLT
100
AcDbLine
 10
180.6642715502405
 20
410.5639156336505
 30
0.0
 11
180.6642715502405
 21
395.5508388025288
 31
0.0
  0
ARC
  5
22B
330
1F
100
AcDbEntity
  8
ANCON-BOLT
100
AcDbCircle
 10
190.6456053439855
 20
403.05737721809
 30
0.0
 40
9.981333793744667
100
AcDbArc
 50
149.7273586810845
 51
210.2726413189177
  0
ARC
  5
22C
330
1F
100
AcDbEntity
  8
ANCON-BOLT
100
AcDbCircle
 10
186.807775057432
 20
395.5508388025282
 30
0.0
 40
2.930436305308636
100
AcDbArc
 50
302.3800650937875
 51
57.6199349062161
  0
ARC
  5
22D
330
1F
100
AcDbEntity
  8
ANCON-BOLT
100
AcDbCircle
 10
183.5947078555469
 20
395.5508388025272
 30
0.0
 40
2.930436305306611
100
AcDbArc
 50
122.3800650936791
 51
237.6199349062337
  0
LINE
  5
22E
330
1F
100
AcDbEntity
  8
ANCON-BOLT
100
AcDbLine
 10
182.0253625221153
 20
398.0256341807169
 30
0.0
 11
188.3771203908656
 21
398.0256341807169
 31
0.0
  0
LINE
  5
22F
330
1F
100
AcDbEntity
  8
ANCON-BOLT
100
AcDbLine
 10
182.0253625221071
 20
393.0760434243402
 30
0.0
 11
188.3771203908946
 21
393.0760434243402
 31
0.0
  0
ARC
  5
230
330
1F
100
AcDbEntity
  8
ANCON-BOLT
100
AcDbCircle
 10
186.807775057432
 20
410.5639156336511
 30
0.0
 40
2.930436305308463
100
AcDbArc
 50
302.3800650937803
 51
57.61993490621471
  0
ARC
  5
231
330
1F
100
AcDbEntity
  8
ANCON-BOLT
100
AcDbCircle
 10
183.5947078555469
 20
410.563915633652
 30
0.0
 40
2.930436305306414
100
AcDbArc
 50
122.3800650937626
 51
237.6199349063222
  0
LINE
  5
232
330
1F
100
AcDbEntity
  8
ANCON-BOLT
100
AcDbLine
 10
182.0253625221205
 20
413.0387110118387
 30
0.0
 11
188.3771203908481
 21
413.0387110118387
 31
0.0
  0
LINE
  5
233
330
1F
100
AcDbEntity
  8
ANCON-BOLT
100
AcDbLine
 10
182.0253625221153
 20
408.0891202554624
 30
0.0
 11
188.3771203908656
 21
408.0891202554624
 31
0.0
  0
LINE
  5
234
330
1F
100
AcDbEntity
  8
ANCON-MASONRY
100
AcDbLine
 10
343.442089606491
 20
136.0573772180894
 30
0.0
 11
343.442089606491
 21
351.0573772180894
 31
0.0
  0
LINE
  5
235
330
1F
100
AcDbEntity
  8
ANCON-MASONRY
100
AcDbLine
 10
240.942089606491
 20
136.0573772180894
 30
0.0
 11
240.9420896064909
 21
316.5573772180894
 31
0.0
  0
LINE
  5
236
330
1F
100
AcDbEntity
  8
ANCON-MASONRY
100
AcDbLine
 10
240.942089606491
 20
136.0573772180894
 30
0.0
 11
343.442089606491
 21
136.0573772180894
 31
0.0
  0
LINE
  5
237
330
1F
100
AcDbEntity
  8
ANCON-SUPPORT
100
AcDbLine
 10
320.9420896064909
 20
354.0573772180894
 30
0.0
 11
320.9420896064909
 21
189.0573772180894
 31
0.0
  0
LINE
  5
238
330
1F
100
AcDbEntity
  8
ANCON-SUPPORT
100
AcDbLine
 10
270.9420896064907
 20
325.3770311586697
 30
0.0
 11
270.9420896064909
 21
189.0573772180894
 31
0.0
  0
LINE
  5
239
330
1F
100
AcDbEntity
  8
ANCON-SUPPORT
100
AcDbLine
 10
275.9420896064909
 20
325.3770311586697
 30
0.0
 11
275.9420896064909
 21
189.0573772180894
 31
0.0
  0
LINE
  5
23A
330
1F
100
AcDbEntity
  8
ANCON-SUPPORT
100
AcDbLine
 10
315.9420896064909
 20
354.0573772180894
 30
0.0
 11
315.9420896064909
 21
189.0573772180894
 31
0.0
  0
ARC
  5
23B
330
1F
100
AcDbEntity
  8
ANCON-SUPPORT
100
AcDbCircle
 10
295.9420896064909
 20
189.0573772180894
 30
0.0
 40
25.0
100
AcDbArc
 50
180.0
 51
0.0
  0
ARC
  5
243
330
1F
100
AcDbEntity
  8
ANCON-SUPPORT
100
AcDbCircle
 10
295.9420896064909
 20
189.0573772180894
 30
0.0
 40
20.0
100
AcDbArc
 50
180.0
 51
0.0
  0
CIRCLE
  5
244
330
1F
100
AcDbEntity
  8
ANCON-MASONRY
100
AcDbCircle
 10
295.9420896064909
 20
196.0573772180894
 30
0.0
 40
12.5
  0
CIRCLE
  5
245
330
1F
100
AcDbEntity
  8
ANCON-SUPPORT
100
AcDbCircle
 10
292.4354469913653
 20
199.7851632561955
 30
0.0
 40
2.5
  0
CIRCLE
  5
246
330
1F
100
AcDbEntity
  8
ANCON-SUPPORT
100
AcDbCircle
 10
300.0074424728707
 20
191.5467664613207
 30
0.0
 40
2.5
  0
ARC
  5
255
330
1F
100
AcDbEntity
  8
ANCON-SUPPORT
100
AcDbCircle
 10
280.942089606491
 20
325.3770311586697
 30
0.0
 40
10.0
100
AcDbArc
 50
116.5649999999876
 51
180.0
  0
LINE
  5
256
330
1F
100
AcDbEntity
  8
ANCON-SUPPORT
100
AcDbLine
 10
315.9420896064909
 20
358.0573772180894
 30
0.0
 11
248.9420896064909
 21
358.0573772180894
 31
0.0
  0
LINE
  5
257
330
1F
100
AcDbEntity
  8
ANCON-SUPPORT
100
AcDbLine
 10
228.4420896064909
 20
358.0573772180894
 30
0.0
 11
320.9420896064909
 21
358.0573772180894
 31
0.0
  0
LINE
  5
258
330
1F
100
AcDbEntity
  8
ANCON-SUPPORT
100
AcDbLine
 10
228.4420896064909
 20
354.0573772180894
 30
0.0
 11
320.9420896064909
 21
354.0573772180894
 31
0.0
  0
LINE
  5
259
330
1F
100
AcDbEntity
  8
ANCON-MASONRY
100
AcDbLine
 10
240.942089606491
 20
361.0573772180894
 30
0.0
 11
343.442089606491
 21
361.0573772180894
 31
0.0
  0
LINE
  5
25A
330
1F
100
AcDbEntity
  8
ANCON-MASONRY
100
AcDbLine
 10
240.9420896064909
 20
350.0573772180894
 30
0.0
 11
240.9420896064909
 21
351.0573772180894
 31
0.0
  0
LINE
  5
25B
330
1F
100
AcDbEntity
  8
ANCON-SUPPORT
100
AcDbLine
 10
213.4420896064909
 20
354.0573772180894
 30
0.0
 11
220.9420896064909
 21
349.0573772180894
 31
0.0
  0
LINE
  5
25C
330
1F
100
AcDbEntity
  8
ANCON-SUPPORT
100
AcDbLine
 10
220.9420896064909
 20
349.0573772180894
 30
0.0
 11
228.4420896064909
 21
354.0573772180894
 31
0.0
  0
LINE
  5
25D
330
1F
100
AcDbEntity
  8
ANCON-SUPPORT
100
AcDbLine
 10
213.4420896064909
 20
358.0573772180894
 30
0.0
 11
220.9420896064909
 21
353.0573772180894
 31
0.0
  0
LINE
  5
25E
330
1F
100
AcDbEntity
  8
ANCON-SUPPORT
100
AcDbLine
 10
220.9420896064909
 20
353.0573772180894
 30
0.0
 11
228.4420896064909
 21
358.0573772180894
 31
0.0
  0
LINE
  5
25F
330
1F
100
AcDbEntity
  8
ANCON-BOLT
100
AcDbLine
 10
205.9420896064909
 20
407.2844734385951
 30
0.0
 11
205.9420896064909
 21
399.1015945156825
 31
0.0
  0
LINE
  5
260
330
1F
100
AcDbEntity
  8
ANCON-BOLT
100
AcDbLine
 10
205.0346956252409
 20
408.191867419845
 30
0.0
 11
205.0346956252409
 21
398.1942005344325
 31
0.0
  0
LINE
  5
261
330
1F
100
AcDbEntity
  8
ANCON-BOLT
100
AcDbLine
 10
205.0346956252409
 20
398.1942005344325
 30
0.0
 11
205.9420896064909
 21
399.1015945156825
 31
0.0
  0
LINE
  5
262
330
1F
100
AcDbEntity
  8
ANCON-BOLT
100
AcDbLine
 10
205.0346956252409
 20
408.191867419845
 30
0.0
 11
205.9420896064909
 21
407.2844734385951
 31
0.0
  0
LINE
  5
263
330
1F
100
AcDbEntity
  8
ANCON-MASONRY
100
AcDbLine
 10
240.9420896064909
 20
351.0573772180894
 30
0.0
 11
242.9420896064909
 21
351.0573772180894
 31
0.0
  0
CIRCLE
  5
264
330
1F
100
AcDbEntity
  8
ANCON-SUPPORT
100
AcDbCircle
 10
292.4354469913653
 20
304.7851632561955
 30
0.0
 40
2.5
  0
CIRCLE
  5
265
330
1F
100
AcDbEntity
  8
ANCON-MASONRY
100
AcDbCircle
 10
295.9420896064909
 20
301.0573772180894
 30
0.0
 40
12.5
  0
CIRCLE
  5
266
330
1F
100
AcDbEntity
  8
ANCON-SUPPORT
100
AcDbCircle
 10
300.0074424728707
 20
296.5467664613207
 30
0.0
 40
2.5
  0
LINE
  5
267
330
1F
100
AcDbEntity
  8
ANCON-SUPPORT
100
AcDbLine
 10
278.706025623542
 20
329.8491691109424
 30
0.0
 11
291.0667053985298
 21
336.0294951976121
 31
0.0
  0
LINE
  5
268
330
1F
100
AcDbEntity
  8
ANCON-SUPPORT
100
AcDbLine
 10
276.469961640593
 20
334.3213070632153
 30
0.0
 11
288.8306414155818
 21
340.5016331498853
 31
0.0
  0
ARC
  5
269
330
1F
100
AcDbEntity
  8
ANCON-SUPPORT
100
AcDbCircle
 10
280.942089606491
 20
325.3770311586697
 30
0.0
 40
5.0
100
AcDbArc
 50
116.5649999999876
 51
180.0
  0
LINE
  5
26A
330
1F
100
AcDbEntity
  8
ANCON-SUPPORT
100
AcDbLine
 10
288.8306414155818
 20
340.5016331498853
 30
0.0
 11
291.0667053985298
 21
336.0294951976121
 31
0.0
  0
LINE
  5
26B
330
1F
100
AcDbEntity
  8
ANCON-MASONRY
100
AcDbLine
 10
309.9420896064909
 20
351.0573772180894
 30
0.0
 11
315.9420896064909
 21
351.0573772180894
 31
0.0
  0
LINE
  5
26C
330
1F
100
AcDbEntity
  8
ANCON-MASONRY
100
AcDbLine
 10
320.9420896064909
 20
351.0573772180894
 30
0.0
 11
343.442089606491
 21
351.0573772180894
 31
0.0
  0
LINE
  5
26D
330
1F
100
AcDbEntity
  8
ANCON-SUPPORT
100
AcDbLine
 10
320.9420896064909
 20
354.0573772180894
 30
0.0
 11
315.9420896064909
 21
354.0573772180894
 31
0.0
  0
LINE
  5
26E
330
1F
100
AcDbEntity
  8
ANCON-SUPPORT
100
AcDbLine
 10
320.9420896064909
 20
358.0573772180894
 30
0.0
 11
320.9420896064909
 21
354.0573772180894
 31
0.0
  0
LINE
  5
26F
330
1F
100
AcDbEntity
  8
ANCON-TIE
100
AcDbLine
 10
200.942089606491
 20
654.8073772180893
 30
0.0
 11
165.9420896064909
 21
654.8073772180893
 31
0.0
  0
LINE
  5
270
330
1F
100
AcDbEntity
  8
ANCON-TIE
100
AcDbLine
 10
200.942089606491
 20
657.3073772180894
 30
0.0
 11
165.9420896064909
 21
657.3073772180894
 31
0.0
  0
LINE
  5
271
330
1F
100
AcDbEntity
  8
ANCON-CHANNEL
100
AcDbLine
 10
154.9420896064909
 20
706.0573772180894
 30
0.0
 11
154.9420896064909
 21
606.0573772180894
 31
0.0
  0
LINE
  5
272
330
1F
100
AcDbEntity
  8
ANCON-CHANNEL
100
AcDbLine
 10
165.9420896064909
 20
706.0573772180894
 30
0.0
 11
165.9420896064909
 21
606.0573772180894
 31
0.0
  0
LINE
  5
273
330
1F
100
AcDbEntity
  8
ANCON-CHANNEL
100
AcDbLine
 10
147.9420896064909
 20
706.0573772180894
 30
0.0
 11
147.9420896064909
 21
606.0573772180894
 31
0.0
  0
LINE
  5
274
330
1F
100
AcDbEntity
  8
ANCON-BOLT
100
AcDbLine
 10
180.6642715502405
 20
416.6682869368395
 30
0.0
 11
177.9420896064909
 21
416.6682869368395
 31
0.0
  0
LINE
  5
275
330
1F
100
AcDbEntity
  8
ANCON-SUPPORT
100
AcDbLine
 10
175.9420896064909
 20
431.0573772180894
 30
0.0
 11
172.9420896064909
 21
434.0573772180895
 31
0.0
  0
LINE
  5
276
330
1F
100
AcDbEntity
  8
ANCON-SUPPORT
100
AcDbLine
 10
175.9420896064909
 20
419.0573772180894
 30
0.0
 11
172.9420896064909
 21
422.0573772180895
 31
0.0
  0
LINE
  5
277
330
1F
100
AcDbEntity
  8
ANCON-SUPPORT
100
AcDbLine
 10
172.9420896064909
 20
422.0573772180895
 30
0.0
 11
175.9420896064909
 21
425.0573772180894
 31
0.0
  0
LINE
  5
278
330
1F
100
AcDbEntity
  8
ANCON-SUPPORT
100
AcDbLine
 10
175.9420896064909
 20
431.0573772180894
 30
0.0
 11
172.9420896064909
 21
428.0573772180894
 31
0.0
  0
LINE
  5
279
330
1F
100
AcDbEntity
  8
ANCON-SUPPORT
100
AcDbLine
 10
172.9420896064909
 20
428.0573772180894
 30
0.0
 11
175.9420896064909
 21
425.0573772180894
 31
0.0
  0
LINE
  5
27A
330
1F
100
AcDbEntity
  8
ANCON-CHANNEL
100
AcDbLine
 10
177.9420896064909
 20
423.0573772180894
 30
0.0
 11
173.9420896064909
 21
423.0573772180894
 31
0.0
  0
LINE
  5
27B
330
1F
100
AcDbEntity
  8
ANCON-SUPPORT
100
AcDbLine
 10
175.9420896064909
 20
419.0573772180894
 30
0.0
 11
172.9420896064909
 21
416.0573772180894
 31
0.0
  0
LINE
  5
27C
330
1F
100
AcDbEntity
  8
ANCON-SUPPORT
100
AcDbLine
 10
165.9420896064909
 20
443.0573772180895
 30
0.0
 11
175.9420896064909
 21
443.0573772180895
 31
0.0
  0
LINE
  5
27D
330
1F
100
AcDbEntity
  8
ANCON-SUPPORT
100
AcDbLine
 10
175.9420896064909
 20
443.0573772180895
 30
0.0
 11
172.9420896064909
 21
440.0573772180894
 31
0.0
  0
LINE
  5
27E
330
1F
100
AcDbEntity
  8
ANCON-SUPPORT
100
AcDbLine
 10
172.9420896064909
 20
440.0573772180894
 30
0.0
 11
175.9420896064909
 21
437.0573772180894
 31
0.0
  0
LINE
  5
27F
330
1F
100
AcDbEntity
  8
ANCON-SUPPORT
100
AcDbLine
 10
172.9420896064909
 20
434.0573772180895
 30
0.0
 11
175.9420896064909
 21
437.0573772180894
 31
0.0
  0
LINE
  5
280
330
1F
100
AcDbEntity
  8
ANCON-CHANNEL
100
AcDbLine
 10
165.9420896064909
 20
606.0573772180894
 30
0.0
 11
147.9420896064909
 21
606.0573772180894
 31
0.0
  0
LINE
  5
281
330
1F
100
AcDbEntity
  8
ANCON-CHANNEL
100
AcDbLine
 10
165.9420896064909
 20
706.0573772180894
 30
0.0
 11
147.9420896064909
 21
706.0573772180894
 31
0.0
  0
LINE
  5
282
330
1F
100
AcDbEntity
  8
ANCON-MASONRY
100
AcDbLine
 10
343.442089606491
 20
661.0573772180893
 30
0.0
 11
343.442089606491
 21
726.0573772180894
 31
0.0
  0
LINE
  5
283
330
1F
100
AcDbEntity
  8
ANCON-MASONRY
100
AcDbLine
 10
240.942089606491
 20
661.0573772180893
 30
0.0
 11
240.942089606491
 21
726.0573772180894
 31
0.0
  0
LINE
  5
284
330
1F
100
AcDbEntity
  8
ANCON-MASONRY
100
AcDbLine
 10
343.442089606491
 20
511.0573772180893
 30
0.0
 11
343.442089606491
 21
576.0573772180894
 31
0.0
  0
LINE
  5
285
330
1F
100
AcDbEntity
  8
ANCON-MASONRY
100
AcDbLine
 10
240.9420896064909
 20
511.0573772180893
 30
0.0
 11
240.9420896064909
 21
576.0573772180894
 31
0.0
  0
LINE
  5
286
330
1F
100
AcDbEntity
  8
ANCON-MASONRY
100
AcDbLine
 10
240.9420896064909
 20
511.0573772180893
 30
0.0
 11
343.442089606491
 21
511.0573772180893
 31
0.0
  0
LINE
  5
287
330
1F
100
AcDbEntity
  8
ANCON-MASONRY
100
AcDbLine
 10
240.9420896064909
 20
501.0573772180894
 30
0.0
 11
343.442089606491
 21
501.0573772180894
 31
0.0
  0
LINE
  5
288
330
1F
100
AcDbEntity
  8
ANCON-MASONRY
100
AcDbLine
 10
240.9420896064909
 20
436.0573772180893
 30
0.0
 11
343.442089606491
 21
436.0573772180893
 31
0.0
  0
LINE
  5
289
330
1F
100
AcDbEntity
  8
ANCON-MASONRY
100
AcDbLine
 10
240.9420896064909
 20
426.0573772180894
 30
0.0
 11
343.442089606491
 21
426.0573772180894
 31
0.0
  0
LINE
  5
28A
330
1F
100
AcDbEntity
  8
ANCON-MASONRY
100
AcDbLine
 10
240.9420896064909
 20
436.0573772180893
 30
0.0
 11
240.9420896064909
 21
501.0573772180894
 31
0.0
  0
LINE
  5
28B
330
1F
100
AcDbEntity
  8
ANCON-MASONRY
100
AcDbLine
 10
343.442089606491
 20
436.0573772180893
 30
0.0
 11
343.442089606491
 21
501.0573772180894
 31
0.0
  0
LINE
  5
28C
330
1F
100
AcDbEntity
  8
ANCON-TIE
100
AcDbLine
 10
305.942089606491
 20
654.8073772180893
 30
0.0
 11
230.942089606491
 21
654.8073772180893
 31
0.0
  0
LINE
  5
28D
330
1F
100
AcDbEntity
  8
ANCON-TIE
100
AcDbLine
 10
305.942089606491
 20
657.3073772180894
 30
0.0
 11
230.942089606491
 21
657.3073772180894
 31
0.0
  0
LINE
  5
28E
330
1F
100
AcDbEntity
  8
ANCON-MASONRY
100
AcDbLine
 10
240.942089606491
 20
661.0573772180893
 30
0.0
 11
343.442089606491
 21
661.0573772180893
 31
0.0
  0
LINE
  5
28F
330
1F
100
AcDbEntity
  8
ANCON-MASONRY
100
AcDbLine
 10
240.942089606491
 20
586.0573772180893
 30
0.0
 11
343.442089606491
 21
586.0573772180893
 31
0.0
  0
LINE
  5
290
330
1F
100
AcDbEntity
  8
ANCON-MASONRY
100
AcDbLine
 10
240.942089606491
 20
651.0573772180894
 30
0.0
 11
343.442089606491
 21
651.0573772180894
 31
0.0
  0
LINE
  5
291
330
1F
100
AcDbEntity
  8
ANCON-MASONRY
100
AcDbLine
 10
240.9420896064909
 20
576.0573772180894
 30
0.0
 11
343.442089606491
 21
576.0573772180894
 31
0.0
  0
LINE
  5
292
330
1F
100
AcDbEntity
  8
ANCON-MASONRY
100
AcDbLine
 10
240.942089606491
 20
586.0573772180893
 30
0.0
 11
240.942089606491
 21
651.0573772180894
 31
0.0
  0
LINE
  5
293
330
1F
100
AcDbEntity
  8
ANCON-TIE
100
AcDbLine
 10
215.942089606491
 20
650.8073772180893
 30
0.0
 11
230.942089606491
 21
654.8073772180893
 31
0.0
  0
LINE
  5
294
330
1F
100
AcDbEntity
  8
ANCON-TIE
100
AcDbLine
 10
215.942089606491
 20
653.3073772180894
 30
0.0
 11
230.942089606491
 21
657.3073772180894
 31
0.0
  0
LINE
  5
295
330
1F
100
AcDbEntity
  8
ANCON-TIE
100
AcDbLine
 10
200.942089606491
 20
654.8073772180893
 30
0.0
 11
215.942089606491
 21
650.8073772180893
 31
0.0
  0
LINE
  5
296
330
1F
100
AcDbEntity
  8
ANCON-TIE
100
AcDbLine
 10
200.942089606491
 20
657.3073772180894
 30
0.0
 11
215.942089606491
 21
653.3073772180894
 31
0.0
  0
LINE
  5
297
330
1F
100
AcDbEntity
  8
ANCON-MASONRY
100
AcDbLine
 10
343.442089606491
 20
586.0573772180893
 30
0.0
 11
343.442089606491
 21
651.0573772180894
 31
0.0
  0
LINE
  5
298
330
1F
100
AcDbEntity
  8
ANCON-TIE
100
AcDbLine
 10
305.942089606491
 20
657.3073772180894
 30
0.0
 11
305.942089606491
 21
654.8073772180893
 31
0.0
  0
CIRCLE
  5
2AE
330
1F
100
AcDbEntity
  8
DANGLE
 62
     1
100
AcDbCircle
 10
292.942089606491
 20
240.5573772180893
 30
0.0
 40
6.0
  0
LWPOLYLINE
  5
2AF
330
1F
100
AcDbEntity
  8
DANGLE
 62
     1
100
AcDbPolyline
 90
       12
 70
     0
 43
0.0
 10
165.9420896064909
 20
250.5573772180893
 10
281.942089606491
 20
250.5573772180893
 42
0.9999999999999998
 10
286.942089606491
 20
250.5573772180893
 10
298.942089606491
 20
250.5573772180893
 42
0.9999999999999998
 10
303.942089606491
 20
250.5573772180893
 10
317.9420896064907
 20
250.5573772180893
 42
-0.2999999999999987
 10
317.942089606491
 20
230.5573772180893
 10
303.942089606491
 20
230.5573772180893
 42
0.9999999999999998
 10
298.942089606491
 20
230.5573772180893
 10
286.942089606491
 20
230.5573772180893
 42
0.9999999999999998
 10
281.942089606491
 20
230.5573772180893
 10
165.9420896064909
 20
230.5573772180893
  0
CIRCLE
  5
2B0
330
1F
100
AcDbEntity
  8
DANGLE
 62
     1
100
AcDbCircle
 10
309.942089606491
 20
240.5573772180893
 30
0.0
 40
6.0
  0
CIRCLE
  5
2B1
330
1F
100
AcDbEntity
  8
DANGLE
 62
     1
100
AcDbCircle
 10
275.942089606491
 20
240.5573772180893
 30
0.0
 40
6.0
  0
ENDSEC
  0
SECTION
  2
OBJECTS
  0
DICTIONARY
  5
C
330
0
100
AcDbDictionary
281
     1
  3
ACAD_GROUP
350
D
  3
ACAD_LAYOUT
350
1A
  3
ACAD_MLINESTYLE
350
17
  3
ACAD_PLOTSETTINGS
350
19
  3
ACAD_PLOTSTYLENAME
350
E
  0
DICTIONARY
  5
D
102
{ACAD_REACTORS
330
C
102
}
330
C
100
AcDbDictionary
281
     1
  0
DICTIONARY
  5
1A
102
{ACAD_REACTORS
330
C
102
}
330
C
100
AcDbDictionary
281
     1
  3
Layout1
350
1E
  3
Layout2
350
26
  3
Model
350
22
  0
DICTIONARY
  5
17
102
{ACAD_REACTORS
330
C
102
}
330
C
100
AcDbDictionary
281
     1
  3
Standard
350
18
  0
DICTIONARY
  5
19
102
{ACAD_REACTORS
330
C
102
}
330
C
100
AcDbDictionary
281
     1
  0
ACDBDICTIONARYWDFLT
  5
E
102
{ACAD_REACTORS
330
C
102
}
330
C
100
AcDbDictionary
281
     1
  3
Normal
350
F
100
AcDbDictionaryWithDefault
340
F
  0
LAYOUT
  5
1E
102
{ACAD_REACTORS
330
1A
102
}
330
1A
100
AcDbPlotSettings
  1

  2
Ancon 2
  4

  6

 40
0.0
 41
0.0
 42
0.0
 43
0.0
 44
0.0
 45
0.0
 46
0.0
 47
0.0
 48
0.0
 49
0.0
140
0.0
141
0.0
142
1.0
143
1.0
 70
   688
 72
     0
 73
     0
 74
     5
  7

 75
    16
147
1.0
148
0.0
149
0.0
100
AcDbLayout
  1
Layout1
 70
     1
 71
     1
 10
0.0
 20
0.0
 11
420.0
 21
297.0
 12
0.0
 22
0.0
 32
0.0
 14
1.000000000000000E+20
 24
1.000000000000000E+20
 34
1.000000000000000E+20
 15
-1.000000000000000E+20
 25
-1.000000000000000E+20
 35
-1.000000000000000E+20
146
0.0
 13
0.0
 23
0.0
 33
0.0
 16
1.0
 26
0.0
 36
0.0
 17
0.0
 27
1.0
 37
0.0
 76
     0
330
1B
  0
LAYOUT
  5
26
102
{ACAD_REACTORS
330
1A
102
}
330
1A
100
AcDbPlotSettings
  1

  2
Ancon 2
  4

  6

 40
0.0
 41
0.0
 42
0.0
 43
0.0
 44
0.0
 45
0.0
 46
0.0
 47
0.0
 48
0.0
 49
0.0
140
0.0
141
0.0
142
1.0
143
1.0
 70
   688
 72
     0
 73
     0
 74
     5
  7

 75
    16
147
1.0
148
0.0
149
0.0
100
AcDbLayout
  1
Layout2
 70
     1
 71
     2
 10
0.0
 20
0.0
 11
12.0
 21
9.0
 12
0.0
 22
0.0
 32
0.0
 14
0.0
 24
0.0
 34
0.0
 15
0.0
 25
0.0
 35
0.0
146
0.0
 13
0.0
 23
0.0
 33
0.0
 16
1.0
 26
0.0
 36
0.0
 17
0.0
 27
1.0
 37
0.0
 76
     0
330
23
  0
LAYOUT
  5
22
102
{ACAD_REACTORS
330
1A
102
}
330
1A
100
AcDbPlotSettings
  1

  2
Ancon 2
  4

  6

 40
0.0
 41
0.0
 42
0.0
 43
0.0
 44
0.0
 45
0.0
 46
0.0
 47
0.0
 48
0.0
 49
0.0
140
0.0
141
0.0
142
1.0
143
1.0
 70
  1712
 72
     0
 73
     0
 74
     0
  7

 75
     0
147
1.0
148
0.0
149
0.0
100
AcDbLayout
  1
Model
 70
     1
 71
     0
 10
0.0
 20
0.0
 11
12.0
 21
9.0
 12
0.0
 22
0.0
 32
0.0
 14
0.0
 24
0.0
 34
0.0
 15
0.0
 25
0.0
 35
0.0
146
0.0
 13
0.0
 23
0.0
 33
0.0
 16
1.0
 26
0.0
 36
0.0
 17
0.0
 27
1.0
 37
0.0
 76
     0
330
1F
  0
MLINESTYLE
  5
18
102
{ACAD_REACTORS
330
17
102
}
330
17
100
AcDbMlineStyle
  2
STANDARD
 70
     0
  3

 62
   256
 51
90.0
 52
90.0
 71
     2
 49
0.5
 62
   256
  6
BYLAYER
 49
-0.5
 62
   256
  6
BYLAYER
  0
ACDBPLACEHOLDER
  5
F
102
{ACAD_REACTORS
330
E
102
}
330
E
  0
ENDSEC
  0
EOF
