  0
SECTION
  2
HEADER
  9
$ACADVER
  1
AC1014
  9
$ACADMAINTVER
 70
     0
  9
$DWGCODEPAGE
  3
ANSI_1252
  9
$INSBASE
 10
0.0
 20
0.0
 30
0.0
  9
$EXTMIN
 10
-150.010713
 20
-75.0
 30
0.0
  9
$EXTMAX
 10
699.988243
 20
365.0
 30
0.0
  9
$LIMMIN
 10
0.0
 20
0.0
  9
$LIMMAX
 10
420.0
 20
297.0
  9
$ORTHOMODE
 70
     1
  9
$REGENMODE
 70
     1
  9
$FILLMODE
 70
     1
  9
$QTEXTMODE
 70
     0
  9
$MIRRTEXT
 70
     1
  9
$DRAGMODE
 70
     2
  9
$LTSCALE
 40
1.0
  9
$OSMODE
 70
     1
  9
$ATTMODE
 70
     1
  9
$TEXTSIZE
 40
9.0
  9
$TRACEWID
 40
10.0
  9
$TEXTSTYLE
  7
ROMANS
  9
$CLAYER
  8
0
  9
$CELTYPE
  6
BYLAYER
  9
$CECOLOR
 62
   256
  9
$CELTSCALE
 40
1.0
  9
$DELOBJ
 70
     1
  9
$DISPSILH
 70
     0
  9
$DIMSCALE
 40
5.0
  9
$DIMASZ
 40
0.0
  9
$DIMEXO
 40
4.5
  9
$DIMDLI
 40
0.0
  9
$DIMRND
 40
1.0
  9
$DIMDLE
 40
1.25
  9
$DIMEXE
 40
1.5
  9
$DIMTP
 40
0.0
  9
$DIMTM
 40
0.0
  9
$DIMTXT
 40
1.8
  9
$DIMCEN
 40
0.0
  9
$DIMTSZ
 40
1.0
  9
$DIMTOL
 70
     0
  9
$DIMLIM
 70
     0
  9
$DIMTIH
 70
     0
  9
$DIMTOH
 70
     0
  9
$DIMSE1
 70
     0
  9
$DIMSE2
 70
     0
  9
$DIMTAD
 70
     1
  9
$DIMZIN
 70
    12
  9
$DIMBLK
  1

  9
$DIMASO
 70
     1
  9
$DIMSHO
 70
     0
  9
$DIMPOST
  1

  9
$DIMAPOST
  1

  9
$DIMALT
 70
     0
  9
$DIMALTD
 70
     2
  9
$DIMALTF
 40
0.04
  9
$DIMLFAC
 40
1.0
  9
$DIMTOFL
 70
     0
  9
$DIMTVP
 40
0.0
  9
$DIMTIX
 70
     0
  9
$DIMSOXD
 70
     0
  9
$DIMSAH
 70
     0
  9
$DIMBLK1
  1

  9
$DIMBLK2
  1

  9
$DIMSTYLE
  2
1-5
  9
$DIMCLRD
 70
     0
  9
$DIMCLRE
 70
     0
  9
$DIMCLRT
 70
     0
  9
$DIMTFAC
 40
1.25
  9
$DIMGAP
 40
0.1
  9
$DIMJUST
 70
     0
  9
$DIMSD1
 70
     0
  9
$DIMSD2
 70
     0
  9
$DIMTOLJ
 70
     1
  9
$DIMTZIN
 70
    12
  9
$DIMALTZ
 70
    12
  9
$DIMALTTZ
 70
    12
  9
$DIMFIT
 70
     5
  9
$DIMUPT
 70
     0
  9
$DIMUNIT
 70
     2
  9
$DIMDEC
 70
     2
  9
$DIMTDEC
 70
     2
  9
$DIMALTU
 70
     2
  9
$DIMALTTD
 70
     2
  9
$DIMTXSTY
  7
ROMANS
  9
$DIMAUNIT
 70
     0
  9
$LUNITS
 70
     2
  9
$LUPREC
 70
     2
  9
$SKETCHINC
 40
1.0
  9
$FILLETRAD
 40
8.0
  9
$AUNITS
 70
     0
  9
$AUPREC
 70
     4
  9
$MENU
  1
C:\ACADWIN\SUPPORT\ACAD
  9
$ELEVATION
 40
0.0
  9
$PELEVATION
 40
0.0
  9
$THICKNESS
 40
0.0
  9
$LIMCHECK
 70
     0
  9
$BLIPMODE
 70
     0
  9
$CHAMFERA
 40
0.0
  9
$CHAMFERB
 40
0.0
  9
$CHAMFERC
 40
0.0
  9
$CHAMFERD
 40
0.0
  9
$SKPOLY
 70
     0
  9
$TDCREATE
 40
2450427.482995949
  9
$TDUPDATE
 40
2451548.611471296
  9
$TDINDWG
 40
0.1008785880
  9
$TDUSRTIMER
 40
0.1008785880
  9
$USRTIMER
 70
     1
  9
$ANGBASE
 50
0.0
  9
$ANGDIR
 70
     0
  9
$PDMODE
 70
     0
  9
$PDSIZE
 40
0.0
  9
$PLINEWID
 40
0.0
  9
$COORDS
 70
     1
  9
$SPLFRAME
 70
     0
  9
$SPLINETYPE
 70
     6
  9
$SPLINESEGS
 70
     8
  9
$ATTDIA
 70
     0
  9
$ATTREQ
 70
     1
  9
$HANDLING
 70
     1
  9
$HANDSEED
  5
14D
  9
$SURFTAB1
 70
    18
  9
$SURFTAB2
 70
    18
  9
$SURFTYPE
 70
     6
  9
$SURFU
 70
    18
  9
$SURFV
 70
    18
  9
$UCSNAME
  2

  9
$UCSORG
 10
0.0
 20
0.0
 30
0.0
  9
$UCSXDIR
 10
1.0
 20
0.0
 30
0.0
  9
$UCSYDIR
 10
0.0
 20
1.0
 30
0.0
  9
$PUCSNAME
  2

  9
$PUCSORG
 10
0.0
 20
0.0
 30
0.0
  9
$PUCSXDIR
 10
1.0
 20
0.0
 30
0.0
  9
$PUCSYDIR
 10
0.0
 20
1.0
 30
0.0
  9
$USERI1
 70
     0
  9
$USERI2
 70
     0
  9
$USERI3
 70
     0
  9
$USERI4
 70
     0
  9
$USERI5
 70
     0
  9
$USERR1
 40
0.0
  9
$USERR2
 40
0.0
  9
$USERR3
 40
0.0
  9
$USERR4
 40
0.0
  9
$USERR5
 40
0.0
  9
$WORLDVIEW
 70
     1
  9
$SHADEDGE
 70
     3
  9
$SHADEDIF
 70
    70
  9
$TILEMODE
 70
     1
  9
$MAXACTVP
 70
    16
  9
$PINSBASE
 10
0.0
 20
0.0
 30
0.0
  9
$PLIMCHECK
 70
     0
  9
$PEXTMIN
 10
1.000000E+20
 20
1.000000E+20
 30
1.000000E+20
  9
$PEXTMAX
 10
-1.000000E+20
 20
-1.000000E+20
 30
-1.000000E+20
  9
$PLIMMIN
 10
0.0
 20
0.0
  9
$PLIMMAX
 10
420.0
 20
297.0
  9
$UNITMODE
 70
     0
  9
$VISRETAIN
 70
     0
  9
$PLINEGEN
 70
     0
  9
$PSLTSCALE
 70
     1
  9
$TREEDEPTH
 70
  3020
  9
$PICKSTYLE
 70
     1
  9
$CMLSTYLE
  2
STANDARD
  9
$CMLJUST
 70
     0
  9
$CMLSCALE
 40
1.0
  9
$PROXYGRAPHICS
 70
     1
  9
$MEASUREMENT
 70
     0
  0
ENDSEC
  0
SECTION
  2
CLASSES
  0
CLASS
  1
DICTIONARYVAR
  2
AcDbDictionaryVar
  3
"AutoCAD"
 90
        0
280
     0
281
     0
  0
CLASS
  1
LWPOLYLINE
  2
AcDbPolyline
  3
"AutoCAD"
 90
        0
280
     0
281
     1
  0
ENDSEC
  0
SECTION
  2
TABLES
  0
TABLE
  2
VPORT
  5
8
100
AcDbSymbolTable
 70
     2
  0
VPORT
  5
14C
100
AcDbSymbolTableRecord
100
AcDbViewportTableRecord
  2
*ACTIVE
 70
     0
 10
0.0
 20
0.0
 11
1.0
 21
1.0
 12
306.592168
 22
169.899833
 13
0.0
 23
0.0
 14
5.0
 24
5.0
 15
10.0
 25
10.0
 16
0.0
 26
0.0
 36
1.0
 17
0.0
 27
0.0
 37
0.0
 40
913.330975
 41
1.465261
 42
50.0
 43
0.0
 44
0.0
 50
0.0
 51
0.0
 71
     0
 72
 20000
 73
     1
 74
     1
 75
     0
 76
     0
 77
     0
 78
     0
  0
ENDTAB
  0
TABLE
  2
LTYPE
  5
5
100
AcDbSymbolTable
 70
     1
  0
LTYPE
  5
11
100
AcDbSymbolTableRecord
100
AcDbLinetypeTableRecord
  2
BYBLOCK
 70
     0
  3

 72
    65
 73
     0
 40
0.0
  0
LTYPE
  5
12
100
AcDbSymbolTableRecord
100
AcDbLinetypeTableRecord
  2
BYLAYER
 70
     0
  3

 72
    65
 73
     0
 40
0.0
  0
LTYPE
  5
13
100
AcDbSymbolTableRecord
100
AcDbLinetypeTableRecord
  2
CONTINUOUS
 70
     0
  3
Solid line
 72
    65
 73
     0
 40
0.0
  0
ENDTAB
  0
TABLE
  2
LAYER
  5
2
100
AcDbSymbolTable
 70
    11
  0
LAYER
  5
E
100
AcDbSymbolTableRecord
100
AcDbLayerTableRecord
  2
0
 70
     0
 62
     7
  6
CONTINUOUS
  0
LAYER
  5
27
100
AcDbSymbolTableRecord
100
AcDbLayerTableRecord
  2
ANCON-ORIGIN
 70
     0
 62
     1
  6
CONTINUOUS
  0
LAYER
  5
28
100
AcDbSymbolTableRecord
100
AcDbLayerTableRecord
  2
ANCON-SUPPORT
 70
     0
 62
     3
  6
CONTINUOUS
  0
LAYER
  5
29
100
AcDbSymbolTableRecord
100
AcDbLayerTableRecord
  2
ANCON-STRUC
 70
     0
 62
     2
  6
CONTINUOUS
  0
LAYER
  5
2A
100
AcDbSymbolTableRecord
100
AcDbLayerTableRecord
  2
ANCON-MASONRY
 70
     0
 62
     1
  6
CONTINUOUS
  0
LAYER
  5
2B
100
AcDbSymbolTableRecord
100
AcDbLayerTableRecord
  2
DEFPOINTS
 70
     0
 62
     7
  6
CONTINUOUS
  0
LAYER
  5
2C
100
AcDbSymbolTableRecord
100
AcDbLayerTableRecord
  2
ANCON-DIM
 70
     0
 62
     1
  6
CONTINUOUS
  0
LAYER
  5
2D
100
AcDbSymbolTableRecord
100
AcDbLayerTableRecord
  2
ANCON-CHANNEL
 70
     0
 62
     1
  6
CONTINUOUS
  0
LAYER
  5
2E
100
AcDbSymbolTableRecord
100
AcDbLayerTableRecord
  2
ANCON-TEXT
 70
     0
 62
     6
  6
CONTINUOUS
  0
LAYER
  5
2F
100
AcDbSymbolTableRecord
100
AcDbLayerTableRecord
  2
ANCON-TIE
 70
     0
 62
     1
  6
CONTINUOUS
  0
LAYER
  5
30
100
AcDbSymbolTableRecord
100
AcDbLayerTableRecord
  2
GENTEXT
 70
     0
 62
     2
  6
CONTINUOUS
  0
ENDTAB
  0
TABLE
  2
STYLE
  5
3
100
AcDbSymbolTable
 70
     2
  0
STYLE
  5
F
100
AcDbSymbolTableRecord
100
AcDbTextStyleTableRecord
  2
STANDARD
 70
     0
 40
0.0
 41
1.0
 50
0.0
 71
     0
 42
3.0
  3
txt.shx
  4

  0
STYLE
  5
21
100
AcDbSymbolTableRecord
100
AcDbTextStyleTableRecord
  2
ROMANS
 70
     0
 40
0.0
 41
1.0
 50
0.0
 71
     0
 42
9.0
  3
romans
  4

  0
ENDTAB
  0
TABLE
  2
VIEW
  5
6
100
AcDbSymbolTable
 70
     0
  0
ENDTAB
  0
TABLE
  2
UCS
  5
7
100
AcDbSymbolTable
 70
     0
  0
ENDTAB
  0
TABLE
  2
APPID
  5
9
100
AcDbSymbolTable
 70
     1
  0
APPID
  5
10
100
AcDbSymbolTableRecord
100
AcDbRegAppTableRecord
  2
ACAD
 70
     0
  0
ENDTAB
  0
TABLE
  2
DIMSTYLE
  5
A
100
AcDbSymbolTable
 70
     1
  0
DIMSTYLE
105
24
100
AcDbSymbolTableRecord
100
AcDbDimStyleTableRecord
  2
1-5
 70
     0
  3

  4

  5

  6

  7

 40
5.0
 41
0.0
 42
4.5
 43
0.0
 44
1.5
 45
1.0
 46
1.25
 47
0.0
 48
0.0
140
1.8
141
0.0
142
1.0
143
0.04
144
1.0
145
0.0
146
1.25
147
0.1
 71
     0
 72
     0
 73
     0
 74
     0
 75
     0
 76
     0
 77
     1
 78
    12
170
     0
171
     2
172
     0
173
     0
174
     0
175
     0
176
     0
177
     0
178
     0
270
     2
271
     2
272
     2
273
     2
274
     2
340
21
275
     0
280
     0
281
     0
282
     0
283
     1
284
    12
285
    12
286
    12
287
     5
288
     0
  0
ENDTAB
  0
TABLE
  2
BLOCK_RECORD
  5
1
100
AcDbSymbolTable
 70
     5
  0
BLOCK_RECORD
  5
17
100
AcDbSymbolTableRecord
100
AcDbBlockTableRecord
  2
*MODEL_SPACE
  0
BLOCK_RECORD
  5
14
100
AcDbSymbolTableRecord
100
AcDbBlockTableRecord
  2
*PAPER_SPACE
  0
BLOCK_RECORD
  5
1C
100
AcDbSymbolTableRecord
100
AcDbBlockTableRecord
  2
OR
  0
ENDTAB
  0
ENDSEC
  0
SECTION
  2
BLOCKS
  0
BLOCK
  5
33
100
AcDbEntity
  8
0
100
AcDbBlockBegin
  2
*MODEL_SPACE
 70
     0
 10
0.0
 20
0.0
 30
0.0
  3
*MODEL_SPACE
  1

  0
ENDBLK
  5
34
100
AcDbEntity
  8
0
100
AcDbBlockEnd
  0
BLOCK
  5
31
100
AcDbEntity
 67
     1
  8
0
100
AcDbBlockBegin
  2
*PAPER_SPACE
 70
     0
 10
0.0
 20
0.0
 30
0.0
  3
*PAPER_SPACE
  1

  0
ENDBLK
  5
32
100
AcDbEntity
 67
     1
  8
0
100
AcDbBlockEnd
  0
BLOCK
  5
37
100
AcDbEntity
  8
0
100
AcDbBlockBegin
  2
OR
 70
     0
 10
0.0
 20
0.0
 30
0.0
  3
OR
  1

  0
LWPOLYLINE
  5
38
100
AcDbEntity
  8
ANCON-ORIGIN
100
AcDbPolyline
 90
        5
 70
     0
 43
0.0
 10
-10.173261
 20
-6.213917
 10
-10.173261
 20
6.213917
 10
10.173261
 20
-6.213917
 10
10.173261
 20
6.213917
 10
-10.173261
 20
-6.213917
  0
ENDBLK
  5
3F
100
AcDbEntity
  8
0
100
AcDbBlockEnd
  0
ENDSEC
  0
SECTION
  2
ENTITIES
  0
LINE
  5
6F
100
AcDbEntity
  8
ANCON-STRUC
100
AcDbLine
 10
0.0
 20
0.0
 30
0.0
 11
0.0
 21
365.0
 31
0.0
  0
LINE
  5
70
100
AcDbEntity
  8
ANCON-STRUC
100
AcDbLine
 10
0.0
 20
0.0
 30
0.0
 11
-150.010713
 21
0.0
 31
0.0
  0
LINE
  5
71
100
AcDbEntity
  8
ANCON-MASONRY
100
AcDbLine
 10
50.0
 20
15.0
 30
0.0
 11
50.0
 21
65.0
 31
0.0
  0
LINE
  5
72
100
AcDbEntity
  8
ANCON-MASONRY
100
AcDbLine
 10
152.5
 20
0.0
 30
0.0
 11
152.5
 21
65.0
 31
0.0
  0
LINE
  5
73
100
AcDbEntity
  8
ANCON-MASONRY
100
AcDbLine
 10
127.5
 20
0.0
 30
0.0
 11
152.5
 21
0.0
 31
0.0
  0
LINE
  5
74
100
AcDbEntity
  8
ANCON-MASONRY
100
AcDbLine
 10
50.0
 20
65.0
 30
0.0
 11
152.5
 21
65.0
 31
0.0
  0
LINE
  5
75
100
AcDbEntity
  8
ANCON-MASONRY
100
AcDbLine
 10
50.0
 20
75.0
 30
0.0
 11
152.5
 21
75.0
 31
0.0
  0
LINE
  5
76
100
AcDbEntity
  8
ANCON-MASONRY
100
AcDbLine
 10
50.0
 20
140.0
 30
0.0
 11
152.5
 21
140.0
 31
0.0
  0
LINE
  5
77
100
AcDbEntity
  8
ANCON-MASONRY
100
AcDbLine
 10
50.0
 20
75.0
 30
0.0
 11
50.0
 21
140.0
 31
0.0
  0
LINE
  5
78
100
AcDbEntity
  8
ANCON-MASONRY
100
AcDbLine
 10
152.5
 20
75.0
 30
0.0
 11
152.5
 21
140.0
 31
0.0
  0
LINE
  5
79
100
AcDbEntity
  8
ANCON-MASONRY
100
AcDbLine
 10
50.0
 20
215.0
 30
0.0
 11
152.5
 21
215.0
 31
0.0
  0
LINE
  5
7A
100
AcDbEntity
  8
ANCON-MASONRY
100
AcDbLine
 10
50.0
 20
150.0
 30
0.0
 11
152.5
 21
150.0
 31
0.0
  0
LINE
  5
7B
100
AcDbEntity
  8
ANCON-MASONRY
100
AcDbLine
 10
50.0
 20
150.0
 30
0.0
 11
50.0
 21
215.0
 31
0.0
  0
LINE
  5
7C
100
AcDbEntity
  8
ANCON-MASONRY
100
AcDbLine
 10
152.5
 20
150.0
 30
0.0
 11
152.5
 21
215.0
 31
0.0
  0
LINE
  5
7D
100
AcDbEntity
  8
ANCON-MASONRY
100
AcDbLine
 10
50.0
 20
290.0
 30
0.0
 11
152.5
 21
290.0
 31
0.0
  0
LINE
  5
7E
100
AcDbEntity
  8
ANCON-MASONRY
100
AcDbLine
 10
50.0
 20
225.0
 30
0.0
 11
152.5
 21
225.0
 31
0.0
  0
LINE
  5
7F
100
AcDbEntity
  8
ANCON-MASONRY
100
AcDbLine
 10
50.0
 20
225.0
 30
0.0
 11
50.0
 21
290.0
 31
0.0
  0
LINE
  5
80
100
AcDbEntity
  8
ANCON-MASONRY
100
AcDbLine
 10
152.5
 20
225.0
 30
0.0
 11
152.5
 21
290.0
 31
0.0
  0
LINE
  5
81
100
AcDbEntity
  8
ANCON-MASONRY
100
AcDbLine
 10
50.0
 20
-10.0
 30
0.0
 11
152.5
 21
-10.0
 31
0.0
  0
LINE
  5
82
100
AcDbEntity
  8
ANCON-MASONRY
100
AcDbLine
 10
50.0
 20
-75.0
 30
0.0
 11
50.0
 21
-10.0
 31
0.0
  0
LINE
  5
83
100
AcDbEntity
  8
ANCON-MASONRY
100
AcDbLine
 10
152.5
 20
-75.0
 30
0.0
 11
152.5
 21
-10.0
 31
0.0
  0
LINE
  5
84
100
AcDbEntity
  8
ANCON-MASONRY
100
AcDbLine
 10
127.5
 20
0.0
 30
0.0
 11
127.5
 21
15.0
 31
0.0
  0
LINE
  5
85
100
AcDbEntity
  8
ANCON-MASONRY
100
AcDbLine
 10
50.0
 20
15.0
 30
0.0
 11
127.5
 21
15.0
 31
0.0
  0
TEXT
  5
86
100
AcDbEntity
  8
ANCON-TEXT
100
AcDbText
 10
-388.353881
 20
114.764276
 30
0.0
 40
9.0
  1

  7
ROMANS
100
AcDbText
  0
TEXT
  5
87
100
AcDbEntity
  8
ANCON-TEXT
100
AcDbText
 10
-388.353881
 20
100.407172
 30
0.0
 40
9.0
  1

  7
ROMANS
100
AcDbText
  0
LINE
  5
88
100
AcDbEntity
  8
ANCON-MASONRY
100
AcDbLine
 10
50.0
 20
300.0
 30
0.0
 11
152.5
 21
300.0
 31
0.0
  0
LINE
  5
89
100
AcDbEntity
  8
ANCON-MASONRY
100
AcDbLine
 10
50.0
 20
300.0
 30
0.0
 11
50.0
 21
365.0
 31
0.0
  0
LINE
  5
8A
100
AcDbEntity
  8
ANCON-MASONRY
100
AcDbLine
 10
152.5
 20
300.0
 30
0.0
 11
152.5
 21
365.0
 31
0.0
  0
LINE
  5
8B
100
AcDbEntity
  8
ANCON-CHANNEL
100
AcDbLine
 10
0.0
 20
245.0
 30
0.0
 11
-18.0
 21
245.0
 31
0.0
  0
LINE
  5
8C
100
AcDbEntity
  8
ANCON-CHANNEL
100
AcDbLine
 10
0.0
 20
345.0
 30
0.0
 11
-18.0
 21
345.0
 31
0.0
  0
LINE
  5
8D
100
AcDbEntity
  8
ANCON-CHANNEL
100
AcDbLine
 10
-18.0
 20
345.0
 30
0.0
 11
-18.0
 21
245.0
 31
0.0
  0
LINE
  5
8E
100
AcDbEntity
  8
ANCON-CHANNEL
100
AcDbLine
 10
0.0
 20
345.0
 30
0.0
 11
0.0
 21
245.0
 31
0.0
  0
LINE
  5
8F
100
AcDbEntity
  8
ANCON-CHANNEL
100
AcDbLine
 10
-11.0
 20
345.0
 30
0.0
 11
-11.0
 21
245.0
 31
0.0
  0
LINE
  5
90
100
AcDbEntity
  8
ANCON-TIE
100
AcDbLine
 10
115.0
 20
296.25
 30
0.0
 11
40.0
 21
296.25
 31
0.0
  0
LINE
  5
91
100
AcDbEntity
  8
ANCON-TIE
100
AcDbLine
 10
115.0
 20
293.75
 30
0.0
 11
40.0
 21
293.75
 31
0.0
  0
LINE
  5
92
100
AcDbEntity
  8
ANCON-TIE
100
AcDbLine
 10
115.0
 20
296.25
 30
0.0
 11
115.0
 21
293.75
 31
0.0
  0
LINE
  5
93
100
AcDbEntity
  8
ANCON-TIE
100
AcDbLine
 10
10.0
 20
296.25
 30
0.0
 11
0.0
 21
296.25
 31
0.0
  0
LINE
  5
94
100
AcDbEntity
  8
ANCON-TIE
100
AcDbLine
 10
10.0
 20
293.75
 30
0.0
 11
0.0
 21
293.75
 31
0.0
  0
LINE
  5
95
100
AcDbEntity
  8
ANCON-TIE
100
AcDbLine
 10
10.0
 20
296.25
 30
0.0
 11
25.0
 21
292.25
 31
0.0
  0
LINE
  5
96
100
AcDbEntity
  8
ANCON-TIE
100
AcDbLine
 10
25.0
 20
292.25
 30
0.0
 11
40.0
 21
296.25
 31
0.0
  0
LINE
  5
97
100
AcDbEntity
  8
ANCON-TIE
100
AcDbLine
 10
25.0
 20
289.75
 30
0.0
 11
40.0
 21
293.75
 31
0.0
  0
LINE
  5
98
100
AcDbEntity
  8
ANCON-TIE
100
AcDbLine
 10
10.0
 20
293.75
 30
0.0
 11
25.0
 21
289.75
 31
0.0
  0
TEXT
  5
99
100
AcDbEntity
  8
GENTEXT
100
AcDbText
 10
787.86746
 20
408.490406
 30
0.0
 40
9.0
  1

  7
ROMANS
100
AcDbText
  0
TEXT
  5
9A
100
AcDbEntity
  8
ANCON-TEXT
100
AcDbText
 10
146.448497
 20
5.91355
 30
0.0
 40
9.0
  1

  7
ROMANS
100
AcDbText
  0
TEXT
  5
9B
100
AcDbEntity
  8
ANCON-TEXT
100
AcDbText
 10
146.448497
 20
-8.443553
 30
0.0
 40
9.0
  1

  7
ROMANS
100
AcDbText
  0
TEXT
  5
A7
100
AcDbEntity
  8
ANCON-TEXT
100
AcDbText
 10
305.784133
 20
231.364627
 30
0.0
 40
9.0
  1

  7
ROMANS
100
AcDbText
  0
TEXT
  5
BB
100
AcDbEntity
  8
ANCON-TEXT
100
AcDbText
 10
305.784133
 20
-233.604074
 30
0.0
 40
9.0
  1

  7
ROMANS
100
AcDbText
  0
TEXT
  5
C3
100
AcDbEntity
  8
ANCON-TEXT
100
AcDbText
 10
305.784133
 20
-174.789879
 30
0.0
 40
9.0
  1

  7
ROMANS
100
AcDbText
  0
LINE
  5
C4
100
AcDbEntity
  8
ANCON-SUPPORT
100
AcDbLine
 10
0.0
 20
150.0
 30
0.0
 11
0.0
 21
16.0
 31
0.0
  0
LINE
  5
C5
100
AcDbEntity
  8
ANCON-SUPPORT
100
AcDbLine
 10
16.0
 20
0.0
 30
0.0
 11
120.0
 21
0.0
 31
0.0
  0
LINE
  5
C6
100
AcDbEntity
  8
ANCON-SUPPORT
100
AcDbLine
 10
8.0
 20
150.0
 30
0.0
 11
8.0
 21
16.0
 31
0.0
  0
LINE
  5
C7
100
AcDbEntity
  8
ANCON-SUPPORT
100
AcDbLine
 10
16.0
 20
8.0
 30
0.0
 11
120.0
 21
8.0
 31
0.0
  0
LINE
  5
C8
100
AcDbEntity
  8
ANCON-SUPPORT
100
AcDbLine
 10
0.0
 20
150.0
 30
0.0
 11
8.0
 21
150.0
 31
0.0
  0
LINE
  5
C9
100
AcDbEntity
  8
ANCON-SUPPORT
100
AcDbLine
 10
120.0
 20
8.0
 30
0.0
 11
120.0
 21
0.0
 31
0.0
  0
ARC
  5
CA
100
AcDbEntity
  8
ANCON-SUPPORT
100
AcDbCircle
 10
16.0
 20
16.0
 30
0.0
 40
8.0
100
AcDbArc
 50
180.0
 51
270.0
  0
ARC
  5
CB
100
AcDbEntity
  8
ANCON-SUPPORT
100
AcDbCircle
 10
16.0
 20
16.0
 30
0.0
 40
16.0
100
AcDbArc
 50
180.0
 51
270.0
  0
LINE
  5
CD
100
AcDbEntity
  8
ANCON-CHANNEL
100
AcDbLine
 10
-27.0
 20
160.0
 30
0.0
 11
0.0
 21
160.0
 31
0.0
  0
LINE
  5
CE
100
AcDbEntity
  8
ANCON-CHANNEL
100
AcDbLine
 10
0.0
 20
60.0
 30
0.0
 11
-27.0
 21
60.0
 31
0.0
  0
ARC
  5
CF
100
AcDbEntity
  8
ANCON-CHANNEL
100
AcDbCircle
 10
-25.352266
 20
78.675628
 30
0.0
 40
5.431588
100
AcDbArc
 50
252.340398
 51
351.287199
  0
ARC
  5
D0
100
AcDbEntity
  8
ANCON-CHANNEL
100
AcDbCircle
 10
-25.630503
 20
78.926257
 30
0.0
 40
2.786081
100
AcDbArc
 50
240.557521
 51
337.338998
  0
ARC
  5
D1
100
AcDbEntity
  8
ANCON-CHANNEL
100
AcDbCircle
 10
-25.352266
 20
141.324372
 30
0.0
 40
5.431588
100
AcDbArc
 50
8.712801
 51
107.659602
  0
ARC
  5
D2
100
AcDbEntity
  8
ANCON-CHANNEL
100
AcDbCircle
 10
-25.630503
 20
141.073743
 30
0.0
 40
2.786081
100
AcDbArc
 50
22.661002
 51
119.442479
  0
LINE
  5
D3
100
AcDbEntity
  8
ANCON-CHANNEL
100
AcDbLine
 10
0.0
 20
160.0
 30
0.0
 11
0.0
 21
60.0
 31
0.0
  0
LINE
  5
D4
100
AcDbEntity
  8
ANCON-CHANNEL
100
AcDbLine
 10
-8.0
 20
120.4017
 30
0.0
 11
-5.171573
 21
117.573273
 31
0.0
  0
LINE
  5
D5
100
AcDbEntity
  8
ANCON-CHANNEL
100
AcDbLine
 10
-16.0
 20
119.25
 30
0.0
 11
-16.0
 21
101.25
 31
0.0
  0
LINE
  5
D6
100
AcDbEntity
  8
ANCON-CHANNEL
100
AcDbLine
 10
-23.069921
 20
77.82823
 30
0.0
 11
-23.069921
 21
142.17177
 31
0.0
  0
LINE
  5
D7
100
AcDbEntity
  8
ANCON-CHANNEL
100
AcDbLine
 10
-20.0
 20
142.249246
 30
0.0
 11
-20.0
 21
77.750754
 31
0.0
  0
LINE
  5
D8
100
AcDbEntity
  8
ANCON-CHANNEL
100
AcDbLine
 10
-8.0
 20
154.3431
 30
0.0
 11
-5.171573
 21
151.514673
 31
0.0
  0
LINE
  5
D9
100
AcDbEntity
  8
ANCON-CHANNEL
100
AcDbLine
 10
-22.0
 20
160.0
 30
0.0
 11
-22.0
 21
145.598066
 31
0.0
  0
LINE
  5
DA
100
AcDbEntity
  8
ANCON-CHANNEL
100
AcDbLine
 10
-8.0
 20
160.0
 30
0.0
 11
-5.171573
 21
157.171573
 31
0.0
  0
LINE
  5
DB
100
AcDbEntity
  8
ANCON-CHANNEL
100
AcDbLine
 10
-5.171573
 20
157.171573
 30
0.0
 11
-8.0
 21
154.343146
 31
0.0
  0
LINE
  5
DC
100
AcDbEntity
  8
ANCON-CHANNEL
100
AcDbLine
 10
-6.8483
 20
119.25
 30
0.0
 11
-16.0
 21
119.25
 31
0.0
  0
LINE
  5
DD
100
AcDbEntity
  8
ANCON-CHANNEL
100
AcDbLine
 10
-8.0
 20
137.3724
 30
0.0
 11
-5.171573
 21
134.543973
 31
0.0
  0
LINE
  5
DE
100
AcDbEntity
  8
ANCON-CHANNEL
100
AcDbLine
 10
-8.0
 20
143.0293
 30
0.0
 11
-5.171573
 21
140.200873
 31
0.0
  0
LINE
  5
DF
100
AcDbEntity
  8
ANCON-CHANNEL
100
AcDbLine
 10
-8.0
 20
148.6862
 30
0.0
 11
-5.171573
 21
145.857773
 31
0.0
  0
LINE
  5
E0
100
AcDbEntity
  8
ANCON-CHANNEL
100
AcDbLine
 10
-5.171573
 20
145.857773
 30
0.0
 11
-8.0
 21
143.029346
 31
0.0
  0
LINE
  5
E1
100
AcDbEntity
  8
ANCON-CHANNEL
100
AcDbLine
 10
-5.171573
 20
151.514673
 30
0.0
 11
-8.0
 21
148.686246
 31
0.0
  0
LINE
  5
E2
100
AcDbEntity
  8
ANCON-CHANNEL
100
AcDbLine
 10
-5.171573
 20
140.200873
 30
0.0
 11
-8.0
 21
137.372446
 31
0.0
  0
LINE
  5
E3
100
AcDbEntity
  8
ANCON-CHANNEL
100
AcDbLine
 10
-8.0
 20
131.7155
 30
0.0
 11
-5.171573
 21
128.887073
 31
0.0
  0
LINE
  5
E4
100
AcDbEntity
  8
ANCON-CHANNEL
100
AcDbLine
 10
-8.0
 20
126.0586
 30
0.0
 11
-5.171573
 21
123.230173
 31
0.0
  0
LINE
  5
E5
100
AcDbEntity
  8
ANCON-CHANNEL
100
AcDbLine
 10
-5.171573
 20
123.230173
 30
0.0
 11
-8.0
 21
120.401746
 31
0.0
  0
LINE
  5
E6
100
AcDbEntity
  8
ANCON-CHANNEL
100
AcDbLine
 10
-5.171573
 20
128.887073
 30
0.0
 11
-8.0
 21
126.058646
 31
0.0
  0
LINE
  5
E7
100
AcDbEntity
  8
ANCON-CHANNEL
100
AcDbLine
 10
-5.171573
 20
134.543973
 30
0.0
 11
-8.0
 21
131.715546
 31
0.0
  0
LINE
  5
E8
100
AcDbEntity
  8
ANCON-CHANNEL
100
AcDbLine
 10
-23.069921
 20
143.426636
 30
0.0
 11
-23.069921
 21
143.482925
 31
0.0
  0
LINE
  5
E9
100
AcDbEntity
  8
ANCON-CHANNEL
100
AcDbLine
 10
-8.0
 20
86.4603
 30
0.0
 11
-5.171573
 21
83.631873
 31
0.0
  0
LINE
  5
EA
100
AcDbEntity
  8
ANCON-CHANNEL
100
AcDbLine
 10
-5.819
 20
101.25
 30
0.0
 11
-16.0
 21
101.25
 31
0.0
  0
LINE
  5
EB
100
AcDbEntity
  8
ANCON-CHANNEL
100
AcDbLine
 10
-8.0
 20
103.431
 30
0.0
 11
-5.171573
 21
100.602573
 31
0.0
  0
LINE
  5
EC
100
AcDbEntity
  8
ANCON-CHANNEL
100
AcDbLine
 10
-5.171573
 20
111.916373
 30
0.0
 11
-8.0
 21
109.087946
 31
0.0
  0
LINE
  5
ED
100
AcDbEntity
  8
ANCON-CHANNEL
100
AcDbLine
 10
-8.0
 20
109.0879
 30
0.0
 11
-5.171573
 21
106.259473
 31
0.0
  0
LINE
  5
EE
100
AcDbEntity
  8
ANCON-CHANNEL
100
AcDbLine
 10
-5.171573
 20
106.259473
 30
0.0
 11
-8.0
 21
103.431046
 31
0.0
  0
LINE
  5
EF
100
AcDbEntity
  8
ANCON-CHANNEL
100
AcDbLine
 10
-5.171573
 20
117.573273
 30
0.0
 11
-8.0
 21
114.744846
 31
0.0
  0
LINE
  5
F0
100
AcDbEntity
  8
ANCON-CHANNEL
100
AcDbLine
 10
-8.0
 20
114.7448
 30
0.0
 11
-5.171573
 21
111.916373
 31
0.0
  0
LINE
  5
F1
100
AcDbEntity
  8
ANCON-CHANNEL
100
AcDbLine
 10
-5.171573
 20
100.602573
 30
0.0
 11
-8.0
 21
97.774146
 31
0.0
  0
LINE
  5
F2
100
AcDbEntity
  8
ANCON-CHANNEL
100
AcDbLine
 10
-8.0
 20
92.1172
 30
0.0
 11
-5.171573
 21
89.288773
 31
0.0
  0
LINE
  5
F3
100
AcDbEntity
  8
ANCON-CHANNEL
100
AcDbLine
 10
-5.171573
 20
89.288773
 30
0.0
 11
-8.0
 21
86.460346
 31
0.0
  0
LINE
  5
F4
100
AcDbEntity
  8
ANCON-CHANNEL
100
AcDbLine
 10
-8.0
 20
97.7741
 30
0.0
 11
-5.171573
 21
94.945673
 31
0.0
  0
LINE
  5
F5
100
AcDbEntity
  8
ANCON-CHANNEL
100
AcDbLine
 10
-5.171573
 20
94.945673
 30
0.0
 11
-8.0
 21
92.117246
 31
0.0
  0
LINE
  5
F6
100
AcDbEntity
  8
ANCON-CHANNEL
100
AcDbLine
 10
-8.0
 20
69.4896
 30
0.0
 11
-5.171573
 21
66.661173
 31
0.0
  0
LINE
  5
F7
100
AcDbEntity
  8
ANCON-CHANNEL
100
AcDbLine
 10
-8.0
 20
80.8034
 30
0.0
 11
-5.171573
 21
77.974973
 31
0.0
  0
LINE
  5
F8
100
AcDbEntity
  8
ANCON-CHANNEL
100
AcDbLine
 10
-5.171573
 20
83.631873
 30
0.0
 11
-8.0
 21
80.803446
 31
0.0
  0
LINE
  5
F9
100
AcDbEntity
  8
ANCON-CHANNEL
100
AcDbLine
 10
-8.0
 20
75.1465
 30
0.0
 11
-5.171573
 21
72.318073
 31
0.0
  0
LINE
  5
FA
100
AcDbEntity
  8
ANCON-CHANNEL
100
AcDbLine
 10
-5.171573
 20
72.318073
 30
0.0
 11
-8.0
 21
69.489646
 31
0.0
  0
LINE
  5
FB
100
AcDbEntity
  8
ANCON-CHANNEL
100
AcDbLine
 10
-5.171573
 20
77.974973
 30
0.0
 11
-8.0
 21
75.146546
 31
0.0
  0
LINE
  5
FC
100
AcDbEntity
  8
ANCON-CHANNEL
100
AcDbLine
 10
-8.0
 20
63.8327
 30
0.0
 11
-5.171573
 21
61.004273
 31
0.0
  0
LINE
  5
FD
100
AcDbEntity
  8
ANCON-CHANNEL
100
AcDbLine
 10
-5.171573
 20
61.004273
 30
0.0
 11
-6.175846
 21
60.0
 31
0.0
  0
LINE
  5
FE
100
AcDbEntity
  8
ANCON-CHANNEL
100
AcDbLine
 10
-5.171573
 20
66.661173
 30
0.0
 11
-8.0
 21
63.832746
 31
0.0
  0
LINE
  5
FF
100
AcDbEntity
  8
ANCON-CHANNEL
100
AcDbLine
 10
-22.0
 20
74.401934
 30
0.0
 11
-22.0
 21
60.0
 31
0.0
  0
LINE
  5
100
100
AcDbEntity
  8
ANCON-CHANNEL
100
AcDbLine
 10
-27.0
 20
76.5
 30
0.0
 11
-27.0
 21
143.5
 31
0.0
  0
LWPOLYLINE
  5
101
100
AcDbEntity
  8
ANCON-CHANNEL
100
AcDbPolyline
 90
        4
 70
     0
 43
0.0
 10
-87.0
 20
143.5
 42
0.2
 10
-67.0
 20
143.5
 42
-0.2
 10
-47.0
 20
143.5
 42
0.2
 10
-27.0
 20
143.5
 42
-0.2
  0
LWPOLYLINE
  5
107
100
AcDbEntity
  8
ANCON-CHANNEL
100
AcDbPolyline
 90
        4
 70
     0
 43
0.0
 10
-87.0
 20
146.5
 42
0.2
 10
-67.0
 20
146.5
 42
-0.2
 10
-47.0
 20
146.5
 42
0.2
 10
-27.0
 20
146.5
 42
-0.2
  0
LINE
  5
10D
100
AcDbEntity
  8
ANCON-CHANNEL
100
AcDbLine
 10
-27.0
 20
146.5
 30
0.0
 11
-27.0
 21
160.0
 31
0.0
  0
LINE
  5
10E
100
AcDbEntity
  8
ANCON-CHANNEL
100
AcDbLine
 10
-87.0
 20
143.5
 30
0.0
 11
-87.0
 21
146.5
 31
0.0
  0
LWPOLYLINE
  5
10F
100
AcDbEntity
  8
ANCON-CHANNEL
100
AcDbPolyline
 90
        4
 70
     0
 43
0.0
 10
-87.0
 20
76.5
 42
-0.2
 10
-67.0
 20
76.5
 42
0.2
 10
-47.0
 20
76.5
 42
-0.2
 10
-27.0
 20
76.5
 42
0.2
  0
LWPOLYLINE
  5
115
100
AcDbEntity
  8
ANCON-CHANNEL
100
AcDbPolyline
 90
        4
 70
     0
 43
0.0
 10
-87.0
 20
73.5
 42
-0.2
 10
-67.0
 20
73.5
 42
0.2
 10
-47.0
 20
73.5
 42
-0.2
 10
-27.0
 20
73.5
 42
0.2
  0
LINE
  5
11B
100
AcDbEntity
  8
ANCON-CHANNEL
100
AcDbLine
 10
-27.0
 20
60.0
 30
0.0
 11
-27.0
 21
73.5
 31
0.0
  0
LINE
  5
11C
100
AcDbEntity
  8
ANCON-CHANNEL
100
AcDbLine
 10
-87.0
 20
73.5
 30
0.0
 11
-87.0
 21
76.5
 31
0.0
  0
TEXT
  5
11D
100
AcDbEntity
  8
ANCON-TEXT
100
AcDbText
 10
-507.457363
 20
242.985286
 30
0.0
 40
9.0
  1

  7
ROMANS
100
AcDbText
  0
TEXT
  5
11E
100
AcDbEntity
  8
ANCON-TEXT
100
AcDbText
 10
-504.325612
 20
180.27729
 30
0.0
 40
9.0
  1

  7
ROMANS
100
AcDbText
  0
TEXT
  5
11F
100
AcDbEntity
  8
ANCON-TEXT
100
AcDbText
 10
-504.325612
 20
165.920187
 30
0.0
 40
9.0
  1

  7
ROMANS
100
AcDbText
  0
LINE
  5
120
100
AcDbEntity
  8
ANCON-CHANNEL
100
AcDbLine
 10
26.88276
 20
102.215221
 30
0.0
 11
38.54748
 21
102.215221
 31
0.0
  0
LINE
  5
121
100
AcDbEntity
  8
ANCON-CHANNEL
100
AcDbLine
 10
26.88276
 20
103.667741
 30
0.0
 11
40.0
 21
103.667741
 31
0.0
  0
LINE
  5
122
100
AcDbEntity
  8
ANCON-CHANNEL
100
AcDbLine
 10
26.88276
 20
118.219086
 30
0.0
 11
38.54748
 21
118.219086
 31
0.0
  0
LINE
  5
123
100
AcDbEntity
  8
ANCON-CHANNEL
100
AcDbLine
 10
26.88276
 20
116.766566
 30
0.0
 11
40.0
 21
116.766566
 31
0.0
  0
LINE
  5
124
100
AcDbEntity
  8
ANCON-CHANNEL
100
AcDbLine
 10
12.35756
 20
122.016166
 30
0.0
 11
12.35756
 21
97.983834
 31
0.0
  0
LINE
  5
125
100
AcDbEntity
  8
ANCON-CHANNEL
100
AcDbLine
 10
26.88276
 20
122.016166
 30
0.0
 11
26.88276
 21
97.983834
 31
0.0
  0
ARC
  5
126
100
AcDbEntity
  8
ANCON-CHANNEL
100
AcDbCircle
 10
28.33528
 20
110.0
 30
0.0
 40
15.97772
100
AcDbArc
 50
149.727359
 51
210.272641
  0
ARC
  5
127
100
AcDbEntity
  8
ANCON-CHANNEL
100
AcDbCircle
 10
10.90504
 20
110.0
 30
0.0
 40
15.97772
100
AcDbArc
 50
329.727359
 51
30.272641
  0
LINE
  5
128
100
AcDbEntity
  8
ANCON-CHANNEL
100
AcDbLine
 10
12.35756
 20
131.7878
 30
0.0
 11
12.35756
 21
88.2122
 31
0.0
  0
LINE
  5
129
100
AcDbEntity
  8
ANCON-CHANNEL
100
AcDbLine
 10
8.0
 20
131.7878
 30
0.0
 11
8.0
 21
88.2122
 31
0.0
  0
LINE
  5
12A
100
AcDbEntity
  8
ANCON-CHANNEL
100
AcDbLine
 10
26.88276
 20
110.0
 30
0.0
 11
26.88276
 21
101.28488
 31
0.0
  0
LINE
  5
12B
100
AcDbEntity
  8
ANCON-CHANNEL
100
AcDbLine
 10
8.0
 20
88.2122
 30
0.0
 11
12.35756
 21
88.2122
 31
0.0
  0
LINE
  5
12C
100
AcDbEntity
  8
ANCON-CHANNEL
100
AcDbLine
 10
14.53634
 20
101.945387
 30
0.0
 11
24.70398
 21
101.945387
 31
0.0
  0
LINE
  5
12D
100
AcDbEntity
  8
ANCON-CHANNEL
100
AcDbLine
 10
14.53634
 20
94.02228
 30
0.0
 11
24.70398
 21
94.02228
 31
0.0
  0
ARC
  5
12E
100
AcDbEntity
  8
ANCON-CHANNEL
100
AcDbCircle
 10
17.048485
 20
97.983834
 30
0.0
 40
4.690925
100
AcDbArc
 50
122.380065
 51
237.619935
  0
ARC
  5
12F
100
AcDbEntity
  8
ANCON-CHANNEL
100
AcDbCircle
 10
22.191834
 20
97.983834
 30
0.0
 40
4.690925
100
AcDbArc
 50
302.380065
 51
57.619935
  0
LINE
  5
130
100
AcDbEntity
  8
ANCON-CHANNEL
100
AcDbLine
 10
12.35756
 20
131.7878
 30
0.0
 11
8.0
 21
131.7878
 31
0.0
  0
LINE
  5
131
100
AcDbEntity
  8
ANCON-CHANNEL
100
AcDbLine
 10
14.53634
 20
125.97772
 30
0.0
 11
24.70398
 21
125.97772
 31
0.0
  0
LINE
  5
132
100
AcDbEntity
  8
ANCON-CHANNEL
100
AcDbLine
 10
14.53634
 20
118.054613
 30
0.0
 11
24.70398
 21
118.054613
 31
0.0
  0
ARC
  5
133
100
AcDbEntity
  8
ANCON-CHANNEL
100
AcDbCircle
 10
17.048485
 20
122.016166
 30
0.0
 40
4.690925
100
AcDbArc
 50
122.380065
 51
237.619935
  0
ARC
  5
134
100
AcDbEntity
  8
ANCON-CHANNEL
100
AcDbCircle
 10
22.191834
 20
122.016166
 30
0.0
 40
4.690925
100
AcDbArc
 50
302.380065
 51
57.619935
  0
LINE
  5
135
100
AcDbEntity
  8
ANCON-CHANNEL
100
AcDbLine
 10
40.0
 20
116.766566
 30
0.0
 11
40.0
 21
103.667741
 31
0.0
  0
LINE
  5
136
100
AcDbEntity
  8
ANCON-CHANNEL
100
AcDbLine
 10
38.54748
 20
118.219086
 30
0.0
 11
38.54748
 21
102.215221
 31
0.0
  0
LINE
  5
137
100
AcDbEntity
  8
ANCON-CHANNEL
100
AcDbLine
 10
38.54748
 20
102.215221
 30
0.0
 11
40.0
 21
103.667741
 31
0.0
  0
LINE
  5
138
100
AcDbEntity
  8
ANCON-CHANNEL
100
AcDbLine
 10
38.54748
 20
118.219086
 30
0.0
 11
40.0
 21
116.766566
 31
0.0
  0
TEXT
  5
139
100
AcDbEntity
  8
ANCON-TEXT
100
AcDbText
 10
-617.122151
 20
337.989797
 30
0.0
 40
9.0
  1

  7
ROMANS
100
AcDbText
  0
TEXT
  5
13A
100
AcDbEntity
  8
ANCON-TEXT
100
AcDbText
 10
-613.9904
 20
275.281801
 30
0.0
 40
9.0
  1

  7
ROMANS
100
AcDbText
  0
TEXT
  5
13B
100
AcDbEntity
  8
ANCON-TEXT
100
AcDbText
 10
-613.9904
 20
260.924698
 30
0.0
 40
9.0
  1

  7
ROMANS
100
AcDbText
  0
TEXT
  5
13C
100
AcDbEntity
  8
ANCON-TEXT
100
AcDbText
 10
-646.647722
 20
405.718712
 30
0.0
 40
9.0
  1

  7
ROMANS
100
AcDbText
  0
TEXT
  5
13D
100
AcDbEntity
  8
ANCON-TEXT
100
AcDbText
 10
-643.515971
 20
343.010716
 30
0.0
 40
9.0
  1

  7
ROMANS
100
AcDbText
  0
TEXT
  5
13E
100
AcDbEntity
  8
ANCON-TEXT
100
AcDbText
 10
-643.515971
 20
328.653613
 30
0.0
 40
9.0
  1

  7
ROMANS
100
AcDbText
  0
TEXT
  5
13F
100
AcDbEntity
  8
ANCON-TEXT
100
AcDbText
 10
206.702528
 20
260.172976
 30
0.0
 40
9.0
  1
and carry 5.6 kilonewtons load per metre run.
  7
ROMANS
100
AcDbText
  0
TEXT
  5
140
100
AcDbEntity
  8
ANCON-TEXT
100
AcDbText
 10
206.702528
 20
274.744405
 30
0.0
 40
9.0
  1
Ancon Building Products will design a system to suit a 35mm cavity
  7
ROMANS
100
AcDbText
  0
TEXT
  5
141
100
AcDbEntity
  8
ANCON-TEXT
100
AcDbText
 10
206.702528
 20
289.315833
 30
0.0
 40
9.0
  1
cavity width/load from masonry ie. CFA/35/5.6
  7
ROMANS
100
AcDbText
  0
TEXT
  5
142
100
AcDbEntity
  8
ANCON-TEXT
100
AcDbText
 10
206.702528
 20
303.887262
 30
0.0
 40
9.0
  1
Ancon CFA Systems can be specified by the
  7
ROMANS
100
AcDbText
  0
VIEWPORT
  5
6D
100
AcDbEntity
 67
     1
  8
0
100
AcDbViewport
 10
6.124108
 20
4.5
 30
0.0
 40
12.248217
 41
9.0
 68
    -1
 69
     1
1001
ACAD
1000
MVIEW
1002
{
1070
    16
1010
0.0
1020
0.0
1030
0.0
1010
0.0
1020
0.0
1030
1.0
1040
0.0
1040
9.0
1040
6.124108
1040
4.5
1040
50.0
1040
0.0
1040
0.0
1070
     0
1070
   100
1070
     1
1070
     1
1070
     0
1070
     0
1070
     0
1070
     0
1040
0.0
1040
0.0
1040
0.0
1040
1.0
1040
1.0
1040
0.0
1040
0.0
1070
     0
1002
{
1002
}
1002
}
  0
ENDSEC
  0
SECTION
  2
OBJECTS
  0
DICTIONARY
  5
C
100
AcDbDictionary
  3
ACAD_GROUP
350
D
  3
ACAD_MLINESTYLE
350
1A
  3
ACDBVARIABLEDICTIONARY
350
35
  0
DICTIONARY
  5
D
102
{ACAD_REACTORS
330
C
102
}
100
AcDbDictionary
  0
DICTIONARY
  5
1A
102
{ACAD_REACTORS
330
C
102
}
100
AcDbDictionary
  3
STANDARD
350
1B
  0
DICTIONARY
  5
35
102
{ACAD_REACTORS
330
C
102
}
100
AcDbDictionary
  3
DIMADEC
350
36
  0
MLINESTYLE
  5
1B
102
{ACAD_REACTORS
330
1A
102
}
100
AcDbMlineStyle
  2
STANDARD
 70
     0
  3

 62
   256
 51
90.0
 52
90.0
 71
     2
 49
0.5
 62
   256
  6
BYLAYER
 49
-0.5
 62
   256
  6
BYLAYER
  0
DICTIONARYVAR
  5
36
102
{ACAD_REACTORS
330
35
102
}
100
DictionaryVariables
280
     0
  1
4
  0
ENDSEC
  0
EOF
