  0
SECTION
  2
HEADER
  9
$ACADVER
  1
AC1015
  9
$ACADMAINTVER
 70
    10
  9
$DWGCODEPAGE
  3
ANSI_1252
  9
$INSBASE
 10
0.0
 20
0.0
 30
0.0
  9
$EXTMIN
 10
-416.3312880426405
 20
-211.4254336893459
 30
-0.0015258207003583
  9
$EXTMAX
 10
707.5285657258969
 20
440.8059874213286
 30
0.0000000349246037
  9
$LIMMIN
 10
0.0
 20
0.0
  9
$LIMMAX
 10
420.0
 20
297.0
  9
$ORTHOMODE
 70
     1
  9
$REGENMODE
 70
     1
  9
$FILLMODE
 70
     1
  9
$QTEXTMODE
 70
     0
  9
$MIRRTEXT
 70
     1
  9
$LTSCALE
 40
1.0
  9
$ATTMODE
 70
     1
  9
$TEXTSIZE
 40
9.0
  9
$TRACEWID
 40
10.0
  9
$TEXTSTYLE
  7
ROMANS
  9
$CLAYER
  8
0
  9
$CELTYPE
  6
BYLAYER
  9
$CECOLOR
 62
   256
  9
$CELTSCALE
 40
1.0
  9
$DISPSILH
 70
     0
  9
$DIMSCALE
 40
5.0
  9
$DIMASZ
 40
0.0
  9
$DIMEXO
 40
4.5
  9
$DIMDLI
 40
0.0
  9
$DIMRND
 40
1.0
  9
$DIMDLE
 40
1.25
  9
$DIMEXE
 40
1.5
  9
$DIMTP
 40
0.0
  9
$DIMTM
 40
0.0
  9
$DIMTXT
 40
1.8
  9
$DIMCEN
 40
0.0
  9
$DIMTSZ
 40
1.0
  9
$DIMTOL
 70
     0
  9
$DIMLIM
 70
     0
  9
$DIMTIH
 70
     0
  9
$DIMTOH
 70
     0
  9
$DIMSE1
 70
     0
  9
$DIMSE2
 70
     0
  9
$DIMTAD
 70
     1
  9
$DIMZIN
 70
    12
  9
$DIMBLK
  1

  9
$DIMASO
 70
     1
  9
$DIMSHO
 70
     0
  9
$DIMPOST
  1

  9
$DIMAPOST
  1

  9
$DIMALT
 70
     0
  9
$DIMALTD
 70
     2
  9
$DIMALTF
 40
0.04
  9
$DIMLFAC
 40
1.0
  9
$DIMTOFL
 70
     0
  9
$DIMTVP
 40
0.0
  9
$DIMTIX
 70
     0
  9
$DIMSOXD
 70
     0
  9
$DIMSAH
 70
     0
  9
$DIMBLK1
  1

  9
$DIMBLK2
  1

  9
$DIMSTYLE
  2
1-5
  9
$DIMCLRD
 70
     0
  9
$DIMCLRE
 70
     0
  9
$DIMCLRT
 70
     0
  9
$DIMTFAC
 40
1.25
  9
$DIMGAP
 40
0.1
  9
$DIMJUST
 70
     0
  9
$DIMSD1
 70
     0
  9
$DIMSD2
 70
     0
  9
$DIMTOLJ
 70
     1
  9
$DIMTZIN
 70
    12
  9
$DIMALTZ
 70
    12
  9
$DIMALTTZ
 70
    12
  9
$DIMUPT
 70
     0
  9
$DIMDEC
 70
     2
  9
$DIMTDEC
 70
     2
  9
$DIMALTU
 70
     2
  9
$DIMALTTD
 70
     2
  9
$DIMTXSTY
  7
ROMANS
  9
$DIMAUNIT
 70
     0
  9
$DIMADEC
 70
     0
  9
$DIMALTRND
 40
0.0
  9
$DIMAZIN
 70
     0
  9
$DIMDSEP
 70
    46
  9
$DIMATFIT
 70
     3
  9
$DIMFRAC
 70
     0
  9
$DIMLDRBLK
  1

  9
$DIMLUNIT
 70
     2
  9
$DIMLWD
 70
    -2
  9
$DIMLWE
 70
    -2
  9
$DIMTMOVE
 70
     2
  9
$LUNITS
 70
     2
  9
$LUPREC
 70
     2
  9
$SKETCHINC
 40
1.0
  9
$FILLETRAD
 40
0.0
  9
$AUNITS
 70
     0
  9
$AUPREC
 70
     4
  9
$MENU
  1
C:\ACADWIN\SUPPORT\ACAD
  9
$ELEVATION
 40
0.0
  9
$PELEVATION
 40
0.0
  9
$THICKNESS
 40
0.0
  9
$LIMCHECK
 70
     0
  9
$CHAMFERA
 40
0.0
  9
$CHAMFERB
 40
0.0
  9
$CHAMFERC
 40
0.0
  9
$CHAMFERD
 40
0.0
  9
$SKPOLY
 70
     0
  9
$TDCREATE
 40
2450427.482995949
  9
$TDUCREATE
 40
2450427.441329282
  9
$TDUPDATE
 40
2452487.831983217
  9
$TDUUPDATE
 40
2452487.790316551
  9
$TDINDWG
 40
0.1845361111
  9
$TDUSRTIMER
 40
0.1845361111
  9
$USRTIMER
 70
     1
  9
$ANGBASE
 50
0.0
  9
$ANGDIR
 70
     0
  9
$PDMODE
 70
     0
  9
$PDSIZE
 40
0.0
  9
$PLINEWID
 40
0.0
  9
$SPLFRAME
 70
     0
  9
$SPLINETYPE
 70
     6
  9
$SPLINESEGS
 70
     8
  9
$HANDSEED
  5
36A
  9
$SURFTAB1
 70
    18
  9
$SURFTAB2
 70
    18
  9
$SURFTYPE
 70
     6
  9
$SURFU
 70
    18
  9
$SURFV
 70
    18
  9
$UCSBASE
  2

  9
$UCSNAME
  2

  9
$UCSORG
 10
0.0
 20
0.0
 30
0.0
  9
$UCSXDIR
 10
1.0
 20
0.0
 30
0.0
  9
$UCSYDIR
 10
0.0
 20
1.0
 30
0.0
  9
$UCSORTHOREF
  2

  9
$UCSORTHOVIEW
 70
     0
  9
$UCSORGTOP
 10
0.0
 20
0.0
 30
0.0
  9
$UCSORGBOTTOM
 10
0.0
 20
0.0
 30
0.0
  9
$UCSORGLEFT
 10
0.0
 20
0.0
 30
0.0
  9
$UCSORGRIGHT
 10
0.0
 20
0.0
 30
0.0
  9
$UCSORGFRONT
 10
0.0
 20
0.0
 30
0.0
  9
$UCSORGBACK
 10
0.0
 20
0.0
 30
0.0
  9
$PUCSBASE
  2

  9
$PUCSNAME
  2

  9
$PUCSORG
 10
0.0
 20
0.0
 30
0.0
  9
$PUCSXDIR
 10
1.0
 20
0.0
 30
0.0
  9
$PUCSYDIR
 10
0.0
 20
1.0
 30
0.0
  9
$PUCSORTHOREF
  2

  9
$PUCSORTHOVIEW
 70
     0
  9
$PUCSORGTOP
 10
0.0
 20
0.0
 30
0.0
  9
$PUCSORGBOTTOM
 10
0.0
 20
0.0
 30
0.0
  9
$PUCSORGLEFT
 10
0.0
 20
0.0
 30
0.0
  9
$PUCSORGRIGHT
 10
0.0
 20
0.0
 30
0.0
  9
$PUCSORGFRONT
 10
0.0
 20
0.0
 30
0.0
  9
$PUCSORGBACK
 10
0.0
 20
0.0
 30
0.0
  9
$USERI1
 70
     0
  9
$USERI2
 70
     0
  9
$USERI3
 70
     0
  9
$USERI4
 70
     0
  9
$USERI5
 70
     0
  9
$USERR1
 40
0.0
  9
$USERR2
 40
0.0
  9
$USERR3
 40
0.0
  9
$USERR4
 40
0.0
  9
$USERR5
 40
0.0
  9
$WORLDVIEW
 70
     1
  9
$SHADEDGE
 70
     3
  9
$SHADEDIF
 70
    70
  9
$TILEMODE
 70
     1
  9
$MAXACTVP
 70
    16
  9
$PINSBASE
 10
0.0
 20
0.0
 30
0.0
  9
$PLIMCHECK
 70
     0
  9
$PEXTMIN
 10
1.000000000000000E+20
 20
1.000000000000000E+20
 30
1.000000000000000E+20
  9
$PEXTMAX
 10
-1.000000000000000E+20
 20
-1.000000000000000E+20
 30
-1.000000000000000E+20
  9
$PLIMMIN
 10
0.0
 20
0.0
  9
$PLIMMAX
 10
420.0
 20
297.0
  9
$UNITMODE
 70
     0
  9
$VISRETAIN
 70
     0
  9
$PLINEGEN
 70
     0
  9
$PSLTSCALE
 70
     1
  9
$TREEDEPTH
 70
  3020
  9
$CMLSTYLE
  2
STANDARD
  9
$CMLJUST
 70
     0
  9
$CMLSCALE
 40
1.0
  9
$PROXYGRAPHICS
 70
     1
  9
$MEASUREMENT
 70
     0
  9
$CELWEIGHT
370
    -1
  9
$ENDCAPS
280
     0
  9
$JOINSTYLE
280
     0
  9
$LWDISPLAY
290
     0
  9
$INSUNITS
 70
     0
  9
$HYPERLINKBASE
  1

  9
$STYLESHEET
  1

  9
$XEDIT
290
     1
  9
$CEPSNTYPE
380
     0
  9
$PSTYLEMODE
290
     1
  9
$FINGERPRINTGUID
  2
{9E6D19FF-A4BE-11D6-AAC6-0010A4A25215}
  9
$VERSIONGUID
  2
{9E6D1A08-A4BE-11D6-AAC6-0010A4A25215}
  9
$EXTNAMES
290
     1
  9
$PSVPSCALE
 40
0.0
  9
$OLESTARTUP
290
     0
  0
ENDSEC
  0
SECTION
  2
CLASSES
  0
CLASS
  1
DICTIONARYVAR
  2
AcDbDictionaryVar
  3
AutoCAD 2000
 90
        0
280
     0
281
     0
  0
CLASS
  1
LWPOLYLINE
  2
AcDbPolyline
  3
AutoCAD 2000
 90
    32768
280
     0
281
     1
  0
CLASS
  1
ACDBDICTIONARYWDFLT
  2
AcDbDictionaryWithDefault
  3
AutoCAD 2000
 90
        0
280
     0
281
     0
  0
CLASS
  1
ACDBPLACEHOLDER
  2
AcDbPlaceHolder
  3
AutoCAD 2000
 90
        0
280
     0
281
     0
  0
CLASS
  1
LAYOUT
  2
AcDbLayout
  3
AutoCAD 2000
 90
        0
280
     0
281
     0
  0
ENDSEC
  0
SECTION
  2
TABLES
  0
TABLE
  2
VPORT
  5
8
330
0
100
AcDbSymbolTable
 70
     3
  0
VPORT
  5
369
330
8
100
AcDbSymbolTableRecord
100
AcDbViewportTableRecord
  2
*Active
 70
     0
 10
0.0
 20
0.0
 11
1.0
 21
1.0
 12
69.2601026804466
 22
103.0032641699542
 13
0.0
 23
0.0
 14
5.0
 24
5.0
 15
10.0
 25
10.0
 16
0.0
 26
0.0
 36
1.0
 17
0.0
 27
0.0
 37
0.0
 40
922.4394078948556
 41
1.768089053803339
 42
50.0
 43
0.0
 44
0.0
 50
0.0
 51
0.0
 71
     0
 72
 20000
 73
     1
 74
     1
 75
     0
 76
     0
 77
     0
 78
     0
281
     0
 65
     1
110
0.0
120
0.0
130
0.0
111
1.0
121
0.0
131
0.0
112
0.0
122
1.0
132
0.0
 79
     0
146
0.0
  0
ENDTAB
  0
TABLE
  2
LTYPE
  5
5
330
0
100
AcDbSymbolTable
 70
     1
  0
LTYPE
  5
11
330
5
100
AcDbSymbolTableRecord
100
AcDbLinetypeTableRecord
  2
BYBLOCK
 70
     0
  3

 72
    65
 73
     0
 40
0.0
  0
LTYPE
  5
12
330
5
100
AcDbSymbolTableRecord
100
AcDbLinetypeTableRecord
  2
BYLAYER
 70
     0
  3

 72
    65
 73
     0
 40
0.0
  0
LTYPE
  5
13
330
5
100
AcDbSymbolTableRecord
100
AcDbLinetypeTableRecord
  2
CONTINUOUS
 70
     0
  3
Solid line
 72
    65
 73
     0
 40
0.0
  0
ENDTAB
  0
TABLE
  2
LAYER
  5
2
330
0
100
AcDbSymbolTable
 70
    12
  0
LAYER
  5
E
330
2
100
AcDbSymbolTableRecord
100
AcDbLayerTableRecord
  2
0
 70
     0
 62
     7
  6
CONTINUOUS
370
    -3
390
26F
  0
LAYER
  5
27
330
2
100
AcDbSymbolTableRecord
100
AcDbLayerTableRecord
  2
ANCON-ORIGIN
 70
     0
 62
     1
  6
CONTINUOUS
370
    -3
390
26F
  0
LAYER
  5
28
330
2
100
AcDbSymbolTableRecord
100
AcDbLayerTableRecord
  2
ANCON-SUPPORT
 70
     0
 62
     3
  6
CONTINUOUS
370
    -3
390
26F
  0
LAYER
  5
29
330
2
100
AcDbSymbolTableRecord
100
AcDbLayerTableRecord
  2
ANCON-STRUC
 70
     0
 62
     2
  6
CONTINUOUS
370
    -3
390
26F
  0
LAYER
  5
2A
330
2
100
AcDbSymbolTableRecord
100
AcDbLayerTableRecord
  2
ANCON-MASONRY
 70
     0
 62
     1
  6
CONTINUOUS
370
    -3
390
26F
  0
LAYER
  5
2B
330
2
100
AcDbSymbolTableRecord
100
AcDbLayerTableRecord
  2
DEFPOINTS
 70
     0
 62
     7
  6
CONTINUOUS
290
     0
370
    -3
390
26F
  0
LAYER
  5
2C
330
2
100
AcDbSymbolTableRecord
100
AcDbLayerTableRecord
  2
ANCON-DIM
 70
     0
 62
     1
  6
CONTINUOUS
370
    -3
390
26F
  0
LAYER
  5
2D
330
2
100
AcDbSymbolTableRecord
100
AcDbLayerTableRecord
  2
ANCON-CHANNEL
 70
     0
 62
     1
  6
CONTINUOUS
370
    -3
390
26F
  0
LAYER
  5
2E
330
2
100
AcDbSymbolTableRecord
100
AcDbLayerTableRecord
  2
ANCON-TEXT
 70
     0
 62
     6
  6
CONTINUOUS
370
    -3
390
26F
  0
LAYER
  5
2F
330
2
100
AcDbSymbolTableRecord
100
AcDbLayerTableRecord
  2
ANCON-TIE
 70
     0
 62
     1
  6
CONTINUOUS
370
    -3
390
26F
  0
LAYER
  5
30
330
2
100
AcDbSymbolTableRecord
100
AcDbLayerTableRecord
  2
GENTEXT
 70
     0
 62
     2
  6
CONTINUOUS
370
    -3
390
26F
  0
LAYER
  5
31
330
2
100
AcDbSymbolTableRecord
100
AcDbLayerTableRecord
  2
ANCON-BOLT
 70
     0
 62
     1
  6
CONTINUOUS
370
    -3
390
26F
  0
ENDTAB
  0
TABLE
  2
STYLE
  5
3
330
0
100
AcDbSymbolTable
 70
     2
  0
STYLE
  5
F
330
3
100
AcDbSymbolTableRecord
100
AcDbTextStyleTableRecord
  2
STANDARD
 70
     0
 40
0.0
 41
1.0
 50
0.0
 71
     0
 42
3.0
  3
txt.shx
  4

  0
STYLE
  5
21
330
3
100
AcDbSymbolTableRecord
100
AcDbTextStyleTableRecord
  2
ROMANS
 70
     0
 40
0.0
 41
1.0
 50
0.0
 71
     0
 42
9.0
  3
romans
  4

  0
ENDTAB
  0
TABLE
  2
VIEW
  5
6
330
0
100
AcDbSymbolTable
 70
     0
  0
ENDTAB
  0
TABLE
  2
UCS
  5
7
330
0
100
AcDbSymbolTable
 70
     0
  0
ENDTAB
  0
TABLE
  2
APPID
  5
9
330
0
100
AcDbSymbolTable
 70
     1
  0
APPID
  5
10
330
9
100
AcDbSymbolTableRecord
100
AcDbRegAppTableRecord
  2
ACAD
 70
     0
  0
ENDTAB
  0
TABLE
  2
DIMSTYLE
  5
A
330
0
100
AcDbSymbolTable
 70
     2
100
AcDbDimStyleTable
 71
     0
  0
DIMSTYLE
105
24
330
A
100
AcDbSymbolTableRecord
100
AcDbDimStyleTableRecord
  2
1-5
 70
     0
 40
5.0
 41
0.0
 42
4.5
 43
0.0
 44
1.5
 45
1.0
 46
1.25
 73
     0
 74
     0
 77
     1
 78
    12
140
1.8
141
0.0
142
1.0
143
0.04
146
1.25
147
0.1
271
     2
272
     2
279
     2
284
    12
285
    12
286
    12
340
21
  0
DIMSTYLE
105
278
330
A
100
AcDbSymbolTableRecord
100
AcDbDimStyleTableRecord
  2
STANDARD
 70
     0
340
F
  0
ENDTAB
  0
TABLE
  2
BLOCK_RECORD
  5
1
330
0
100
AcDbSymbolTable
 70
     2
  0
BLOCK_RECORD
  5
17
330
1
100
AcDbSymbolTableRecord
100
AcDbBlockTableRecord
  2
*MODEL_SPACE
340
272
  0
BLOCK_RECORD
  5
14
330
1
100
AcDbSymbolTableRecord
100
AcDbBlockTableRecord
  2
*PAPER_SPACE
340
273
  0
BLOCK_RECORD
  5
1C
330
1
100
AcDbSymbolTableRecord
100
AcDbBlockTableRecord
  2
OR
340
0
  0
BLOCK_RECORD
  5
279
330
1
100
AcDbSymbolTableRecord
100
AcDbBlockTableRecord
  2
30channel
340
0
102
{BLKREFS
331
2CB
102
}
  0
ENDTAB
  0
ENDSEC
  0
SECTION
  2
BLOCKS
  0
BLOCK
  5
34
330
17
100
AcDbEntity
  8
0
100
AcDbBlockBegin
  2
*MODEL_SPACE
 70
     0
 10
0.0
 20
0.0
 30
0.0
  3
*MODEL_SPACE
  1

  0
ENDBLK
  5
35
330
17
100
AcDbEntity
  8
0
100
AcDbBlockEnd
  0
BLOCK
  5
32
330
14
100
AcDbEntity
 67
     1
  8
0
100
AcDbBlockBegin
  2
*PAPER_SPACE
 70
     0
 10
0.0
 20
0.0
 30
0.0
  3
*PAPER_SPACE
  1

  0
ENDBLK
  5
33
330
14
100
AcDbEntity
 67
     1
  8
0
100
AcDbBlockEnd
  0
BLOCK
  5
38
330
1C
100
AcDbEntity
  8
0
100
AcDbBlockBegin
  2
OR
 70
     0
 10
0.0
 20
0.0
 30
0.0
  3
OR
  1

  0
LWPOLYLINE
  5
39
330
1C
100
AcDbEntity
  8
ANCON-ORIGIN
100
AcDbPolyline
 90
        5
 70
     0
 43
0.0
 10
-10.17326135673704
 20
-6.213917405744268
 10
-10.17326135673704
 20
6.213917405744268
 10
10.17326135673704
 20
-6.213917405744268
 10
10.17326135673704
 20
6.213917405744268
 10
-10.17326135673704
 20
-6.213917405744268
  0
ENDBLK
  5
40
330
1C
100
AcDbEntity
  8
0
100
AcDbBlockEnd
  0
BLOCK
  5
2C9
330
279
100
AcDbEntity
  8
0
100
AcDbBlockBegin
  2
30channel
 70
     0
 10
0.0
 20
0.0
 30
0.0
  3
30channel
  1

  0
TEXT
  5
27A
330
279
100
AcDbEntity
  8
ANCON-TEXT
100
AcDbText
 10
-388.3538807824293
 20
-45.23572445620127
 30
0.0
 40
9.0
  1

  7
ROMANS
100
AcDbText
  0
TEXT
  5
27B
330
279
100
AcDbEntity
  8
ANCON-TEXT
100
AcDbText
 10
-388.3538807824293
 20
-59.59282782648878
 30
0.0
 40
9.0
  1

  7
ROMANS
100
AcDbText
  0
TEXT
  5
27C
330
279
100
AcDbEntity
  8
ANCON-TEXT
100
AcDbText
 10
-333.3312888541478
 20
-30.5001404103975
 30
0.0
 40
9.0
  1

  7
ROMANS
100
AcDbText
  0
TEXT
  5
27D
330
279
100
AcDbEntity
  8
ANCON-TEXT
100
AcDbText
 10
-333.3312888541478
 20
13.21414530388827
 30
0.0
 40
9.0
  1
STANDARD EDGE : 75mm
  7
ROMANS
100
AcDbText
  0
TEXT
  5
27E
330
279
100
AcDbEntity
  8
ANCON-TEXT
100
AcDbText
 10
-333.3312888541478
 20
27.78557387531682
 30
0.0
 40
9.0
  1
ANCON 30/20 CAST-IN CHANNEL
  7
ROMANS
100
AcDbText
  0
LINE
  5
27F
330
279
100
AcDbEntity
  8
ANCON-CHANNEL
100
AcDbLine
 10
-284.8827690584341
 20
61.33809506595651
 30
0.0
 11
-284.8827690584341
 21
72.85165908403107
 31
0.0
  0
LINE
  5
280
330
279
100
AcDbEntity
  8
ANCON-CHANNEL
100
AcDbLine
 10
-270.7594500359755
 20
63.95330328856516
 30
0.0
 11
-270.7594500359755
 21
67.78446787575103
 31
0.0
  0
LINE
  5
281
330
279
100
AcDbEntity
  8
ANCON-CHANNEL
100
AcDbLine
 10
-271.7594500359755
 20
64.37379761831403
 30
0.0
 11
-271.7594500359755
 21
66.56970877590964
 31
0.0
  0
LINE
  5
282
330
279
100
AcDbEntity
  8
ANCON-CHANNEL
100
AcDbLine
 10
-270.7594500359755
 20
61.33809506595652
 30
0.0
 11
-270.7594500359755
 21
63.29920329505552
 31
0.0
  0
LINE
  5
283
330
279
100
AcDbEntity
  8
ANCON-CHANNEL
100
AcDbLine
 10
-269.7594500359755
 20
61.33809506595651
 30
0.0
 11
-269.7594500359755
 21
63.25248078397692
 31
0.0
  0
LINE
  5
284
330
279
100
AcDbEntity
  8
ANCON-CHANNEL
100
AcDbLine
 10
-269.7594500359755
 20
64.65412717147995
 30
0.0
 11
-269.7594500359755
 21
67.78446787575103
 31
0.0
  0
LINE
  5
285
330
279
100
AcDbEntity
  8
ANCON-CHANNEL
100
AcDbLine
 10
-269.7594500359755
 20
68.5787340241701
 30
0.0
 11
-269.7594500359755
 21
70.58775927243061
 31
0.0
  0
LINE
  5
286
330
279
100
AcDbEntity
  8
ANCON-CHANNEL
100
AcDbLine
 10
-270.7594500359755
 20
68.25168333825207
 30
0.0
 11
-270.7594500359755
 21
70.40087336309551
 31
0.0
  0
LINE
  5
287
330
279
100
AcDbEntity
  8
ANCON-CHANNEL
100
AcDbLine
 10
-271.7594500359755
 20
67.17708901499356
 30
0.0
 11
-271.7594500359755
 21
68.90578471008814
 31
0.0
  0
LINE
  5
288
330
279
100
AcDbEntity
  8
ANCON-CHANNEL
100
AcDbLine
 10
-271.7594500359755
 20
69.55988608192427
 30
0.0
 11
-271.7594500359755
 21
72.85165908403107
 31
0.0
  0
LINE
  5
289
330
279
100
AcDbEntity
  8
ANCON-CHANNEL
100
AcDbLine
 10
-260.7140562725162
 20
63.95330328856516
 30
0.0
 11
-260.7140562725162
 21
67.78446787575103
 31
0.0
  0
LINE
  5
28A
330
279
100
AcDbEntity
  8
ANCON-CHANNEL
100
AcDbLine
 10
-261.7140562725162
 20
64.37379761831403
 30
0.0
 11
-261.7140562725162
 21
66.56970877590964
 31
0.0
  0
LINE
  5
28B
330
279
100
AcDbEntity
  8
ANCON-CHANNEL
100
AcDbLine
 10
-259.7140562725162
 20
61.33809506595651
 30
0.0
 11
-259.7140562725162
 21
63.25248078397692
 31
0.0
  0
LINE
  5
28C
330
279
100
AcDbEntity
  8
ANCON-CHANNEL
100
AcDbLine
 10
-260.7140562725162
 20
61.33809506595652
 30
0.0
 11
-260.7140562725162
 21
63.29920329505552
 31
0.0
  0
LINE
  5
28D
330
279
100
AcDbEntity
  8
ANCON-CHANNEL
100
AcDbLine
 10
-260.7140562725162
 20
68.25168333825207
 30
0.0
 11
-260.7140562725162
 21
70.40087336309551
 31
0.0
  0
LINE
  5
28E
330
279
100
AcDbEntity
  8
ANCON-CHANNEL
100
AcDbLine
 10
-259.7140562725162
 20
68.5787340241701
 30
0.0
 11
-259.7140562725162
 21
70.58775927243061
 31
0.0
  0
LINE
  5
28F
330
279
100
AcDbEntity
  8
ANCON-CHANNEL
100
AcDbLine
 10
-259.7140562725162
 20
64.65412717147995
 30
0.0
 11
-259.7140562725162
 21
67.78446787575103
 31
0.0
  0
LINE
  5
290
330
279
100
AcDbEntity
  8
ANCON-CHANNEL
100
AcDbLine
 10
-261.7140562725162
 20
67.17708901499356
 30
0.0
 11
-261.7140562725162
 21
68.90578471008814
 31
0.0
  0
LINE
  5
291
330
279
100
AcDbEntity
  8
ANCON-CHANNEL
100
AcDbLine
 10
-261.7140562725162
 20
69.55988608192427
 30
0.0
 11
-261.7140562725162
 21
73.10169586768376
 31
0.0
  0
LINE
  5
292
330
279
100
AcDbEntity
  8
ANCON-CHANNEL
100
AcDbLine
 10
-250.6686625090569
 20
63.95330328856516
 30
0.0
 11
-250.6686625090569
 21
67.78446787575103
 31
0.0
  0
LINE
  5
293
330
279
100
AcDbEntity
  8
ANCON-CHANNEL
100
AcDbLine
 10
-251.6686625090569
 20
64.37379761831403
 30
0.0
 11
-251.6686625090569
 21
66.56970877590964
 31
0.0
  0
LINE
  5
294
330
279
100
AcDbEntity
  8
ANCON-CHANNEL
100
AcDbLine
 10
-250.6686625090569
 20
61.33809506595652
 30
0.0
 11
-250.6686625090569
 21
63.29920329505552
 31
0.0
  0
LINE
  5
295
330
279
100
AcDbEntity
  8
ANCON-CHANNEL
100
AcDbLine
 10
-249.6686625090569
 20
61.33809506595651
 30
0.0
 11
-249.6686625090569
 21
63.25248078397692
 31
0.0
  0
LINE
  5
296
330
279
100
AcDbEntity
  8
ANCON-CHANNEL
100
AcDbLine
 10
-249.6686625090569
 20
64.65412717147995
 30
0.0
 11
-249.6686625090569
 21
67.78446787575103
 31
0.0
  0
LINE
  5
297
330
279
100
AcDbEntity
  8
ANCON-CHANNEL
100
AcDbLine
 10
-249.6686625090569
 20
68.5787340241701
 30
0.0
 11
-249.6686625090569
 21
70.58775927243061
 31
0.0
  0
LINE
  5
298
330
279
100
AcDbEntity
  8
ANCON-CHANNEL
100
AcDbLine
 10
-250.6686625090569
 20
68.25168333825207
 30
0.0
 11
-250.6686625090569
 21
70.40087336309551
 31
0.0
  0
LINE
  5
299
330
279
100
AcDbEntity
  8
ANCON-CHANNEL
100
AcDbLine
 10
-251.6686625090569
 20
67.17708901499356
 30
0.0
 11
-251.6686625090569
 21
68.90578471008814
 31
0.0
  0
LINE
  5
29A
330
279
100
AcDbEntity
  8
ANCON-CHANNEL
100
AcDbLine
 10
-251.6686625090569
 20
69.55988608192427
 30
0.0
 11
-251.6686625090569
 21
73.10169586768376
 31
0.0
  0
LINE
  5
29B
330
279
100
AcDbEntity
  8
ANCON-CHANNEL
100
AcDbLine
 10
-231.5778749821383
 20
64.37379761831403
 30
0.0
 11
-231.5778749821383
 21
66.56970877590964
 31
0.0
  0
LINE
  5
29C
330
279
100
AcDbEntity
  8
ANCON-CHANNEL
100
AcDbLine
 10
-240.6232687455976
 20
63.95330328856516
 30
0.0
 11
-240.6232687455976
 21
67.78446787575103
 31
0.0
  0
LINE
  5
29D
330
279
100
AcDbEntity
  8
ANCON-CHANNEL
100
AcDbLine
 10
-241.6232687455976
 20
64.37379761831403
 30
0.0
 11
-241.6232687455976
 21
66.56970877590964
 31
0.0
  0
LINE
  5
29E
330
279
100
AcDbEntity
  8
ANCON-CHANNEL
100
AcDbLine
 10
-239.6232687455976
 20
61.33809506595651
 30
0.0
 11
-239.6232687455976
 21
63.25248078397692
 31
0.0
  0
LINE
  5
29F
330
279
100
AcDbEntity
  8
ANCON-CHANNEL
100
AcDbLine
 10
-240.6232687455976
 20
61.33809506595652
 30
0.0
 11
-240.6232687455976
 21
63.29920329505552
 31
0.0
  0
LINE
  5
2A0
330
279
100
AcDbEntity
  8
ANCON-CHANNEL
100
AcDbLine
 10
-239.6232687455976
 20
68.5787340241701
 30
0.0
 11
-239.6232687455976
 21
70.58775927243061
 31
0.0
  0
LINE
  5
2A1
330
279
100
AcDbEntity
  8
ANCON-CHANNEL
100
AcDbLine
 10
-239.6232687455976
 20
64.65412717147995
 30
0.0
 11
-239.6232687455976
 21
67.78446787575103
 31
0.0
  0
LINE
  5
2A2
330
279
100
AcDbEntity
  8
ANCON-CHANNEL
100
AcDbLine
 10
-240.6232687455976
 20
68.25168333825207
 30
0.0
 11
-240.6232687455976
 21
70.40087336309551
 31
0.0
  0
LINE
  5
2A3
330
279
100
AcDbEntity
  8
ANCON-CHANNEL
100
AcDbLine
 10
-241.6232687455976
 20
67.17708901499356
 30
0.0
 11
-241.6232687455976
 21
68.90578471008814
 31
0.0
  0
LINE
  5
2A4
330
279
100
AcDbEntity
  8
ANCON-CHANNEL
100
AcDbLine
 10
-241.6232687455976
 20
69.55988608192427
 30
0.0
 11
-241.6232687455976
 21
72.85165908403107
 31
0.0
  0
LINE
  5
2A5
330
279
100
AcDbEntity
  8
ANCON-CHANNEL
100
AcDbLine
 10
-231.5778749821383
 20
67.17708901499356
 30
0.0
 11
-231.5778749821383
 21
68.90578471008814
 31
0.0
  0
LINE
  5
2A6
330
279
100
AcDbEntity
  8
ANCON-CHANNEL
100
AcDbLine
 10
-231.5778749821383
 20
69.55988608192427
 30
0.0
 11
-231.5778749821383
 21
73.10169586768376
 31
0.0
  0
LINE
  5
2A7
330
279
100
AcDbEntity
  8
ANCON-CHANNEL
100
AcDbLine
 10
-230.5778749821383
 20
63.95330328856516
 30
0.0
 11
-230.5778749821383
 21
67.78446787575103
 31
0.0
  0
LINE
  5
2A8
330
279
100
AcDbEntity
  8
ANCON-CHANNEL
100
AcDbLine
 10
-229.5778749821383
 20
61.33809506595651
 30
0.0
 11
-229.5778749821383
 21
63.25248078397692
 31
0.0
  0
LINE
  5
2A9
330
279
100
AcDbEntity
  8
ANCON-CHANNEL
100
AcDbLine
 10
-230.5778749821383
 20
61.33809506595652
 30
0.0
 11
-230.5778749821383
 21
63.29920329505552
 31
0.0
  0
LINE
  5
2AA
330
279
100
AcDbEntity
  8
ANCON-CHANNEL
100
AcDbLine
 10
-229.5778749821383
 20
64.65412717147995
 30
0.0
 11
-229.5778749821383
 21
67.78446787575103
 31
0.0
  0
LINE
  5
2AB
330
279
100
AcDbEntity
  8
ANCON-CHANNEL
100
AcDbLine
 10
-229.5778749821383
 20
68.5787340241701
 30
0.0
 11
-229.5778749821383
 21
70.58775927243061
 31
0.0
  0
LINE
  5
2AC
330
279
100
AcDbEntity
  8
ANCON-CHANNEL
100
AcDbLine
 10
-230.5778749821383
 20
68.25168333825207
 30
0.0
 11
-230.5778749821383
 21
70.40087336309551
 31
0.0
  0
LINE
  5
2AD
330
279
100
AcDbEntity
  8
ANCON-CHANNEL
100
AcDbLine
 10
-217.8827690584341
 20
61.33809506595651
 30
0.0
 11
-217.8827690584342
 21
72.85165908403105
 31
0.0
  0
LINE
  5
2AE
330
279
100
AcDbEntity
  8
ANCON-CHANNEL
100
AcDbLine
 10
-214.8827690584342
 20
61.33809506595652
 30
0.0
 11
-214.8827690584341
 21
72.85165908403105
 31
0.0
  0
LINE
  5
2AF
330
279
100
AcDbEntity
  8
ANCON-CHANNEL
100
AcDbLine
 10
-220.3827690584341
 20
67.09487707499381
 30
0.0
 11
-220.3827690584342
 21
72.85165908403108
 31
0.0
  0
LINE
  5
2B0
330
279
100
AcDbEntity
  8
ANCON-CHANNEL
100
AcDbLine
 10
-220.3827690584341
 20
67.09487707499381
 30
0.0
 11
-220.3827690584342
 21
61.33809506595651
 31
0.0
  0
LINE
  5
2B1
330
279
100
AcDbEntity
  8
ANCON-CHANNEL
100
AcDbLine
 10
-201.3827690584341
 20
74.0948770749938
 30
0.0
 11
-201.3827690584341
 21
74.59487707499381
 31
0.0
  0
LINE
  5
2B2
330
279
100
AcDbEntity
  8
ANCON-CHANNEL
100
AcDbLine
 10
-201.3827690584341
 20
74.59487707499381
 30
0.0
 11
-201.3827690584341
 21
74.0948770749938
 31
0.0
  0
LINE
  5
2B3
330
279
100
AcDbEntity
  8
ANCON-CHANNEL
100
AcDbLine
 10
-201.3827690584341
 20
59.04845893241088
 30
0.0
 11
-201.3827690584341
 21
60.0948770749938
 31
0.0
  0
LINE
  5
2B4
330
279
100
AcDbEntity
  8
ANCON-CHANNEL
100
AcDbLine
 10
-201.3827690584341
 20
59.59487707499381
 30
0.0
 11
-201.3827690584341
 21
59.04845893241087
 31
0.0
  0
LINE
  5
2B5
330
279
100
AcDbEntity
  8
ANCON-CHANNEL
100
AcDbLine
 10
-218.7470324555025
 20
75.19751687607386
 30
0.0
 11
-207.4384431731572
 21
79.36383924325368
 31
0.0
  0
LINE
  5
2B6
330
279
100
AcDbEntity
  8
ANCON-CHANNEL
100
AcDbLine
 10
-207.4384431731572
 20
54.82591490673385
 30
0.0
 11
-218.7470324555025
 21
58.99223727391373
 31
0.0
  0
LINE
  5
2B7
330
279
100
AcDbEntity
  8
ANCON-CHANNEL
100
AcDbLine
 10
-217.8827690584341
 20
72.85165908403105
 30
0.0
 11
-206.5741797760888
 21
77.0179814512109
 31
0.0
  0
LINE
  5
2B8
330
279
100
AcDbEntity
  8
ANCON-CHANNEL
100
AcDbLine
 10
-206.5741797760888
 20
57.17177269877665
 30
0.0
 11
-217.8827690584341
 21
61.33809506595651
 31
0.0
  0
LINE
  5
2B9
330
279
100
AcDbEntity
  8
ANCON-CHANNEL
100
AcDbLine
 10
-220.3827690584342
 20
72.85165908403107
 30
0.0
 11
-284.8827690584341
 21
72.85165908403105
 31
0.0
  0
LINE
  5
2BA
330
279
100
AcDbEntity
  8
ANCON-CHANNEL
100
AcDbLine
 10
-220.3827690584341
 20
61.33809506595651
 30
0.0
 11
-284.8827690584341
 21
61.33809506595651
 31
0.0
  0
LINE
  5
2BB
330
279
100
AcDbEntity
  8
ANCON-CHANNEL
100
AcDbLine
 10
-217.8827690584342
 20
72.85165908403105
 30
0.0
 11
-214.8827690584341
 21
72.85165908403105
 31
0.0
  0
LINE
  5
2BC
330
279
100
AcDbEntity
  8
ANCON-CHANNEL
100
AcDbLine
 10
-217.8827690584341
 20
61.33809506595651
 30
0.0
 11
-214.8827690584341
 21
61.33809506595652
 31
0.0
  0
ARC
  5
2BD
330
279
100
AcDbEntity
  8
ANCON-CHANNEL
100
AcDbCircle
 10
-217.8827690584342
 20
72.85165908403108
 30
0.0
 40
2.5
100
AcDbArc
 50
110.224859431168
 51
180.0
  0
ARC
  5
2BE
330
279
100
AcDbEntity
  8
ANCON-CHANNEL
100
AcDbCircle
 10
-217.8827690584342
 20
61.33809506595651
 30
0.0
 40
2.5
100
AcDbArc
 50
180.0
 51
249.7751405688318
  0
LINE
  5
2BF
330
279
100
AcDbEntity
  8
ANCON-CHANNEL
100
AcDbLine
 10
-203.8827690584341
 20
59.04845893241087
 30
0.0
 11
-203.8827690584341
 21
60.0948770749938
 31
0.0
  0
ARC
  5
2C0
330
279
100
AcDbEntity
  8
ANCON-CHANNEL
100
AcDbCircle
 10
-205.8827690584341
 20
75.14129521757668
 30
0.0
 40
2.0
100
AcDbArc
 50
0.0000000000000509
 51
110.2248594311681
  0
ARC
  5
2C1
330
279
100
AcDbEntity
  8
ANCON-CHANNEL
100
AcDbCircle
 10
-205.8827690584341
 20
59.04845893241087
 30
0.0
 40
2.0
100
AcDbArc
 50
249.7751405688318
 51
0.0000000000000636
  0
ARC
  5
2C2
330
279
100
AcDbEntity
  8
ANCON-CHANNEL
100
AcDbCircle
 10
-205.8827690584341
 20
75.14129521757668
 30
0.0
 40
4.5
100
AcDbArc
 50
0.0000000000000509
 51
110.2248594311681
  0
ARC
  5
2C3
330
279
100
AcDbEntity
  8
ANCON-CHANNEL
100
AcDbCircle
 10
-205.8827690584341
 20
59.04845893241087
 30
0.0
 40
4.5
100
AcDbArc
 50
249.7751405688318
 51
0.0000000000000636
  0
LINE
  5
2C4
330
279
100
AcDbEntity
  8
ANCON-CHANNEL
100
AcDbLine
 10
-203.8827690584342
 20
74.0948770749938
 30
0.0
 11
-203.8827690584341
 21
75.14129521757668
 31
0.0
  0
LINE
  5
2C5
330
279
100
AcDbEntity
  8
ANCON-CHANNEL
100
AcDbLine
 10
-201.3827690584341
 20
74.0948770749938
 30
0.0
 11
-201.3827690584341
 21
75.14129521757668
 31
0.0
  0
LINE
  5
2C6
330
279
100
AcDbEntity
  8
ANCON-CHANNEL
100
AcDbLine
 10
-201.3827690584341
 20
60.09487707499379
 30
0.0
 11
-201.3827690584341
 21
59.59487707499381
 31
0.0
  0
LINE
  5
2C7
330
279
100
AcDbEntity
  8
ANCON-CHANNEL
100
AcDbLine
 10
-203.8827690584342
 20
74.0948770749938
 30
0.0
 11
-201.3827690584341
 21
74.0948770749938
 31
0.0
  0
LINE
  5
2C8
330
279
100
AcDbEntity
  8
ANCON-CHANNEL
100
AcDbLine
 10
-203.8827690584341
 20
60.0948770749938
 30
0.0
 11
-201.3827690584341
 21
60.09487707499379
 31
0.0
  0
ENDBLK
  5
2CA
330
279
100
AcDbEntity
  8
0
100
AcDbBlockEnd
  0
ENDSEC
  0
SECTION
  2
ENTITIES
  0
LINE
  5
6F
330
17
100
AcDbEntity
  8
ANCON-STRUC
100
AcDbLine
 10
-3.173261356737043
 20
-2.213917405744211
 30
0.0
 11
-3.173261356737043
 21
440.7860825942557
 31
0.0
  0
LINE
  5
70
330
17
100
AcDbEntity
  8
ANCON-STRUC
100
AcDbLine
 10
-3.173261356737043
 20
-2.213917405744211
 30
0.0
 11
-416.2969952714671
 21
-2.213917405744211
 31
0.0
  0
LINE
  5
71
330
17
100
AcDbEntity
  8
ANCON-MASONRY
100
AcDbLine
 10
174.3267386432629
 20
75.78608259425571
 30
0.0
 11
174.3267386432629
 21
140.7860825942557
 31
0.0
  0
LINE
  5
72
330
17
100
AcDbEntity
  8
ANCON-MASONRY
100
AcDbLine
 10
71.82673864326296
 20
140.7860825942557
 30
0.0
 11
174.3267386432629
 21
140.7860825942557
 31
0.0
  0
LINE
  5
73
330
17
100
AcDbEntity
  8
ANCON-MASONRY
100
AcDbLine
 10
71.82673864326296
 20
150.7860825942557
 30
0.0
 11
174.3267386432629
 21
150.7860825942557
 31
0.0
  0
LINE
  5
74
330
17
100
AcDbEntity
  8
ANCON-MASONRY
100
AcDbLine
 10
71.82673864326296
 20
215.7860825942557
 30
0.0
 11
174.3267386432629
 21
215.7860825942557
 31
0.0
  0
LINE
  5
75
330
17
100
AcDbEntity
  8
ANCON-MASONRY
100
AcDbLine
 10
71.82673864326296
 20
150.7860825942557
 30
0.0
 11
71.82673864326296
 21
215.7860825942557
 31
0.0
  0
LINE
  5
76
330
17
100
AcDbEntity
  8
ANCON-MASONRY
100
AcDbLine
 10
174.3267386432629
 20
150.7860825942557
 30
0.0
 11
174.3267386432629
 21
215.7860825942557
 31
0.0
  0
LINE
  5
77
330
17
100
AcDbEntity
  8
ANCON-MASONRY
100
AcDbLine
 10
71.82673864326296
 20
290.7860825942557
 30
0.0
 11
174.3267386432629
 21
290.7860825942557
 31
0.0
  0
LINE
  5
78
330
17
100
AcDbEntity
  8
ANCON-MASONRY
100
AcDbLine
 10
71.82673864326296
 20
225.7860825942557
 30
0.0
 11
174.3267386432629
 21
225.7860825942557
 31
0.0
  0
LINE
  5
79
330
17
100
AcDbEntity
  8
ANCON-MASONRY
100
AcDbLine
 10
71.82673864326296
 20
225.7860825942557
 30
0.0
 11
71.82673864326296
 21
290.7860825942557
 31
0.0
  0
LINE
  5
7A
330
17
100
AcDbEntity
  8
ANCON-MASONRY
100
AcDbLine
 10
174.3267386432629
 20
225.7860825942557
 30
0.0
 11
174.3267386432629
 21
290.7860825942557
 31
0.0
  0
LINE
  5
7B
330
17
100
AcDbEntity
  8
ANCON-MASONRY
100
AcDbLine
 10
71.82673864326298
 20
365.7860825942557
 30
0.0
 11
174.3267386432629
 21
365.7860825942557
 31
0.0
  0
LINE
  5
7C
330
17
100
AcDbEntity
  8
ANCON-MASONRY
100
AcDbLine
 10
71.82673864326298
 20
300.7860825942557
 30
0.0
 11
174.3267386432629
 21
300.7860825942557
 31
0.0
  0
LINE
  5
7D
330
17
100
AcDbEntity
  8
ANCON-MASONRY
100
AcDbLine
 10
71.82673864326298
 20
300.7860825942557
 30
0.0
 11
71.82673864326298
 21
365.7860825942557
 31
0.0
  0
LINE
  5
7E
330
17
100
AcDbEntity
  8
ANCON-MASONRY
100
AcDbLine
 10
174.3267386432629
 20
300.7860825942557
 30
0.0
 11
174.3267386432629
 21
365.7860825942557
 31
0.0
  0
TEXT
  5
7F
330
17
100
AcDbEntity
  8
ANCON-TEXT
100
AcDbText
 10
-388.3538807824293
 20
114.7642755437987
 30
0.0
 40
9.0
  1

  7
ROMANS
100
AcDbText
  0
TEXT
  5
80
330
17
100
AcDbEntity
  8
ANCON-TEXT
100
AcDbText
 10
-388.3538807824293
 20
100.4071721735112
 30
0.0
 40
9.0
  1

  7
ROMANS
100
AcDbText
  0
LINE
  5
81
330
17
100
AcDbEntity
  8
ANCON-MASONRY
100
AcDbLine
 10
71.82673864326301
 20
375.7860825942557
 30
0.0
 11
174.326738643263
 21
375.7860825942557
 31
0.0
  0
LINE
  5
82
330
17
100
AcDbEntity
  8
ANCON-MASONRY
100
AcDbLine
 10
71.82673864326301
 20
375.7860825942557
 30
0.0
 11
71.82673864326301
 21
440.7860825942557
 31
0.0
  0
LINE
  5
83
330
17
100
AcDbEntity
  8
ANCON-MASONRY
100
AcDbLine
 10
174.326738643263
 20
375.7860825942557
 30
0.0
 11
174.3267386432629
 21
440.7860825942557
 31
0.0
  0
LINE
  5
84
330
17
100
AcDbEntity
  8
ANCON-CHANNEL
100
AcDbLine
 10
-3.173261356737043
 20
320.7860825942557
 30
0.0
 11
-21.17326135673704
 21
320.7860825942557
 31
0.0
  0
LINE
  5
85
330
17
100
AcDbEntity
  8
ANCON-CHANNEL
100
AcDbLine
 10
-3.173261356737043
 20
420.7860825942557
 30
0.0
 11
-21.17326135673704
 21
420.7860825942557
 31
0.0
  0
LINE
  5
86
330
17
100
AcDbEntity
  8
ANCON-CHANNEL
100
AcDbLine
 10
-21.17326135673704
 20
420.7860825942557
 30
0.0
 11
-21.17326135673704
 21
320.7860825942557
 31
0.0
  0
LINE
  5
87
330
17
100
AcDbEntity
  8
ANCON-CHANNEL
100
AcDbLine
 10
-3.173261356737043
 20
420.7860825942557
 30
0.0
 11
-3.173261356737043
 21
320.7860825942557
 31
0.0
  0
LINE
  5
88
330
17
100
AcDbEntity
  8
ANCON-CHANNEL
100
AcDbLine
 10
-14.17326135673704
 20
420.7860825942557
 30
0.0
 11
-14.17326135673704
 21
320.7860825942557
 31
0.0
  0
LINE
  5
89
330
17
100
AcDbEntity
  8
ANCON-TIE
100
AcDbLine
 10
136.826738643263
 20
372.0360825942557
 30
0.0
 11
61.82673864326301
 21
372.0360825942557
 31
0.0
  0
LINE
  5
8A
330
17
100
AcDbEntity
  8
ANCON-TIE
100
AcDbLine
 10
136.826738643263
 20
369.5360825942557
 30
0.0
 11
61.82673864326301
 21
369.5360825942556
 31
0.0
  0
LINE
  5
8B
330
17
100
AcDbEntity
  8
ANCON-TIE
100
AcDbLine
 10
136.826738643263
 20
372.0360825942557
 30
0.0
 11
136.826738643263
 21
369.5360825942557
 31
0.0
  0
LINE
  5
8C
330
17
100
AcDbEntity
  8
ANCON-TIE
100
AcDbLine
 10
31.82673864326301
 20
372.0360825942557
 30
0.0
 11
-3.173261356737043
 21
372.0360825942557
 31
0.0
  0
LINE
  5
8D
330
17
100
AcDbEntity
  8
ANCON-TIE
100
AcDbLine
 10
31.82673864326301
 20
369.5360825942556
 30
0.0
 11
-3.173261356737043
 21
369.5360825942556
 31
0.0
  0
LINE
  5
8E
330
17
100
AcDbEntity
  8
ANCON-TIE
100
AcDbLine
 10
31.82673864326301
 20
372.0360825942557
 30
0.0
 11
46.82673864326301
 21
368.0360825942557
 31
0.0
  0
LINE
  5
8F
330
17
100
AcDbEntity
  8
ANCON-TIE
100
AcDbLine
 10
46.82673864326301
 20
368.0360825942557
 30
0.0
 11
61.82673864326301
 21
372.0360825942557
 31
0.0
  0
LINE
  5
90
330
17
100
AcDbEntity
  8
ANCON-TIE
100
AcDbLine
 10
46.82673864326301
 20
365.5360825942556
 30
0.0
 11
61.82673864326301
 21
369.5360825942556
 31
0.0
  0
LINE
  5
91
330
17
100
AcDbEntity
  8
ANCON-TIE
100
AcDbLine
 10
31.82673864326301
 20
369.5360825942556
 30
0.0
 11
46.82673864326301
 21
365.5360825942556
 31
0.0
  0
TEXT
  5
92
330
17
100
AcDbEntity
  8
GENTEXT
100
AcDbText
 10
787.8674598891048
 20
408.4904061394615
 30
0.0
 40
9.0
  1

  7
ROMANS
100
AcDbText
  0
TEXT
  5
93
330
17
100
AcDbEntity
  8
ANCON-TEXT
100
AcDbText
 10
146.4484965359511
 20
5.91354992380355
 30
0.0
 40
9.0
  1

  7
ROMANS
100
AcDbText
  0
TEXT
  5
94
330
17
100
AcDbEntity
  8
ANCON-TEXT
100
AcDbText
 10
146.4484965359511
 20
-8.44355344648396
 30
0.0
 40
9.0
  1

  7
ROMANS
100
AcDbText
  0
TEXT
  5
9F
330
17
100
AcDbEntity
  8
ANCON-TEXT
100
AcDbText
 10
214.2085534359458
 20
118.0657325913301
 30
0.0
 40
9.0
  1
System to support a maximum height of brickwork of 4 metres
  7
ROMANS
100
AcDbText
  0
TEXT
  5
A0
330
17
100
AcDbEntity
  8
ANCON-TEXT
100
AcDbText
 10
305.7841326933564
 20
231.3646269745611
 30
0.0
 40
9.0
  1

  7
ROMANS
100
AcDbText
  0
TEXT
  5
B4
330
17
100
AcDbEntity
  8
ANCON-TEXT
100
AcDbText
 10
305.7841326933564
 20
-233.6040736799481
 30
0.0
 40
9.0
  1

  7
ROMANS
100
AcDbText
  0
TEXT
  5
BC
330
17
100
AcDbEntity
  8
ANCON-TEXT
100
AcDbText
 10
305.7841326933564
 20
-174.7898794810395
 30
0.0
 40
9.0
  1

  7
ROMANS
100
AcDbText
  0
TEXT
  5
BD
330
17
100
AcDbEntity
  8
ANCON-TEXT
100
AcDbText
 10
214.2085534359458
 20
220.3363908784701
 30
0.0
 40
9.0
  1
Ancon LDB/IS Systems can be specified by the
  7
ROMANS
100
AcDbText
  0
TEXT
  5
BE
330
17
100
AcDbEntity
  8
ANCON-TEXT
100
AcDbText
 10
214.2085534359458
 20
205.7649623070415
 30
0.0
 40
9.0
  1
cavity width ie. LDB/IS/75
  7
ROMANS
100
AcDbText
  0
TEXT
  5
BF
330
17
100
AcDbEntity
  8
ANCON-TEXT
100
AcDbText
 10
214.2085534359458
 20
191.193533735613
 30
0.0
 40
9.0
  1
Ancon Building Products will design a system to suit a 75mm cavity
  7
ROMANS
100
AcDbText
  0
TEXT
  5
C0
330
17
100
AcDbEntity
  8
ANCON-TEXT
100
AcDbText
 10
214.2085534359458
 20
176.6221051641844
 30
0.0
 40
9.0
  1
and carry 8 kilonewtons load per metre run.
  7
ROMANS
100
AcDbText
  0
LINE
  5
C1
330
17
100
AcDbEntity
  8
ANCON-MASONRY
100
AcDbLine
 10
71.82673864326298
 20
75.78608259425571
 30
0.0
 11
71.82673864326298
 21
76.7860825942557
 31
0.0
  0
LINE
  5
C2
330
17
100
AcDbEntity
  8
ANCON-MASONRY
100
AcDbLine
 10
71.82673864326298
 20
75.78608259425571
 30
0.0
 11
73.82673864326294
 21
75.78608259425571
 31
0.0
  0
TEXT
  5
C3
330
17
100
AcDbEntity
  8
ANCON-TEXT
100
AcDbText
 10
-435.4999106731975
 20
140.4776076117208
 30
0.0
 40
9.0
  1

  7
ROMANS
100
AcDbText
  0
TEXT
  5
C4
330
17
100
AcDbEntity
  8
ANCON-TEXT
100
AcDbText
 10
-435.4999106731975
 20
126.1205042414332
 30
0.0
 40
9.0
  1

  7
ROMANS
100
AcDbText
  0
TEXT
  5
C5
330
17
100
AcDbEntity
  8
ANCON-TEXT
100
AcDbText
 10
-517.1646802841687
 20
243.9452112634473
 30
0.0
 40
9.0
  1

  7
ROMANS
100
AcDbText
  0
TEXT
  5
C6
330
17
100
AcDbEntity
  8
ANCON-TEXT
100
AcDbText
 10
-514.0329292841681
 20
181.2372153266213
 30
0.0
 40
9.0
  1

  7
ROMANS
100
AcDbText
  0
TEXT
  5
C7
330
17
100
AcDbEntity
  8
ANCON-TEXT
100
AcDbText
 10
-514.0329292841681
 20
166.8801119563337
 30
0.0
 40
9.0
  1

  7
ROMANS
100
AcDbText
  0
TEXT
  5
C9
330
17
100
AcDbEntity
  8
ANCON-TEXT
100
AcDbText
 10
214.2085534359458
 20
103.3354376573355
 30
0.0
 40
9.0
  1
Brackets fixed at 225mm centres.
  7
ROMANS
100
AcDbText
  0
LINE
  5
CA
330
17
100
AcDbEntity
  8
ANCON-MASONRY
100
AcDbLine
 10
145.2181670718056
 20
65.78608259425571
 30
0.0
 11
174.3267386432629
 21
65.78608259425571
 31
0.0
  0
ARC
  5
CB
330
17
100
AcDbEntity
  8
ANCON-SUPPORT
100
AcDbCircle
 10
138.0767386432629
 20
58.78608259425572
 30
0.0
 40
10.0
100
AcDbArc
 50
0.0
 51
90.0
  0
LINE
  5
CC
330
17
100
AcDbEntity
  8
ANCON-MASONRY
100
AcDbLine
 10
71.82673864326307
 20
-149.2139174057442
 30
0.0
 11
174.3267386432629
 21
-149.2139174057442
 31
0.0
  0
LINE
  5
CD
330
17
100
AcDbEntity
  8
ANCON-SUPPORT
100
AcDbLine
 10
59.32673864326284
 20
68.78608259425572
 30
0.0
 11
151.8267386432629
 21
68.78608259425572
 31
0.0
  0
LINE
  5
CE
330
17
100
AcDbEntity
  8
ANCON-SUPPORT
100
AcDbLine
 10
59.32673864326284
 20
72.78608259425571
 30
0.0
 11
151.8267386432629
 21
72.78608259425571
 31
0.0
  0
LINE
  5
CF
330
17
100
AcDbEntity
  8
ANCON-CHANNEL
100
AcDbLine
 10
8.826738643262956
 20
172.7860825942556
 30
0.0
 11
8.826738643262956
 21
212.7860825942557
 31
0.0
  0
LINE
  5
D3
330
17
100
AcDbEntity
  8
ANCON-SUPPORT
100
AcDbLine
 10
3.826738643262956
 20
181.7860825942557
 30
0.0
 11
6.826738643262956
 21
178.7860825942557
 31
0.0
  0
LINE
  5
D4
330
17
100
AcDbEntity
  8
ANCON-SUPPORT
100
AcDbLine
 10
-3.173261356737043
 20
232.7860825942557
 30
0.0
 11
-3.173261356737043
 21
72.78608259425571
 31
0.0
  0
LINE
  5
D5
330
17
100
AcDbEntity
  8
ANCON-SUPPORT
100
AcDbLine
 10
143.0767386432629
 20
58.78608259425572
 30
0.0
 11
143.0767386432629
 21
-106.2139174057442
 31
0.0
  0
LINE
  5
D6
330
17
100
AcDbEntity
  8
ANCON-SUPPORT
100
AcDbLine
 10
103.0767386432629
 20
58.78608259425572
 30
0.0
 11
103.0767386432629
 21
-66.21391740574427
 31
0.0
  0
LINE
  5
D7
330
17
100
AcDbEntity
  8
ANCON-SUPPORT
100
AcDbLine
 10
98.07673864326297
 20
58.78608259425572
 30
0.0
 11
98.07673864326295
 21
-66.21391740574427
 31
0.0
  0
LINE
  5
D8
330
17
100
AcDbEntity
  8
ANCON-SUPPORT
100
AcDbLine
 10
148.0767386432629
 20
58.78608259425572
 30
0.0
 11
148.0767386432629
 21
-106.2139174057442
 31
0.0
  0
LINE
  5
D9
330
17
100
AcDbEntity
  8
ANCON-MASONRY
100
AcDbLine
 10
71.82673864326307
 20
-149.2139174057442
 30
0.0
 11
71.82673864326305
 21
-131.2139174057442
 31
0.0
  0
CIRCLE
  5
DA
330
17
100
AcDbEntity
  8
ANCON-MASONRY
100
AcDbCircle
 10
123.0767386432629
 20
-99.21391740574428
 30
0.0
 40
12.5
  0
ARC
  5
DB
330
17
100
AcDbEntity
  8
ANCON-SUPPORT
100
AcDbCircle
 10
123.0767386432629
 20
-106.2139174057442
 30
0.0
 40
25.0
100
AcDbArc
 50
270.0
 51
0.0
  0
ARC
  5
DC
330
17
100
AcDbEntity
  8
ANCON-SUPPORT
100
AcDbCircle
 10
123.0767386432629
 20
-106.2139174057442
 30
0.0
 40
20.0
100
AcDbArc
 50
270.0
 51
0.0
  0
CIRCLE
  5
DD
330
17
100
AcDbEntity
  8
ANCON-SUPPORT
100
AcDbCircle
 10
119.5700960281373
 20
-95.48613136763812
 30
0.0
 40
2.5
  0
CIRCLE
  5
DE
330
17
100
AcDbEntity
  8
ANCON-SUPPORT
100
AcDbCircle
 10
127.1420915096426
 20
-103.7245281625129
 30
0.0
 40
2.5
  0
LINE
  5
DF
330
17
100
AcDbEntity
  8
ANCON-SUPPORT
100
AcDbLine
 10
131.0767386432629
 20
68.78608259425572
 30
0.0
 11
131.0767386432629
 21
63.78608259425572
 31
0.0
  0
ARC
  5
E0
330
17
100
AcDbEntity
  8
ANCON-SUPPORT
100
AcDbCircle
 10
138.0767386432629
 20
58.78608259425572
 30
0.0
 40
5.0
100
AcDbArc
 50
0.0
 51
90.0
  0
ARC
  5
E1
330
17
100
AcDbEntity
  8
ANCON-SUPPORT
100
AcDbCircle
 10
108.0767386432629
 20
58.78608259425572
 30
0.0
 40
10.0
100
AcDbArc
 50
90.0
 51
180.0
  0
ARC
  5
E2
330
17
100
AcDbEntity
  8
ANCON-SUPPORT
100
AcDbCircle
 10
108.0767386432629
 20
58.78608259425572
 30
0.0
 40
5.0
100
AcDbArc
 50
90.0
 51
180.0
  0
LINE
  5
E3
330
17
100
AcDbEntity
  8
ANCON-SUPPORT
100
AcDbLine
 10
115.0767386432629
 20
68.78608259425572
 30
0.0
 11
115.0767386432629
 21
63.78608259425572
 31
0.0
  0
LINE
  5
E4
330
17
100
AcDbEntity
  8
ANCON-SUPPORT
100
AcDbLine
 10
51.82673864326307
 20
63.78608259425572
 30
0.0
 11
59.32673864326284
 21
68.78608259425572
 31
0.0
  0
LINE
  5
E5
330
17
100
AcDbEntity
  8
ANCON-SUPPORT
100
AcDbLine
 10
44.32673864326306
 20
68.78608259425572
 30
0.0
 11
51.82673864326307
 21
63.78608259425572
 31
0.0
  0
CIRCLE
  5
E6
330
17
100
AcDbEntity
  8
ANCON-MASONRY
100
AcDbCircle
 10
123.0767386432629
 20
15.78608259425571
 30
0.0
 40
12.5
  0
CIRCLE
  5
E7
330
17
100
AcDbEntity
  8
ANCON-SUPPORT
100
AcDbCircle
 10
119.5700960281373
 20
19.51386863236188
 30
0.0
 40
2.5
  0
CIRCLE
  5
E8
330
17
100
AcDbEntity
  8
ANCON-SUPPORT
100
AcDbCircle
 10
127.1420915096426
 20
11.27547183748707
 30
0.0
 40
2.5
  0
LINE
  5
E9
330
17
100
AcDbEntity
  8
ANCON-SUPPORT
100
AcDbLine
 10
108.0767386432629
 20
63.78608259425572
 30
0.0
 11
115.0767386432629
 21
63.78608259425572
 31
0.0
  0
LINE
  5
EA
330
17
100
AcDbEntity
  8
ANCON-SUPPORT
100
AcDbLine
 10
138.0767386432629
 20
63.78608259425572
 30
0.0
 11
131.0767386432629
 21
63.78608259425572
 31
0.0
  0
LINE
  5
EB
330
17
100
AcDbEntity
  8
ANCON-SUPPORT
100
AcDbLine
 10
6.826738643262956
 20
109.2860825942557
 30
0.0
 11
79.82673864326295
 21
72.78608259425571
 31
0.0
  0
LINE
  5
EC
330
17
100
AcDbEntity
  8
ANCON-SUPPORT
100
AcDbLine
 10
6.826738643262956
 20
142.7860825942557
 30
0.0
 11
146.8267386432629
 21
72.78608259425571
 31
0.0
  0
LINE
  5
ED
330
17
100
AcDbEntity
  8
ANCON-SUPPORT
100
AcDbLine
 10
44.32673864326306
 20
72.78608259425571
 30
0.0
 11
51.82673864326307
 21
67.78608259425571
 31
0.0
  0
LINE
  5
EE
330
17
100
AcDbEntity
  8
ANCON-SUPPORT
100
AcDbLine
 10
6.826738643262956
 20
109.2860825942557
 30
0.0
 11
6.826738643262956
 21
142.7860825942557
 31
0.0
  0
LINE
  5
EF
330
17
100
AcDbEntity
  8
ANCON-SUPPORT
100
AcDbLine
 10
6.826738643262842
 20
147.7860825942556
 30
0.0
 11
6.826738643262956
 21
72.78608259425571
 31
0.0
  0
LINE
  5
F1
330
17
100
AcDbEntity
  8
ANCON-SUPPORT
100
AcDbLine
 10
6.826738643262956
 20
68.78608259425572
 30
0.0
 11
44.32673864326306
 21
68.78608259425572
 31
0.0
  0
LINE
  5
F2
330
17
100
AcDbEntity
  8
ANCON-SUPPORT
100
AcDbLine
 10
6.826738643262956
 20
72.78608259425571
 30
0.0
 11
44.32673864326306
 21
72.78608259425571
 31
0.0
  0
LINE
  5
F3
330
17
100
AcDbEntity
  8
ANCON-SUPPORT
100
AcDbLine
 10
-3.173261356737043
 20
72.78608259425571
 30
0.0
 11
6.826738643262956
 21
68.78608259425572
 31
0.0
  0
LINE
  5
F4
330
17
100
AcDbEntity
  8
ANCON-SUPPORT
100
AcDbLine
 10
-3.173261356737043
 20
72.78608259425571
 30
0.0
 11
6.826738643262956
 21
72.78608259425571
 31
0.0
  0
LINE
  5
F5
330
17
100
AcDbEntity
  8
ANCON-SUPPORT
100
AcDbLine
 10
6.826738643262956
 20
72.78608259425571
 30
0.0
 11
6.826738643262956
 21
68.78608259425572
 31
0.0
  0
LINE
  5
F7
330
17
100
AcDbEntity
  8
ANCON-SUPPORT
100
AcDbLine
 10
6.826738643262956
 20
148.7860825942556
 30
0.0
 11
3.826738643262956
 21
151.7860825942556
 31
0.0
  0
LINE
  5
F8
330
17
100
AcDbEntity
  8
ANCON-SUPPORT
100
AcDbLine
 10
6.826738643262956
 20
148.7860825942556
 30
0.0
 11
5.826738643262956
 21
147.7860825942556
 31
0.0
  0
LINE
  5
F9
330
17
100
AcDbEntity
  8
ANCON-SUPPORT
100
AcDbLine
 10
5.826738643262956
 20
147.7860825942556
 30
0.0
 11
6.826738643262842
 21
147.7860825942556
 31
0.0
  0
LINE
  5
FA
330
17
100
AcDbEntity
  8
ANCON-SUPPORT
100
AcDbLine
 10
3.826738643262956
 20
163.7860825942557
 30
0.0
 11
6.826738643262956
 21
166.7860825942557
 31
0.0
  0
LINE
  5
FB
330
17
100
AcDbEntity
  8
ANCON-SUPPORT
100
AcDbLine
 10
6.826738643262956
 20
160.7860825942557
 30
0.0
 11
3.826738643262956
 21
157.7860825942557
 31
0.0
  0
LINE
  5
FC
330
17
100
AcDbEntity
  8
ANCON-SUPPORT
100
AcDbLine
 10
3.826738643262956
 20
157.7860825942557
 30
0.0
 11
6.826738643262956
 21
154.7860825942557
 31
0.0
  0
LINE
  5
FD
330
17
100
AcDbEntity
  8
ANCON-SUPPORT
100
AcDbLine
 10
3.826738643262956
 20
151.7860825942556
 30
0.0
 11
6.826738643262956
 21
154.7860825942557
 31
0.0
  0
LINE
  5
FE
330
17
100
AcDbEntity
  8
ANCON-SUPPORT
100
AcDbLine
 10
6.826738643262956
 20
160.7860825942557
 30
0.0
 11
3.826738643262956
 21
163.7860825942557
 31
0.0
  0
LINE
  5
FF
330
17
100
AcDbEntity
  8
ANCON-SUPPORT
100
AcDbLine
 10
6.826738643262956
 20
172.7860825942557
 30
0.0
 11
3.826738643262956
 21
175.7860825942557
 31
0.0
  0
LINE
  5
100
330
17
100
AcDbEntity
  8
ANCON-SUPPORT
100
AcDbLine
 10
6.826738643262956
 20
172.7860825942557
 30
0.0
 11
3.826738643262956
 21
169.7860825942557
 31
0.0
  0
LINE
  5
101
330
17
100
AcDbEntity
  8
ANCON-SUPPORT
100
AcDbLine
 10
3.826738643262956
 20
175.7860825942557
 30
0.0
 11
6.826738643262956
 21
178.7860825942557
 31
0.0
  0
LINE
  5
102
330
17
100
AcDbEntity
  8
ANCON-SUPPORT
100
AcDbLine
 10
3.826738643262956
 20
169.7860825942557
 30
0.0
 11
6.826738643262956
 21
166.7860825942557
 31
0.0
  0
LINE
  5
103
330
17
100
AcDbEntity
  8
ANCON-CHANNEL
100
AcDbLine
 10
8.826738643262956
 20
172.7860825942556
 30
0.0
 11
6.826738643262956
 21
172.7860825942556
 31
0.0
  0
LINE
  5
104
330
17
100
AcDbEntity
  8
ANCON-SUPPORT
100
AcDbLine
 10
146.8267386432629
 20
72.78608259425571
 30
0.0
 11
79.82673864326295
 21
72.78608259425571
 31
0.0
  0
LINE
  5
105
330
17
100
AcDbEntity
  8
ANCON-MASONRY
100
AcDbLine
 10
71.82673864326296
 20
65.78608259425571
 30
0.0
 11
100.93531021472
 21
65.78608259425571
 31
0.0
  0
LINE
  5
106
330
17
100
AcDbEntity
  8
ANCON-SUPPORT
100
AcDbLine
 10
51.82673864326307
 20
67.78608259425571
 30
0.0
 11
59.32673864326284
 21
72.78608259425571
 31
0.0
  0
LINE
  5
107
330
17
100
AcDbEntity
  8
ANCON-MASONRY
100
AcDbLine
 10
115.0767386432629
 20
65.78608259425571
 30
0.0
 11
131.0767386432629
 21
65.78608259425571
 31
0.0
  0
LINE
  5
108
330
17
100
AcDbEntity
  8
ANCON-SUPPORT
100
AcDbLine
 10
108.0767386432629
 20
68.78608259425572
 30
0.0
 11
115.0767386432629
 21
68.78608259425572
 31
0.0
  0
LINE
  5
109
330
17
100
AcDbEntity
  8
ANCON-SUPPORT
100
AcDbLine
 10
138.0767386432629
 20
68.78608259425572
 30
0.0
 11
131.0767386432629
 21
68.78608259425572
 31
0.0
  0
LINE
  5
15E
330
17
100
AcDbEntity
  8
ANCON-SUPPORT
100
AcDbLine
 10
6.826738643262956
 20
208.7860825942557
 30
0.0
 11
3.826738643262956
 21
205.7860825942557
 31
0.0
  0
LINE
  5
15F
330
17
100
AcDbEntity
  8
ANCON-BOLT
100
AcDbLine
 10
12.91001155888727
 20
197.8178256316286
 30
0.0
 11
19.26176942763765
 21
197.8178256316286
 31
0.0
  0
LINE
  5
160
330
17
100
AcDbEntity
  8
ANCON-BOLT
100
AcDbLine
 10
12.9100115588925
 20
202.7674163880049
 30
0.0
 11
19.26176942762015
 21
202.7674163880049
 31
0.0
  0
LINE
  5
161
330
17
100
AcDbEntity
  8
ANCON-BOLT
100
AcDbLine
 10
12.91001155887909
 20
182.8047488005064
 30
0.0
 11
19.26176942766664
 21
182.8047488005064
 31
0.0
  0
LINE
  5
162
330
17
100
AcDbEntity
  8
ANCON-BOLT
100
AcDbLine
 10
12.91001155888727
 20
187.7543395568831
 30
0.0
 11
19.26176942763765
 21
187.7543395568831
 31
0.0
  0
LINE
  5
163
330
17
100
AcDbEntity
  8
ANCON-BOLT
100
AcDbLine
 10
8.826738643262956
 20
206.3969923130057
 30
0.0
 11
8.826738643262956
 21
179.1751728755056
 31
0.0
  0
LINE
  5
164
330
17
100
AcDbEntity
  8
ANCON-BOLT
100
AcDbLine
 10
11.5489205870125
 20
206.3969923130057
 30
0.0
 11
11.5489205870125
 21
179.1751728755056
 31
0.0
  0
ARC
  5
165
330
17
100
AcDbEntity
  8
ANCON-BOLT
100
AcDbCircle
 10
21.53025438075758
 20
192.7860825942561
 30
0.0
 40
9.981333793744667
100
AcDbArc
 50
149.727358681085
 51
210.2726413189181
  0
LINE
  5
166
330
17
100
AcDbEntity
  8
ANCON-BOLT
100
AcDbLine
 10
11.5489205870125
 20
200.2926210098168
 30
0.0
 11
11.5489205870125
 21
185.279544178695
 31
0.0
  0
LINE
  5
168
330
17
100
AcDbEntity
  8
ANCON-SUPPORT
100
AcDbLine
 10
3.826738643262956
 20
193.7860825942557
 30
0.0
 11
6.826738643262956
 21
190.7860825942557
 31
0.0
  0
LINE
  5
169
330
17
100
AcDbEntity
  8
ANCON-SUPPORT
100
AcDbLine
 10
6.826738643262956
 20
184.7860825942557
 30
0.0
 11
3.826738643262956
 21
181.7860825942557
 31
0.0
  0
LINE
  5
16A
330
17
100
AcDbEntity
  8
ANCON-SUPPORT
100
AcDbLine
 10
6.826738643262956
 20
184.7860825942557
 30
0.0
 11
3.826738643262956
 21
187.7860825942557
 31
0.0
  0
LINE
  5
16B
330
17
100
AcDbEntity
  8
ANCON-SUPPORT
100
AcDbLine
 10
3.826738643262956
 20
187.7860825942557
 30
0.0
 11
6.826738643262956
 21
190.7860825942557
 31
0.0
  0
ARC
  5
172
330
17
100
AcDbEntity
  8
ANCON-BOLT
100
AcDbCircle
 10
14.47935689231894
 20
185.2795441786934
 30
0.0
 40
2.930436305306611
100
AcDbArc
 50
122.3800650936792
 51
237.6199349062345
  0
LINE
  5
173
330
17
100
AcDbEntity
  8
ANCON-BOLT
100
AcDbLine
 10
8.826738643262956
 20
179.1751728755056
 30
0.0
 11
11.5489205870125
 21
179.1751728755056
 31
0.0
  0
LINE
  5
174
330
17
100
AcDbEntity
  8
ANCON-SUPPORT
100
AcDbLine
 10
3.826738643262956
 20
205.7860825942557
 30
0.0
 11
6.826738643262956
 21
202.7860825942557
 31
0.0
  0
LINE
  5
175
330
17
100
AcDbEntity
  8
ANCON-SUPPORT
100
AcDbLine
 10
6.826738643262956
 20
196.7860825942557
 30
0.0
 11
3.826738643262956
 21
199.7860825942557
 31
0.0
  0
LINE
  5
176
330
17
100
AcDbEntity
  8
ANCON-SUPPORT
100
AcDbLine
 10
3.826738643262956
 20
199.7860825942557
 30
0.0
 11
6.826738643262956
 21
202.7860825942557
 31
0.0
  0
LINE
  5
177
330
17
100
AcDbEntity
  8
ANCON-SUPPORT
100
AcDbLine
 10
6.826738643262956
 20
196.7860825942557
 30
0.0
 11
3.826738643262956
 21
193.7860825942557
 31
0.0
  0
ARC
  5
17E
330
17
100
AcDbEntity
  8
ANCON-BOLT
100
AcDbCircle
 10
14.47935689231894
 20
200.2926210098182
 30
0.0
 40
2.930436305306414
100
AcDbArc
 50
122.380065093762
 51
237.619934906323
  0
LINE
  5
17F
330
17
100
AcDbEntity
  8
ANCON-BOLT
100
AcDbLine
 10
11.5489205870125
 20
206.3969923130057
 30
0.0
 11
8.826738643262956
 21
206.3969923130057
 31
0.0
  0
LINE
  5
180
330
17
100
AcDbEntity
  8
ANCON-BOLT
100
AcDbLine
 10
35.91934466201291
 20
197.9205727960112
 30
0.0
 11
35.91934466201291
 21
187.9229059105987
 31
0.0
  0
LINE
  5
181
330
17
100
AcDbEntity
  8
ANCON-BOLT
100
AcDbLine
 10
36.82673864326295
 20
197.0131788147613
 30
0.0
 11
36.82673864326295
 21
188.8302998918487
 31
0.0
  0
ARC
  5
182
330
17
100
AcDbEntity
  8
ANCON-BOLT
100
AcDbCircle
 10
10.64152660576848
 20
192.7860825942561
 30
0.0
 40
9.981333793743797
100
AcDbArc
 50
329.7273586810804
 51
30.27264131891897
  0
LINE
  5
183
330
17
100
AcDbEntity
  8
ANCON-BOLT
100
AcDbLine
 10
20.62286039951254
 20
200.2926210098168
 30
0.0
 11
20.62286039951254
 21
185.279544178695
 31
0.0
  0
LINE
  5
184
330
17
100
AcDbEntity
  8
ANCON-BOLT
100
AcDbLine
 10
20.62286039951254
 20
188.8302998918487
 30
0.0
 11
36.82673864326295
 21
188.8302998918487
 31
0.0
  0
LINE
  5
185
330
17
100
AcDbEntity
  8
ANCON-BOLT
100
AcDbLine
 10
20.62286039951254
 20
187.9229059105987
 30
0.0
 11
35.91934466201291
 21
187.9229059105987
 31
0.0
  0
ARC
  5
186
330
17
100
AcDbEntity
  8
ANCON-BOLT
100
AcDbCircle
 10
17.69242409420405
 20
185.2795441786945
 30
0.0
 40
2.930436305308636
100
AcDbArc
 50
302.3800650937876
 51
57.61993490621683
  0
LINE
  5
187
330
17
100
AcDbEntity
  8
ANCON-BOLT
100
AcDbLine
 10
20.62286039951254
 20
192.7860825942556
 30
0.0
 11
20.62286039951254
 21
187.3417187067559
 31
0.0
  0
LINE
  5
188
330
17
100
AcDbEntity
  8
ANCON-BOLT
100
AcDbLine
 10
35.91934466201291
 20
187.9229059105987
 30
0.0
 11
36.82673864326295
 21
188.8302998918487
 31
0.0
  0
LINE
  5
189
330
17
100
AcDbEntity
  8
ANCON-BOLT
100
AcDbLine
 10
20.62286039951254
 20
197.0131788147613
 30
0.0
 11
36.82673864326295
 21
197.0131788147613
 31
0.0
  0
LINE
  5
18A
330
17
100
AcDbEntity
  8
ANCON-BOLT
100
AcDbLine
 10
20.62286039951254
 20
197.9205727960113
 30
0.0
 11
35.91934466201303
 21
197.9205727960112
 31
0.0
  0
ARC
  5
18B
330
17
100
AcDbEntity
  8
ANCON-BOLT
100
AcDbCircle
 10
17.69242409420405
 20
200.2926210098173
 30
0.0
 40
2.930436305308463
100
AcDbArc
 50
302.3800650937798
 51
57.6199349062147
  0
LINE
  5
18C
330
17
100
AcDbEntity
  8
ANCON-BOLT
100
AcDbLine
 10
35.91934466201291
 20
197.9205727960113
 30
0.0
 11
36.82673864326295
 21
197.0131788147613
 31
0.0
  0
LINE
  5
18D
330
17
100
AcDbEntity
  8
ANCON-SUPPORT
100
AcDbLine
 10
6.826738643262956
 20
220.7860825942557
 30
0.0
 11
3.826738643262956
 21
223.7860825942557
 31
0.0
  0
LINE
  5
18E
330
17
100
AcDbEntity
  8
ANCON-CHANNEL
100
AcDbLine
 10
8.826738643262956
 20
212.7860825942557
 30
0.0
 11
4.826738643262956
 21
212.7860825942557
 31
0.0
  0
LINE
  5
18F
330
17
100
AcDbEntity
  8
ANCON-SUPPORT
100
AcDbLine
 10
3.826738643262956
 20
217.7860825942557
 30
0.0
 11
6.826738643262956
 21
214.7860825942557
 31
0.0
  0
LINE
  5
190
330
17
100
AcDbEntity
  8
ANCON-SUPPORT
100
AcDbLine
 10
6.826738643262956
 20
220.7860825942557
 30
0.0
 11
3.826738643262956
 21
217.7860825942557
 31
0.0
  0
LINE
  5
191
330
17
100
AcDbEntity
  8
ANCON-SUPPORT
100
AcDbLine
 10
3.826738643262956
 20
211.7860825942557
 30
0.0
 11
6.826738643262956
 21
214.7860825942557
 31
0.0
  0
LINE
  5
192
330
17
100
AcDbEntity
  8
ANCON-SUPPORT
100
AcDbLine
 10
6.826738643262956
 20
208.7860825942557
 30
0.0
 11
3.826738643262956
 21
211.7860825942557
 31
0.0
  0
LINE
  5
193
330
17
100
AcDbEntity
  8
ANCON-SUPPORT
100
AcDbLine
 10
3.826738643262956
 20
223.7860825942557
 30
0.0
 11
6.826738643262956
 21
226.7860825942557
 31
0.0
  0
LINE
  5
194
330
17
100
AcDbEntity
  8
ANCON-SUPPORT
100
AcDbLine
 10
3.826738643262956
 20
229.7860825942557
 30
0.0
 11
6.826738643262956
 21
226.7860825942557
 31
0.0
  0
LINE
  5
195
330
17
100
AcDbEntity
  8
ANCON-SUPPORT
100
AcDbLine
 10
6.826738643262956
 20
232.7860825942557
 30
0.0
 11
3.826738643262956
 21
229.7860825942557
 31
0.0
  0
LINE
  5
196
330
17
100
AcDbEntity
  8
ANCON-SUPPORT
100
AcDbLine
 10
-3.173261356737043
 20
232.7860825942557
 30
0.0
 11
6.826738643262956
 21
232.7860825942557
 31
0.0
  0
LINE
  5
197
330
17
100
AcDbEntity
  8
ANCON-MASONRY
100
AcDbLine
 10
174.3267386432629
 20
-149.2139174057442
 30
0.0
 11
174.3267386432629
 21
65.78608259425571
 31
0.0
  0
LINE
  5
198
330
17
100
AcDbEntity
  8
ANCON-SUPPORT
100
AcDbLine
 10
151.8267386432629
 20
72.78608259425571
 30
0.0
 11
151.8267386432629
 21
68.78608259425572
 31
0.0
  0
LINE
  5
199
330
17
100
AcDbEntity
  8
ANCON-MASONRY
100
AcDbLine
 10
61.82673864326307
 20
-149.2139174057442
 30
0.0
 11
61.82673864326305
 21
-131.2139174057442
 31
0.0
  0
LINE
  5
19A
330
17
100
AcDbEntity
  8
ANCON-MASONRY
100
AcDbLine
 10
61.82673864326307
 20
-149.2139174057442
 30
0.0
 11
-153.1732613567369
 21
-149.2139174057442
 31
0.0
  0
LINE
  5
19B
330
17
100
AcDbEntity
  8
ANCON-MASONRY
100
AcDbLine
 10
61.82673864326307
 20
-46.71391740574427
 30
0.0
 11
-78.17326135673692
 21
-46.71391740574427
 31
0.0
  0
LINE
  5
19C
330
17
100
AcDbEntity
  8
ANCON-MASONRY
100
AcDbLine
 10
-153.1732613567369
 20
-131.2139174057442
 30
0.0
 11
-153.1732613567369
 21
-149.2139174057442
 31
0.0
  0
LINE
  5
19D
330
17
100
AcDbEntity
  8
ANCON-MASONRY
100
AcDbLine
 10
-378.1732613567369
 20
-46.71391740574427
 30
0.0
 11
-378.1732613567369
 21
-149.2139174057442
 31
0.0
  0
LINE
  5
19E
330
17
100
AcDbEntity
  8
ANCON-MASONRY
100
AcDbLine
 10
-163.1732613567369
 20
-149.2139174057442
 30
0.0
 11
-163.1732613567369
 21
-131.2139174057442
 31
0.0
  0
LINE
  5
19F
330
17
100
AcDbEntity
  8
ANCON-MASONRY
100
AcDbLine
 10
-163.1732613567369
 20
-149.2139174057442
 30
0.0
 11
-378.1732613567369
 21
-149.2139174057442
 31
0.0
  0
LINE
  5
1A0
330
17
100
AcDbEntity
  8
ANCON-MASONRY
100
AcDbLine
 10
-353.1732613567369
 20
-46.71391740574427
 30
0.0
 11
-378.1732613567369
 21
-46.71391740574427
 31
0.0
  0
CIRCLE
  5
1A1
330
17
100
AcDbEntity
  8
ANCON-SUPPORT
100
AcDbCircle
 10
8.320096028137385
 20
-94.2361313676381
 30
0.0
 40
2.5
  0
CIRCLE
  5
1A2
330
17
100
AcDbEntity
  8
ANCON-MASONRY
100
AcDbCircle
 10
11.82673864326304
 20
-97.96391740574428
 30
0.0
 40
12.5
  0
CIRCLE
  5
1A3
330
17
100
AcDbEntity
  8
ANCON-SUPPORT
100
AcDbCircle
 10
15.89209150964276
 20
-102.4745281625129
 30
0.0
 40
2.5
  0
CIRCLE
  5
1A4
330
17
100
AcDbEntity
  8
ANCON-MASONRY
100
AcDbCircle
 10
-103.1732613567369
 20
-97.96391740574424
 30
0.0
 40
12.5
  0
CIRCLE
  5
1A5
330
17
100
AcDbEntity
  8
ANCON-SUPPORT
100
AcDbCircle
 10
-106.6799039718625
 20
-94.23613136763808
 30
0.0
 40
2.5
  0
CIRCLE
  5
1A6
330
17
100
AcDbEntity
  8
ANCON-SUPPORT
100
AcDbCircle
 10
-99.10790849035718
 20
-102.4745281625128
 30
0.0
 40
2.5
  0
CIRCLE
  5
1A7
330
17
100
AcDbEntity
  8
ANCON-MASONRY
100
AcDbCircle
 10
-328.1732613567369
 20
-97.96391740574424
 30
0.0
 40
12.5
  0
CIRCLE
  5
1A8
330
17
100
AcDbEntity
  8
ANCON-MASONRY
100
AcDbCircle
 10
-213.1732613567369
 20
-97.96391740574428
 30
0.0
 40
12.5
  0
CIRCLE
  5
1A9
330
17
100
AcDbEntity
  8
ANCON-SUPPORT
100
AcDbCircle
 10
-331.6799039718625
 20
-94.23613136763808
 30
0.0
 40
2.5
  0
CIRCLE
  5
1AA
330
17
100
AcDbEntity
  8
ANCON-SUPPORT
100
AcDbCircle
 10
-324.1079084903572
 20
-102.4745281625128
 30
0.0
 40
2.5
  0
CIRCLE
  5
1AB
330
17
100
AcDbEntity
  8
ANCON-SUPPORT
100
AcDbCircle
 10
-216.6799039718626
 20
-94.2361313676381
 30
0.0
 40
2.5
  0
CIRCLE
  5
1AC
330
17
100
AcDbEntity
  8
ANCON-SUPPORT
100
AcDbCircle
 10
-209.1079084903572
 20
-102.4745281625129
 30
0.0
 40
2.5
  0
LINE
  5
1AD
330
17
100
AcDbEntity
  8
ANCON-SUPPORT
100
AcDbLine
 10
123.0767386432629
 20
-131.2139174057442
 30
0.0
 11
10.50920247673261
 21
-131.2139174057442
 31
0.0
  0
LINE
  5
1AE
330
17
100
AcDbEntity
  8
ANCON-SUPPORT
100
AcDbLine
 10
88.07673864326295
 20
-76.21391740574427
 30
0.0
 11
10.50920247673261
 21
-76.21391740574427
 31
0.0
  0
LINE
  5
1AF
330
17
100
AcDbEntity
  8
ANCON-SUPPORT
100
AcDbLine
 10
88.07673864326295
 20
-81.21391740574427
 30
0.0
 11
10.50920247673261
 21
-81.21391740574427
 31
0.0
  0
LINE
  5
1B0
330
17
100
AcDbEntity
  8
ANCON-SUPPORT
100
AcDbLine
 10
123.0767386432629
 20
-126.2139174057442
 30
0.0
 11
10.50920247673261
 21
-126.2139174057442
 31
0.0
  0
ARC
  5
1B1
330
17
100
AcDbEntity
  8
ANCON-SUPPORT
100
AcDbCircle
 10
88.07673864326295
 20
-66.21391740574427
 30
0.0
 40
10.0
100
AcDbArc
 50
270.0
 51
0.0
  0
ARC
  5
1B2
330
17
100
AcDbEntity
  8
ANCON-SUPPORT
100
AcDbCircle
 10
88.07673864326295
 20
-66.21391740574427
 30
0.0
 40
15.0
100
AcDbArc
 50
270.0
 51
0.0
  0
ARC
  5
1B3
330
17
100
AcDbEntity
  8
ANCON-SUPPORT
100
AcDbCircle
 10
13.13420247673261
 20
-103.7139174057442
 30
0.0
 40
27.625
100
AcDbArc
 50
95.45262198781252
 51
264.5473780121875
  0
ARC
  5
1B4
330
17
100
AcDbEntity
  8
ANCON-SUPPORT
100
AcDbCircle
 10
13.13420247673261
 20
-103.7139174057442
 30
0.0
 40
22.625
100
AcDbArc
 50
95.45262198781252
 51
264.5473780121875
  0
LINE
  5
1B5
330
17
100
AcDbEntity
  8
ANCON-SUPPORT
100
AcDbLine
 10
-353.1732613567369
 20
-131.2139174057442
 30
0.0
 11
-353.1732613567369
 21
-2.213917405744211
 31
0.0
  0
LINE
  5
1B6
330
17
100
AcDbEntity
  8
ANCON-SUPPORT
100
AcDbLine
 10
-78.1732613567369
 20
-131.2139174057442
 30
0.0
 11
-78.1732613567369
 21
-2.213917405744211
 31
0.0
  0
LINE
  5
1B7
330
17
100
AcDbEntity
  8
ANCON-SUPPORT
100
AcDbLine
 10
-78.1732613567369
 20
-131.2139174057442
 30
0.0
 11
-353.1732613567369
 21
-131.2139174057442
 31
0.0
  0
LINE
  5
1B8
330
17
100
AcDbEntity
  8
ANCON-SUPPORT
100
AcDbLine
 10
-78.1732613567369
 20
-2.213917405744211
 30
0.0
 11
-353.1732613567369
 21
-2.213917405744211
 31
0.0
  0
LINE
  5
1B9
330
17
100
AcDbEntity
  8
ANCON-SUPPORT
100
AcDbLine
 10
-78.1732613567369
 20
-7.213917405744211
 30
0.0
 11
-353.1732613567369
 21
-7.213917405744211
 31
0.0
  0
LINE
  5
1BA
330
17
100
AcDbEntity
  8
ANCON-MASONRY
100
AcDbLine
 10
61.82673864326303
 20
-76.21391740574427
 30
0.0
 11
61.82673864326301
 21
-46.71391740574427
 31
0.0
  0
LINE
  5
1BB
330
17
100
AcDbEntity
  8
ANCON-MASONRY
100
AcDbLine
 10
71.82673864326303
 20
-76.21391740574427
 30
0.0
 11
71.82673864326296
 21
65.78608259425571
 31
0.0
  0
LINE
  5
1BC
330
17
100
AcDbEntity
  8
ANCON-MASONRY
100
AcDbLine
 10
61.82673864326305
 20
-126.2139174057442
 30
0.0
 11
61.82673864326304
 21
-81.21391740574427
 31
0.0
  0
LINE
  5
1BD
330
17
100
AcDbEntity
  8
ANCON-MASONRY
100
AcDbLine
 10
71.82673864326305
 20
-126.2139174057442
 30
0.0
 11
71.82673864326303
 21
-81.21391740574427
 31
0.0
  0
LINE
  5
1CE
330
17
100
AcDbEntity
  8
ANCON-SUPPORT
100
AcDbLine
 10
-199.6732613567369
 20
-12.21391740574421
 30
0.0
 11
-196.6732613567369
 21
-9.213917405744211
 31
0.0
  0
LINE
  5
1CF
330
17
100
AcDbEntity
  8
ANCON-CHANNEL
100
AcDbLine
 10
-235.6732613567369
 20
-14.21391740574421
 30
0.0
 11
-195.6732613567368
 21
-14.21391740574421
 31
0.0
  0
LINE
  5
1D0
330
17
100
AcDbEntity
  8
ANCON-SUPPORT
100
AcDbLine
 10
-247.6732613567369
 20
-12.21391740574421
 30
0.0
 11
-244.6732613567369
 21
-9.213917405744211
 31
0.0
  0
LINE
  5
1D1
330
17
100
AcDbEntity
  8
ANCON-SUPPORT
100
AcDbLine
 10
-255.6732613567369
 20
-10.21391740574426
 30
0.0
 11
-253.673261356737
 21
-12.21391740574421
 31
0.0
  0
LINE
  5
1D2
330
17
100
AcDbEntity
  8
ANCON-SUPPORT
100
AcDbLine
 10
-250.6732613567369
 20
-9.213917405744211
 30
0.0
 11
-253.673261356737
 21
-12.21391740574421
 31
0.0
  0
LINE
  5
1D3
330
17
100
AcDbEntity
  8
ANCON-SUPPORT
100
AcDbLine
 10
-247.6732613567369
 20
-12.21391740574421
 30
0.0
 11
-250.6732613567369
 21
-9.213917405744211
 31
0.0
  0
LINE
  5
1D4
330
17
100
AcDbEntity
  8
ANCON-SUPPORT
100
AcDbLine
 10
-211.6732613567369
 20
-12.21391740574421
 30
0.0
 11
-214.6732613567369
 21
-9.213917405744211
 31
0.0
  0
LINE
  5
1D5
330
17
100
AcDbEntity
  8
ANCON-SUPPORT
100
AcDbLine
 10
-208.6732613567369
 20
-9.213917405744211
 30
0.0
 11
-205.6732613567369
 21
-12.21391740574421
 31
0.0
  0
LINE
  5
1D6
330
17
100
AcDbEntity
  8
ANCON-SUPPORT
100
AcDbLine
 10
-211.6732613567369
 20
-12.21391740574421
 30
0.0
 11
-208.6732613567369
 21
-9.213917405744211
 31
0.0
  0
LINE
  5
1D7
330
17
100
AcDbEntity
  8
ANCON-SUPPORT
100
AcDbLine
 10
-202.6732613567369
 20
-9.213917405744211
 30
0.0
 11
-205.6732613567369
 21
-12.21391740574421
 31
0.0
  0
LINE
  5
1D8
330
17
100
AcDbEntity
  8
ANCON-SUPPORT
100
AcDbLine
 10
-220.6732613567369
 20
-9.213917405744211
 30
0.0
 11
-217.6732613567369
 21
-12.21391740574421
 31
0.0
  0
LINE
  5
1D9
330
17
100
AcDbEntity
  8
ANCON-SUPPORT
100
AcDbLine
 10
-223.6732613567369
 20
-12.21391740574421
 30
0.0
 11
-220.6732613567369
 21
-9.213917405744211
 31
0.0
  0
LINE
  5
1DA
330
17
100
AcDbEntity
  8
ANCON-SUPPORT
100
AcDbLine
 10
-223.6732613567369
 20
-12.21391740574421
 30
0.0
 11
-226.6732613567369
 21
-9.213917405744211
 31
0.0
  0
LINE
  5
1DB
330
17
100
AcDbEntity
  8
ANCON-SUPPORT
100
AcDbLine
 10
-214.6732613567369
 20
-9.213917405744211
 30
0.0
 11
-217.6732613567369
 21
-12.21391740574421
 31
0.0
  0
LINE
  5
1DC
330
17
100
AcDbEntity
  8
ANCON-SUPPORT
100
AcDbLine
 10
-199.6732613567369
 20
-12.21391740574421
 30
0.0
 11
-202.6732613567369
 21
-9.213917405744211
 31
0.0
  0
LINE
  5
1DD
330
17
100
AcDbEntity
  8
ANCON-SUPPORT
100
AcDbLine
 10
-238.6732613567369
 20
-9.213917405744211
 30
0.0
 11
-241.6732613567369
 21
-12.21391740574421
 31
0.0
  0
LINE
  5
1DE
330
17
100
AcDbEntity
  8
ANCON-SUPPORT
100
AcDbLine
 10
-232.6732613567369
 20
-9.213917405744211
 30
0.0
 11
-229.6732613567369
 21
-12.21391740574421
 31
0.0
  0
LINE
  5
1DF
330
17
100
AcDbEntity
  8
ANCON-SUPPORT
100
AcDbLine
 10
-235.6732613567369
 20
-12.21391740574421
 30
0.0
 11
-238.6732613567369
 21
-9.213917405744211
 31
0.0
  0
LINE
  5
1E0
330
17
100
AcDbEntity
  8
ANCON-SUPPORT
100
AcDbLine
 10
-235.6732613567369
 20
-12.21391740574421
 30
0.0
 11
-232.6732613567369
 21
-9.213917405744211
 31
0.0
  0
LINE
  5
1E1
330
17
100
AcDbEntity
  8
ANCON-SUPPORT
100
AcDbLine
 10
-244.6732613567369
 20
-9.213917405744211
 30
0.0
 11
-241.6732613567369
 21
-12.21391740574421
 31
0.0
  0
LINE
  5
1E2
330
17
100
AcDbEntity
  8
ANCON-SUPPORT
100
AcDbLine
 10
-226.6732613567369
 20
-9.213917405744211
 30
0.0
 11
-229.6732613567369
 21
-12.21391740574421
 31
0.0
  0
LINE
  5
237
330
17
100
AcDbEntity
  8
ANCON-CHANNEL
100
AcDbLine
 10
-235.6732613567369
 20
-14.21391740574421
 30
0.0
 11
-235.6732613567369
 21
-12.21391740574421
 31
0.0
  0
LINE
  5
238
330
17
100
AcDbEntity
  8
ANCON-BOLT
100
AcDbLine
 10
-208.1667229411758
 20
-26.0100391619938
 30
0.0
 11
-223.1797997722976
 21
-26.0100391619938
 31
0.0
  0
ARC
  5
239
330
17
100
AcDbEntity
  8
ANCON-BOLT
100
AcDbCircle
 10
-215.6732613567364
 20
-16.02870536824974
 30
0.0
 40
9.981333793743797
100
AcDbArc
 50
239.7273586810805
 51
300.2726413189189
  0
LINE
  5
23A
330
17
100
AcDbEntity
  8
ANCON-BOLT
100
AcDbLine
 10
-211.4461651362313
 20
-42.21391740574421
 30
0.0
 11
-219.6290440591439
 21
-42.21391740574421
 31
0.0
  0
LINE
  5
23B
330
17
100
AcDbEntity
  8
ANCON-BOLT
100
AcDbLine
 10
-210.5387711549814
 20
-41.30652342449417
 30
0.0
 11
-220.5364380403938
 21
-41.30652342449417
 31
0.0
  0
LINE
  5
23C
330
17
100
AcDbEntity
  8
ANCON-BOLT
100
AcDbLine
 10
-208.1667229411758
 20
-16.93609934949376
 30
0.0
 11
-223.1797997722976
 21
-16.93609934949376
 31
0.0
  0
ARC
  5
23D
330
17
100
AcDbEntity
  8
ANCON-BOLT
100
AcDbCircle
 10
-215.6732613567364
 20
-26.91743314323884
 30
0.0
 40
9.981333793744667
100
AcDbArc
 50
59.727358681085
 51
120.2726413189181
  0
LINE
  5
23E
330
17
100
AcDbEntity
  8
ANCON-BOLT
100
AcDbLine
 10
-202.0623516379868
 20
-16.93609934949376
 30
0.0
 11
-229.284171075487
 21
-16.93609934949376
 31
0.0
  0
LINE
  5
23F
330
17
100
AcDbEntity
  8
ANCON-BOLT
100
AcDbLine
 10
-202.0623516379868
 20
-14.21391740574421
 30
0.0
 11
-229.284171075487
 21
-14.21391740574421
 31
0.0
  0
LINE
  5
240
330
17
100
AcDbEntity
  8
ANCON-BOLT
100
AcDbLine
 10
-220.5364380403938
 20
-26.0100391619938
 30
0.0
 11
-220.5364380403938
 21
-41.30652342449417
 31
0.0
  0
LINE
  5
241
330
17
100
AcDbEntity
  8
ANCON-BOLT
100
AcDbLine
 10
-219.6290440591439
 20
-26.0100391619938
 30
0.0
 11
-219.6290440591439
 21
-42.21391740574421
 31
0.0
  0
LINE
  5
242
330
17
100
AcDbEntity
  8
ANCON-BOLT
100
AcDbLine
 10
-215.673261356737
 20
-26.0100391619938
 30
0.0
 11
-221.1176252442367
 21
-26.0100391619938
 31
0.0
  0
ARC
  5
243
330
17
100
AcDbEntity
  8
ANCON-BOLT
100
AcDbCircle
 10
-223.1797997722981
 20
-23.07960285668531
 30
0.0
 40
2.930436305308636
100
AcDbArc
 50
212.3800650937877
 51
327.6199349062168
  0
LINE
  5
244
330
17
100
AcDbEntity
  8
ANCON-BOLT
100
AcDbLine
 10
-229.284171075487
 20
-14.21391740574421
 30
0.0
 11
-229.284171075487
 21
-16.93609934949376
 31
0.0
  0
ARC
  5
245
330
17
100
AcDbEntity
  8
ANCON-BOLT
100
AcDbCircle
 10
-223.1797997722991
 20
-19.8665356548002
 30
0.0
 40
2.930436305306611
100
AcDbArc
 50
32.38006509367929
 51
147.6199349062345
  0
LINE
  5
246
330
17
100
AcDbEntity
  8
ANCON-BOLT
100
AcDbLine
 10
-220.7050043941095
 20
-18.29719032136853
 30
0.0
 11
-220.7050043941095
 21
-24.64894819011891
 31
0.0
  0
LINE
  5
247
330
17
100
AcDbEntity
  8
ANCON-BOLT
100
AcDbLine
 10
-225.6545951504862
 20
-18.29719032136034
 30
0.0
 11
-225.6545951504862
 21
-24.6489481901479
 31
0.0
  0
LINE
  5
248
330
17
100
AcDbEntity
  8
ANCON-BOLT
100
AcDbLine
 10
-220.5364380403938
 20
-41.30652342449417
 30
0.0
 11
-219.6290440591439
 21
-42.21391740574421
 31
0.0
  0
LINE
  5
249
330
17
100
AcDbEntity
  8
ANCON-BOLT
100
AcDbLine
 10
-210.5387711549813
 20
-26.0100391619938
 30
0.0
 11
-210.5387711549814
 21
-41.30652342449429
 31
0.0
  0
LINE
  5
24A
330
17
100
AcDbEntity
  8
ANCON-BOLT
100
AcDbLine
 10
-211.4461651362313
 20
-26.0100391619938
 30
0.0
 11
-211.4461651362313
 21
-42.21391740574421
 31
0.0
  0
ARC
  5
24B
330
17
100
AcDbEntity
  8
ANCON-BOLT
100
AcDbCircle
 10
-208.1667229411753
 20
-23.07960285668531
 30
0.0
 40
2.930436305308463
100
AcDbArc
 50
212.3800650937797
 51
327.6199349062147
  0
LINE
  5
24C
330
17
100
AcDbEntity
  8
ANCON-BOLT
100
AcDbLine
 10
-202.0623516379868
 20
-16.93609934949376
 30
0.0
 11
-202.0623516379868
 21
-14.21391740574421
 31
0.0
  0
ARC
  5
24D
330
17
100
AcDbEntity
  8
ANCON-BOLT
100
AcDbCircle
 10
-208.1667229411744
 20
-19.8665356548002
 30
0.0
 40
2.930436305306414
100
AcDbArc
 50
32.38006509376206
 51
147.619934906323
  0
LINE
  5
24E
330
17
100
AcDbEntity
  8
ANCON-BOLT
100
AcDbLine
 10
-205.6919275629876
 20
-18.29719032137376
 30
0.0
 11
-205.6919275629876
 21
-24.6489481901014
 31
0.0
  0
LINE
  5
24F
330
17
100
AcDbEntity
  8
ANCON-BOLT
100
AcDbLine
 10
-210.641518319364
 20
-18.29719032136853
 30
0.0
 11
-210.641518319364
 21
-24.64894819011891
 31
0.0
  0
LINE
  5
250
330
17
100
AcDbEntity
  8
ANCON-BOLT
100
AcDbLine
 10
-210.5387711549813
 20
-41.30652342449417
 30
0.0
 11
-211.4461651362313
 21
-42.21391740574421
 31
0.0
  0
LINE
  5
251
330
17
100
AcDbEntity
  8
ANCON-SUPPORT
100
AcDbLine
 10
-184.6732613567369
 20
-9.213917405744211
 30
0.0
 11
-181.6732613567369
 21
-12.21391740574421
 31
0.0
  0
LINE
  5
252
330
17
100
AcDbEntity
  8
ANCON-SUPPORT
100
AcDbLine
 10
-196.6732613567369
 20
-9.213917405744211
 30
0.0
 11
-193.6732613567369
 21
-12.21391740574421
 31
0.0
  0
LINE
  5
253
330
17
100
AcDbEntity
  8
ANCON-SUPPORT
100
AcDbLine
 10
-187.6732613567369
 20
-12.21391740574421
 30
0.0
 11
-190.6732613567369
 21
-9.213917405744211
 31
0.0
  0
LINE
  5
254
330
17
100
AcDbEntity
  8
ANCON-SUPPORT
100
AcDbLine
 10
-190.6732613567369
 20
-9.213917405744211
 30
0.0
 11
-193.6732613567369
 21
-12.21391740574421
 31
0.0
  0
LINE
  5
255
330
17
100
AcDbEntity
  8
ANCON-SUPPORT
100
AcDbLine
 10
-187.6732613567369
 20
-12.21391740574421
 30
0.0
 11
-184.6732613567369
 21
-9.213917405744211
 31
0.0
  0
LINE
  5
256
330
17
100
AcDbEntity
  8
ANCON-SUPPORT
100
AcDbLine
 10
-175.6732613567369
 20
-7.213917405744211
 30
0.0
 11
-175.6732613567369
 21
-12.21391740574421
 31
0.0
  0
LINE
  5
257
330
17
100
AcDbEntity
  8
ANCON-SUPPORT
100
AcDbLine
 10
-175.6732613567369
 20
-12.21391740574421
 30
0.0
 11
-178.6732613567369
 21
-9.213917405744211
 31
0.0
  0
LINE
  5
258
330
17
100
AcDbEntity
  8
ANCON-SUPPORT
100
AcDbLine
 10
-178.6732613567369
 20
-9.213917405744211
 30
0.0
 11
-181.6732613567369
 21
-12.21391740574421
 31
0.0
  0
LINE
  5
259
330
17
100
AcDbEntity
  8
ANCON-CHANNEL
100
AcDbLine
 10
-195.6732613567369
 20
-14.21391740574421
 30
0.0
 11
-195.6732613567369
 21
-10.21391740574421
 31
0.0
  0
LINE
  5
25A
330
17
100
AcDbEntity
  8
ANCON-SUPPORT
100
AcDbLine
 10
-255.673261356737
 20
-7.213917405744211
 30
0.0
 11
-255.6732613567369
 21
-10.21391740574426
 31
0.0
  0
LINE
  5
25B
330
17
100
AcDbEntity
  8
ANCON-SUPPORT
100
AcDbLine
 10
-255.6732613567369
 20
-7.213917405744211
 30
0.0
 11
-175.6732613567369
 21
-7.213917405744211
 31
0.0
  0
TEXT
  5
25C
330
17
100
AcDbEntity
  8
ANCON-TEXT
100
AcDbText
 10
-353.1732613567369
 20
-193.8341033278485
 30
0.0
 40
9.0
  1
Ancon soffit angle cleats fixed at 225mm centres via. serratted pads with
  7
ROMANS
100
AcDbText
  0
TEXT
  5
25D
330
17
100
AcDbEntity
  8
ANCON-TEXT
100
AcDbText
 10
-353.1732613567369
 20
-208.4055318992771
 30
0.0
 40
9.0
  1
M12 T-head bolts to Ancon 30/20 casti-in channel
  7
ROMANS
100
AcDbText
  0
LINE
  5
25E
330
17
100
AcDbEntity
  8
ANCON-MASONRY
100
AcDbLine
 10
71.82673864326296
 20
110.2860825942557
 30
0.0
 11
71.82673864326293
 21
140.7860825942557
 31
0.0
  0
LINE
  5
25F
330
17
100
AcDbEntity
  8
ANCON-MASONRY
100
AcDbLine
 10
140.8267386432629
 20
75.78608259425571
 30
0.0
 11
174.3267386432629
 21
75.78608259425571
 31
0.0
  0
TEXT
  5
2CC
330
17
100
AcDbEntity
  8
ANCON-TEXT
100
AcDbText
 10
-287.0659269638131
 20
126.028307503482
 30
0.0
 40
9.0
  1

  7
ROMANS
100
AcDbText
  0
TEXT
  5
2CD
330
17
100
AcDbEntity
  8
ANCON-TEXT
100
AcDbText
 10
-287.0659269638131
 20
111.6712041331944
 30
0.0
 40
9.0
  1

  7
ROMANS
100
AcDbText
  0
TEXT
  5
2CE
330
17
100
AcDbEntity
  8
ANCON-TEXT
100
AcDbText
 10
-232.0433350355315
 20
140.7638915492857
 30
0.0
 40
9.0
  1

  7
ROMANS
100
AcDbText
  0
LINE
  5
2D1
330
17
100
AcDbEntity
  8
ANCON-CHANNEL
100
AcDbLine
 10
-86.67326135673707
 20
187.0293005852184
 30
0.0
 11
-86.67326135673707
 21
198.542864603293
 31
0.0
  0
LINE
  5
2D2
330
17
100
AcDbEntity
  8
ANCON-CHANNEL
100
AcDbLine
 10
-72.54994233427843
 20
189.6445088078271
 30
0.0
 11
-72.54994233427843
 21
193.4756733950129
 31
0.0
  0
LINE
  5
2D3
330
17
100
AcDbEntity
  8
ANCON-CHANNEL
100
AcDbLine
 10
-73.54994233427842
 20
190.0650031375759
 30
0.0
 11
-73.54994233427842
 21
192.2609142951715
 31
0.0
  0
LINE
  5
2D4
330
17
100
AcDbEntity
  8
ANCON-CHANNEL
100
AcDbLine
 10
-72.54994233427843
 20
187.0293005852184
 30
0.0
 11
-72.54994233427843
 21
188.9904088143174
 31
0.0
  0
LINE
  5
2D5
330
17
100
AcDbEntity
  8
ANCON-CHANNEL
100
AcDbLine
 10
-71.54994233427837
 20
187.0293005852184
 30
0.0
 11
-71.54994233427842
 21
188.9436863032388
 31
0.0
  0
LINE
  5
2D6
330
17
100
AcDbEntity
  8
ANCON-CHANNEL
100
AcDbLine
 10
-71.54994233427842
 20
190.3453326907419
 30
0.0
 11
-71.54994233427842
 21
193.4756733950129
 31
0.0
  0
LINE
  5
2D7
330
17
100
AcDbEntity
  8
ANCON-CHANNEL
100
AcDbLine
 10
-71.54994233427842
 20
194.269939543432
 30
0.0
 11
-71.54994233427842
 21
196.2789647916925
 31
0.0
  0
LINE
  5
2D8
330
17
100
AcDbEntity
  8
ANCON-CHANNEL
100
AcDbLine
 10
-72.54994233427843
 20
193.942888857514
 30
0.0
 11
-72.54994233427843
 21
196.0920788823574
 31
0.0
  0
LINE
  5
2D9
330
17
100
AcDbEntity
  8
ANCON-CHANNEL
100
AcDbLine
 10
-73.54994233427842
 20
192.8682945342554
 30
0.0
 11
-73.54994233427842
 21
194.59699022935
 31
0.0
  0
LINE
  5
2DA
330
17
100
AcDbEntity
  8
ANCON-CHANNEL
100
AcDbLine
 10
-73.54994233427842
 20
195.2510916011862
 30
0.0
 11
-73.54994233427842
 21
198.542864603293
 31
0.0
  0
LINE
  5
2DB
330
17
100
AcDbEntity
  8
ANCON-CHANNEL
100
AcDbLine
 10
-62.50454857081914
 20
189.6445088078271
 30
0.0
 11
-62.50454857081914
 21
193.4756733950129
 31
0.0
  0
LINE
  5
2DC
330
17
100
AcDbEntity
  8
ANCON-CHANNEL
100
AcDbLine
 10
-63.50454857081913
 20
190.0650031375759
 30
0.0
 11
-63.50454857081913
 21
192.2609142951715
 31
0.0
  0
LINE
  5
2DD
330
17
100
AcDbEntity
  8
ANCON-CHANNEL
100
AcDbLine
 10
-61.50454857081908
 20
187.0293005852184
 30
0.0
 11
-61.50454857081914
 21
188.9436863032388
 31
0.0
  0
LINE
  5
2DE
330
17
100
AcDbEntity
  8
ANCON-CHANNEL
100
AcDbLine
 10
-62.50454857081914
 20
187.0293005852184
 30
0.0
 11
-62.50454857081914
 21
188.9904088143174
 31
0.0
  0
LINE
  5
2DF
330
17
100
AcDbEntity
  8
ANCON-CHANNEL
100
AcDbLine
 10
-62.50454857081914
 20
193.942888857514
 30
0.0
 11
-62.50454857081914
 21
196.0920788823574
 31
0.0
  0
LINE
  5
2E0
330
17
100
AcDbEntity
  8
ANCON-CHANNEL
100
AcDbLine
 10
-61.50454857081914
 20
194.269939543432
 30
0.0
 11
-61.50454857081914
 21
196.2789647916925
 31
0.0
  0
LINE
  5
2E1
330
17
100
AcDbEntity
  8
ANCON-CHANNEL
100
AcDbLine
 10
-61.50454857081914
 20
190.3453326907419
 30
0.0
 11
-61.50454857081914
 21
193.4756733950129
 31
0.0
  0
LINE
  5
2E2
330
17
100
AcDbEntity
  8
ANCON-CHANNEL
100
AcDbLine
 10
-63.50454857081913
 20
192.8682945342554
 30
0.0
 11
-63.50454857081913
 21
194.59699022935
 31
0.0
  0
LINE
  5
2E3
330
17
100
AcDbEntity
  8
ANCON-CHANNEL
100
AcDbLine
 10
-63.50454857081913
 20
195.2510916011862
 30
0.0
 11
-63.50454857081913
 21
198.7929013869456
 31
0.0
  0
LINE
  5
2E4
330
17
100
AcDbEntity
  8
ANCON-CHANNEL
100
AcDbLine
 10
-52.45915480735982
 20
189.6445088078271
 30
0.0
 11
-52.45915480735982
 21
193.4756733950129
 31
0.0
  0
LINE
  5
2E5
330
17
100
AcDbEntity
  8
ANCON-CHANNEL
100
AcDbLine
 10
-53.45915480735982
 20
190.0650031375759
 30
0.0
 11
-53.45915480735982
 21
192.2609142951715
 31
0.0
  0
LINE
  5
2E6
330
17
100
AcDbEntity
  8
ANCON-CHANNEL
100
AcDbLine
 10
-52.4591548073598
 20
187.0293005852184
 30
0.0
 11
-52.45915480735982
 21
188.9904088143174
 31
0.0
  0
LINE
  5
2E7
330
17
100
AcDbEntity
  8
ANCON-CHANNEL
100
AcDbLine
 10
-51.45915480735979
 20
187.0293005852184
 30
0.0
 11
-51.45915480735983
 21
188.9436863032388
 31
0.0
  0
LINE
  5
2E8
330
17
100
AcDbEntity
  8
ANCON-CHANNEL
100
AcDbLine
 10
-51.45915480735983
 20
190.3453326907419
 30
0.0
 11
-51.45915480735983
 21
193.4756733950129
 31
0.0
  0
LINE
  5
2E9
330
17
100
AcDbEntity
  8
ANCON-CHANNEL
100
AcDbLine
 10
-51.45915480735983
 20
194.269939543432
 30
0.0
 11
-51.45915480735983
 21
196.2789647916925
 31
0.0
  0
LINE
  5
2EA
330
17
100
AcDbEntity
  8
ANCON-CHANNEL
100
AcDbLine
 10
-52.45915480735982
 20
193.942888857514
 30
0.0
 11
-52.45915480735982
 21
196.0920788823574
 31
0.0
  0
LINE
  5
2EB
330
17
100
AcDbEntity
  8
ANCON-CHANNEL
100
AcDbLine
 10
-53.45915480735982
 20
192.8682945342554
 30
0.0
 11
-53.45915480735982
 21
194.59699022935
 31
0.0
  0
LINE
  5
2EC
330
17
100
AcDbEntity
  8
ANCON-CHANNEL
100
AcDbLine
 10
-53.45915480735982
 20
195.2510916011862
 30
0.0
 11
-53.45915480735982
 21
198.7929013869456
 31
0.0
  0
LINE
  5
2ED
330
17
100
AcDbEntity
  8
ANCON-CHANNEL
100
AcDbLine
 10
-33.36836728044128
 20
190.0650031375759
 30
0.0
 11
-33.36836728044128
 21
192.2609142951715
 31
0.0
  0
LINE
  5
2EE
330
17
100
AcDbEntity
  8
ANCON-CHANNEL
100
AcDbLine
 10
-42.41376104390053
 20
189.6445088078271
 30
0.0
 11
-42.41376104390053
 21
193.4756733950129
 31
0.0
  0
LINE
  5
2EF
330
17
100
AcDbEntity
  8
ANCON-CHANNEL
100
AcDbLine
 10
-43.41376104390053
 20
190.0650031375759
 30
0.0
 11
-43.41376104390053
 21
192.2609142951715
 31
0.0
  0
LINE
  5
2F0
330
17
100
AcDbEntity
  8
ANCON-CHANNEL
100
AcDbLine
 10
-41.4137610439005
 20
187.0293005852184
 30
0.0
 11
-41.41376104390054
 21
188.9436863032388
 31
0.0
  0
LINE
  5
2F1
330
17
100
AcDbEntity
  8
ANCON-CHANNEL
100
AcDbLine
 10
-42.41376104390053
 20
187.0293005852184
 30
0.0
 11
-42.41376104390053
 21
188.9904088143174
 31
0.0
  0
LINE
  5
2F2
330
17
100
AcDbEntity
  8
ANCON-CHANNEL
100
AcDbLine
 10
-41.41376104390054
 20
194.269939543432
 30
0.0
 11
-41.41376104390054
 21
196.2789647916925
 31
0.0
  0
LINE
  5
2F3
330
17
100
AcDbEntity
  8
ANCON-CHANNEL
100
AcDbLine
 10
-41.41376104390054
 20
190.3453326907419
 30
0.0
 11
-41.41376104390054
 21
193.4756733950129
 31
0.0
  0
LINE
  5
2F4
330
17
100
AcDbEntity
  8
ANCON-CHANNEL
100
AcDbLine
 10
-42.41376104390053
 20
193.942888857514
 30
0.0
 11
-42.41376104390053
 21
196.0920788823574
 31
0.0
  0
LINE
  5
2F5
330
17
100
AcDbEntity
  8
ANCON-CHANNEL
100
AcDbLine
 10
-43.41376104390053
 20
192.8682945342554
 30
0.0
 11
-43.41376104390053
 21
194.59699022935
 31
0.0
  0
LINE
  5
2F6
330
17
100
AcDbEntity
  8
ANCON-CHANNEL
100
AcDbLine
 10
-43.41376104390053
 20
195.2510916011862
 30
0.0
 11
-43.41376104390053
 21
198.542864603293
 31
0.0
  0
LINE
  5
2F7
330
17
100
AcDbEntity
  8
ANCON-CHANNEL
100
AcDbLine
 10
-33.36836728044128
 20
192.8682945342554
 30
0.0
 11
-33.36836728044128
 21
194.59699022935
 31
0.0
  0
LINE
  5
2F8
330
17
100
AcDbEntity
  8
ANCON-CHANNEL
100
AcDbLine
 10
-33.36836728044128
 20
195.2510916011862
 30
0.0
 11
-33.36836728044128
 21
198.7929013869456
 31
0.0
  0
LINE
  5
2F9
330
17
100
AcDbEntity
  8
ANCON-CHANNEL
100
AcDbLine
 10
-32.36836728044127
 20
189.6445088078271
 30
0.0
 11
-32.36836728044127
 21
193.4756733950129
 31
0.0
  0
LINE
  5
2FA
330
17
100
AcDbEntity
  8
ANCON-CHANNEL
100
AcDbLine
 10
-31.36836728044125
 20
187.0293005852184
 30
0.0
 11
-31.36836728044127
 21
188.9436863032388
 31
0.0
  0
LINE
  5
2FB
330
17
100
AcDbEntity
  8
ANCON-CHANNEL
100
AcDbLine
 10
-32.36836728044127
 20
187.0293005852184
 30
0.0
 11
-32.36836728044127
 21
188.9904088143174
 31
0.0
  0
LINE
  5
2FC
330
17
100
AcDbEntity
  8
ANCON-CHANNEL
100
AcDbLine
 10
-31.36836728044127
 20
190.3453326907419
 30
0.0
 11
-31.36836728044127
 21
193.4756733950129
 31
0.0
  0
LINE
  5
2FD
330
17
100
AcDbEntity
  8
ANCON-CHANNEL
100
AcDbLine
 10
-31.36836728044127
 20
194.269939543432
 30
0.0
 11
-31.36836728044127
 21
196.2789647916925
 31
0.0
  0
LINE
  5
2FE
330
17
100
AcDbEntity
  8
ANCON-CHANNEL
100
AcDbLine
 10
-32.36836728044127
 20
193.942888857514
 30
0.0
 11
-32.36836728044127
 21
196.0920788823574
 31
0.0
  0
LINE
  5
2FF
330
17
100
AcDbEntity
  8
ANCON-CHANNEL
100
AcDbLine
 10
-19.67326135673707
 20
187.0293005852184
 30
0.0
 11
-19.6732613567371
 21
198.5428646032929
 31
0.0
  0
LINE
  5
300
330
17
100
AcDbEntity
  8
ANCON-CHANNEL
100
AcDbLine
 10
-16.67326135673713
 20
187.0293005852184
 30
0.0
 11
-16.6732613567371
 21
198.5428646032929
 31
0.0
  0
LINE
  5
301
330
17
100
AcDbEntity
  8
ANCON-CHANNEL
100
AcDbLine
 10
-22.17326135673707
 20
192.7860825942557
 30
0.0
 11
-22.17326135673709
 21
198.542864603293
 31
0.0
  0
LINE
  5
302
330
17
100
AcDbEntity
  8
ANCON-CHANNEL
100
AcDbLine
 10
-22.17326135673707
 20
192.7860825942557
 30
0.0
 11
-22.17326135673709
 21
187.0293005852184
 31
0.0
  0
LINE
  5
303
330
17
100
AcDbEntity
  8
ANCON-CHANNEL
100
AcDbLine
 10
-3.173261356737071
 20
199.7860825942557
 30
0.0
 11
-3.173261356737071
 21
200.2860825942557
 31
0.0
  0
LINE
  5
304
330
17
100
AcDbEntity
  8
ANCON-CHANNEL
100
AcDbLine
 10
-3.173261356737071
 20
200.2860825942557
 30
0.0
 11
-3.173261356737071
 21
199.7860825942557
 31
0.0
  0
LINE
  5
305
330
17
100
AcDbEntity
  8
ANCON-CHANNEL
100
AcDbLine
 10
-3.173261356737043
 20
184.7396644516727
 30
0.0
 11
-3.173261356737043
 21
185.7860825942557
 31
0.0
  0
LINE
  5
306
330
17
100
AcDbEntity
  8
ANCON-CHANNEL
100
AcDbLine
 10
-3.173261356737071
 20
185.2860825942557
 30
0.0
 11
-3.173261356737043
 21
184.7396644516727
 31
0.0
  0
LINE
  5
307
330
17
100
AcDbEntity
  8
ANCON-CHANNEL
100
AcDbLine
 10
-20.53752475380548
 20
200.8887223953357
 30
0.0
 11
-9.228935471460175
 21
205.0550447625155
 31
0.0
  0
LINE
  5
308
330
17
100
AcDbEntity
  8
ANCON-CHANNEL
100
AcDbLine
 10
-9.228935471460118
 20
180.5171204259957
 30
0.0
 11
-20.53752475380548
 21
184.6834427931756
 31
0.0
  0
LINE
  5
309
330
17
100
AcDbEntity
  8
ANCON-CHANNEL
100
AcDbLine
 10
-19.67326135673707
 20
198.5428646032929
 30
0.0
 11
-8.364672074391791
 21
202.7091869704728
 31
0.0
  0
LINE
  5
30A
330
17
100
AcDbEntity
  8
ANCON-CHANNEL
100
AcDbLine
 10
-8.364672074391734
 20
182.8629782180385
 30
0.0
 11
-19.67326135673707
 21
187.0293005852184
 31
0.0
  0
LINE
  5
30B
330
17
100
AcDbEntity
  8
ANCON-CHANNEL
100
AcDbLine
 10
-22.17326135673709
 20
198.542864603293
 30
0.0
 11
-86.67326135673702
 21
198.5428646032929
 31
0.0
  0
LINE
  5
30C
330
17
100
AcDbEntity
  8
ANCON-CHANNEL
100
AcDbLine
 10
-22.17326135673707
 20
187.0293005852184
 30
0.0
 11
-86.67326135673707
 21
187.0293005852184
 31
0.0
  0
LINE
  5
30D
330
17
100
AcDbEntity
  8
ANCON-CHANNEL
100
AcDbLine
 10
-19.6732613567371
 20
198.5428646032929
 30
0.0
 11
-16.6732613567371
 21
198.5428646032929
 31
0.0
  0
LINE
  5
30E
330
17
100
AcDbEntity
  8
ANCON-CHANNEL
100
AcDbLine
 10
-19.67326135673707
 20
187.0293005852184
 30
0.0
 11
-16.67326135673707
 21
187.0293005852184
 31
0.0
  0
ARC
  5
30F
330
17
100
AcDbEntity
  8
ANCON-CHANNEL
100
AcDbCircle
 10
-19.6732613567371
 20
198.542864603293
 30
0.0
 40
2.5
100
AcDbArc
 50
110.2248594311679
 51
180.0
  0
ARC
  5
310
330
17
100
AcDbEntity
  8
ANCON-CHANNEL
100
AcDbCircle
 10
-19.6732613567371
 20
187.0293005852184
 30
0.0
 40
2.5
100
AcDbArc
 50
180.0
 51
249.775140568832
  0
LINE
  5
311
330
17
100
AcDbEntity
  8
ANCON-CHANNEL
100
AcDbLine
 10
-5.673261356737015
 20
184.7396644516727
 30
0.0
 11
-5.673261356737043
 21
185.7860825942557
 31
0.0
  0
ARC
  5
312
330
17
100
AcDbEntity
  8
ANCON-CHANNEL
100
AcDbCircle
 10
-7.673261356737071
 20
200.8325007368386
 30
0.0
 40
2.0
100
AcDbArc
 50
0.0
 51
110.2248594311679
  0
ARC
  5
313
330
17
100
AcDbEntity
  8
ANCON-CHANNEL
100
AcDbCircle
 10
-7.673261356737015
 20
184.7396644516727
 30
0.0
 40
2.0
100
AcDbArc
 50
249.775140568832
 51
0.0
  0
ARC
  5
314
330
17
100
AcDbEntity
  8
ANCON-CHANNEL
100
AcDbCircle
 10
-7.673261356737071
 20
200.8325007368386
 30
0.0
 40
4.5
100
AcDbArc
 50
0.0
 51
110.2248594311679
  0
ARC
  5
315
330
17
100
AcDbEntity
  8
ANCON-CHANNEL
100
AcDbCircle
 10
-7.673261356737015
 20
184.7396644516727
 30
0.0
 40
4.5
100
AcDbArc
 50
249.775140568832
 51
0.0
  0
LINE
  5
316
330
17
100
AcDbEntity
  8
ANCON-CHANNEL
100
AcDbLine
 10
-5.6732613567371
 20
199.7860825942557
 30
0.0
 11
-5.673261356737071
 21
200.8325007368386
 31
0.0
  0
LINE
  5
317
330
17
100
AcDbEntity
  8
ANCON-CHANNEL
100
AcDbLine
 10
-3.173261356737043
 20
199.7860825942557
 30
0.0
 11
-3.173261356737043
 21
200.8325007368386
 31
0.0
  0
LINE
  5
318
330
17
100
AcDbEntity
  8
ANCON-CHANNEL
100
AcDbLine
 10
-3.173261356737071
 20
185.7860825942557
 30
0.0
 11
-3.173261356737071
 21
185.2860825942557
 31
0.0
  0
LINE
  5
319
330
17
100
AcDbEntity
  8
ANCON-CHANNEL
100
AcDbLine
 10
-5.6732613567371
 20
199.7860825942557
 30
0.0
 11
-3.173261356737071
 21
199.7860825942557
 31
0.0
  0
LINE
  5
31A
330
17
100
AcDbEntity
  8
ANCON-CHANNEL
100
AcDbLine
 10
-5.673261356737043
 20
185.7860825942557
 30
0.0
 11
-3.173261356737071
 21
185.7860825942557
 31
0.0
  0
ARC
  5
31C
330
17
100
AcDbEntity
  8
ANCON-CHANNEL
100
AcDbCircle
 10
-221.4300433657742
 20
14.28608259425587
 30
0.0
 40
2.5
100
AcDbArc
 50
89.99999999999998
 51
159.775140568832
  0
ARC
  5
31D
330
17
100
AcDbEntity
  8
ANCON-CHANNEL
100
AcDbCircle
 10
-209.9164793476996
 20
14.28608259425587
 30
0.0
 40
2.5
100
AcDbArc
 50
20.22485943116798
 51
89.99999999999998
  0
LINE
  5
31E
330
17
100
AcDbEntity
  8
ANCON-CHANNEL
100
AcDbLine
 10
-221.4300433657742
 20
16.78608259425581
 30
0.0
 11
-221.4300433657742
 21
81.28608259425584
 31
0.0
  0
LINE
  5
31F
330
17
100
AcDbEntity
  8
ANCON-CHANNEL
100
AcDbLine
 10
-209.9164793476997
 20
16.78608259425584
 30
0.0
 11
-209.9164793476997
 21
81.28608259425574
 31
0.0
  0
LINE
  5
320
330
17
100
AcDbEntity
  8
ANCON-CHANNEL
100
AcDbLine
 10
-213.2082523498064
 20
68.1627635717972
 30
0.0
 11
-209.9164793476997
 21
68.1627635717972
 31
0.0
  0
LINE
  5
321
330
17
100
AcDbEntity
  8
ANCON-CHANNEL
100
AcDbLine
 10
-221.4300433657742
 20
81.28608259425584
 30
0.0
 11
-209.9164793476997
 21
81.28608259425584
 31
0.0
  0
LINE
  5
322
330
17
100
AcDbEntity
  8
ANCON-CHANNEL
100
AcDbLine
 10
-215.5910494167371
 20
68.1627635717972
 30
0.0
 11
-213.8623537216425
 21
68.1627635717972
 31
0.0
  0
LINE
  5
323
330
17
100
AcDbEntity
  8
ANCON-CHANNEL
100
AcDbLine
 10
-214.5164550934786
 20
67.1627635717972
 30
0.0
 11
-212.3672650686352
 21
67.1627635717972
 31
0.0
  0
LINE
  5
324
330
17
100
AcDbEntity
  8
ANCON-CHANNEL
100
AcDbLine
 10
-214.1894044075606
 20
66.1627635717972
 30
0.0
 11
-212.1803791593001
 21
66.1627635717972
 31
0.0
  0
LINE
  5
325
330
17
100
AcDbEntity
  8
ANCON-CHANNEL
100
AcDbLine
 10
-218.1140112602507
 20
66.1627635717972
 30
0.0
 11
-214.9836705559796
 21
66.1627635717972
 31
0.0
  0
LINE
  5
326
330
17
100
AcDbEntity
  8
ANCON-CHANNEL
100
AcDbLine
 10
-221.4300433657742
 20
66.16276357179708
 30
0.0
 11
-219.5156576477538
 21
66.1627635717972
 31
0.0
  0
LINE
  5
327
330
17
100
AcDbEntity
  8
ANCON-CHANNEL
100
AcDbLine
 10
-221.4300433657742
 20
67.1627635717972
 30
0.0
 11
-219.4689351366752
 21
67.1627635717972
 31
0.0
  0
LINE
  5
328
330
17
100
AcDbEntity
  8
ANCON-CHANNEL
100
AcDbLine
 10
-218.3943408134167
 20
68.1627635717972
 30
0.0
 11
-216.198429655821
 21
68.1627635717972
 31
0.0
  0
LINE
  5
329
330
17
100
AcDbEntity
  8
ANCON-CHANNEL
100
AcDbLine
 10
-218.8148351431655
 20
67.1627635717972
 30
0.0
 11
-214.9836705559796
 21
67.1627635717972
 31
0.0
  0
LINE
  5
32A
330
17
100
AcDbEntity
  8
ANCON-CHANNEL
100
AcDbLine
 10
-215.6732613567369
 20
16.78608259425581
 30
0.0
 11
-209.9164793476996
 21
16.78608259425584
 31
0.0
  0
LINE
  5
32B
330
17
100
AcDbEntity
  8
ANCON-CHANNEL
100
AcDbLine
 10
-213.2082523498064
 20
27.98118851796002
 30
0.0
 11
-209.6664425640469
 21
27.98118851796002
 31
0.0
  0
LINE
  5
32C
330
17
100
AcDbEntity
  8
ANCON-CHANNEL
100
AcDbLine
 10
-213.2082523498064
 20
38.02658228141931
 30
0.0
 11
-209.9164793476997
 21
38.02658228141931
 31
0.0
  0
LINE
  5
32D
330
17
100
AcDbEntity
  8
ANCON-CHANNEL
100
AcDbLine
 10
-213.2082523498064
 20
48.0719760448786
 30
0.0
 11
-209.6664425640469
 21
48.0719760448786
 31
0.0
  0
LINE
  5
32E
330
17
100
AcDbEntity
  8
ANCON-CHANNEL
100
AcDbLine
 10
-213.2082523498064
 20
58.11736980833791
 30
0.0
 11
-209.6664425640469
 21
58.11736980833791
 31
0.0
  0
LINE
  5
32F
330
17
100
AcDbEntity
  8
ANCON-CHANNEL
100
AcDbLine
 10
-215.5910494167371
 20
58.11736980833791
 30
0.0
 11
-213.8623537216425
 21
58.11736980833791
 31
0.0
  0
LINE
  5
330
330
17
100
AcDbEntity
  8
ANCON-CHANNEL
100
AcDbLine
 10
-218.1140112602507
 20
56.11736980833791
 30
0.0
 11
-214.9836705559796
 21
56.11736980833791
 31
0.0
  0
LINE
  5
331
330
17
100
AcDbEntity
  8
ANCON-CHANNEL
100
AcDbLine
 10
-214.1894044075606
 20
56.11736980833791
 30
0.0
 11
-212.1803791593001
 21
56.11736980833791
 31
0.0
  0
LINE
  5
332
330
17
100
AcDbEntity
  8
ANCON-CHANNEL
100
AcDbLine
 10
-214.5164550934786
 20
57.11736980833791
 30
0.0
 11
-212.3672650686352
 21
57.11736980833791
 31
0.0
  0
LINE
  5
333
330
17
100
AcDbEntity
  8
ANCON-CHANNEL
100
AcDbLine
 10
-221.4300433657742
 20
57.11736980833791
 30
0.0
 11
-219.4689351366752
 21
57.11736980833791
 31
0.0
  0
LINE
  5
334
330
17
100
AcDbEntity
  8
ANCON-CHANNEL
100
AcDbLine
 10
-221.4300433657742
 20
56.1173698083378
 30
0.0
 11
-219.5156576477538
 21
56.11736980833791
 31
0.0
  0
LINE
  5
335
330
17
100
AcDbEntity
  8
ANCON-CHANNEL
100
AcDbLine
 10
-218.3943408134167
 20
58.11736980833791
 30
0.0
 11
-216.198429655821
 21
58.11736980833791
 31
0.0
  0
LINE
  5
336
330
17
100
AcDbEntity
  8
ANCON-CHANNEL
100
AcDbLine
 10
-218.8148351431655
 20
57.11736980833791
 30
0.0
 11
-214.9836705559796
 21
57.11736980833791
 31
0.0
  0
LINE
  5
337
330
17
100
AcDbEntity
  8
ANCON-CHANNEL
100
AcDbLine
 10
-215.5910494167371
 20
38.02658228141931
 30
0.0
 11
-213.8623537216425
 21
38.02658228141931
 31
0.0
  0
LINE
  5
338
330
17
100
AcDbEntity
  8
ANCON-CHANNEL
100
AcDbLine
 10
-218.3943408134167
 20
38.02658228141931
 30
0.0
 11
-216.198429655821
 21
38.02658228141931
 31
0.0
  0
LINE
  5
339
330
17
100
AcDbEntity
  8
ANCON-CHANNEL
100
AcDbLine
 10
-215.5910494167371
 20
48.0719760448786
 30
0.0
 11
-213.8623537216425
 21
48.0719760448786
 31
0.0
  0
LINE
  5
33A
330
17
100
AcDbEntity
  8
ANCON-CHANNEL
100
AcDbLine
 10
-214.5164550934786
 20
47.07197604487859
 30
0.0
 11
-212.3672650686352
 21
47.07197604487859
 31
0.0
  0
LINE
  5
33B
330
17
100
AcDbEntity
  8
ANCON-CHANNEL
100
AcDbLine
 10
-214.1894044075606
 20
46.07197604487859
 30
0.0
 11
-212.1803791593001
 21
46.07197604487859
 31
0.0
  0
LINE
  5
33C
330
17
100
AcDbEntity
  8
ANCON-CHANNEL
100
AcDbLine
 10
-218.1140112602507
 20
46.07197604487859
 30
0.0
 11
-214.9836705559796
 21
46.07197604487859
 31
0.0
  0
LINE
  5
33D
330
17
100
AcDbEntity
  8
ANCON-CHANNEL
100
AcDbLine
 10
-221.4300433657742
 20
46.07197604487853
 30
0.0
 11
-219.5156576477538
 21
46.07197604487859
 31
0.0
  0
LINE
  5
33E
330
17
100
AcDbEntity
  8
ANCON-CHANNEL
100
AcDbLine
 10
-221.4300433657742
 20
47.07197604487854
 30
0.0
 11
-219.4689351366752
 21
47.07197604487859
 31
0.0
  0
LINE
  5
33F
330
17
100
AcDbEntity
  8
ANCON-CHANNEL
100
AcDbLine
 10
-218.3943408134167
 20
48.0719760448786
 30
0.0
 11
-216.198429655821
 21
48.0719760448786
 31
0.0
  0
LINE
  5
340
330
17
100
AcDbEntity
  8
ANCON-CHANNEL
100
AcDbLine
 10
-218.8148351431655
 20
47.07197604487859
 30
0.0
 11
-214.9836705559796
 21
47.07197604487859
 31
0.0
  0
LINE
  5
341
330
17
100
AcDbEntity
  8
ANCON-CHANNEL
100
AcDbLine
 10
-214.5164550934786
 20
26.98118851796002
 30
0.0
 11
-212.3672650686352
 21
26.98118851796002
 31
0.0
  0
LINE
  5
342
330
17
100
AcDbEntity
  8
ANCON-CHANNEL
100
AcDbLine
 10
-221.4300433657742
 20
26.98118851796002
 30
0.0
 11
-219.4689351366752
 21
26.98118851796002
 31
0.0
  0
LINE
  5
343
330
17
100
AcDbEntity
  8
ANCON-CHANNEL
100
AcDbLine
 10
-218.8148351431655
 20
26.98118851796002
 30
0.0
 11
-214.9836705559796
 21
26.98118851796002
 31
0.0
  0
LINE
  5
344
330
17
100
AcDbEntity
  8
ANCON-CHANNEL
100
AcDbLine
 10
-215.5910494167371
 20
27.98118851796002
 30
0.0
 11
-213.8623537216425
 21
27.98118851796002
 31
0.0
  0
LINE
  5
345
330
17
100
AcDbEntity
  8
ANCON-CHANNEL
100
AcDbLine
 10
-214.5164550934786
 20
37.02658228141931
 30
0.0
 11
-212.3672650686352
 21
37.02658228141931
 31
0.0
  0
LINE
  5
346
330
17
100
AcDbEntity
  8
ANCON-CHANNEL
100
AcDbLine
 10
-218.1140112602507
 20
36.02658228141931
 30
0.0
 11
-214.9836705559796
 21
36.02658228141931
 31
0.0
  0
LINE
  5
347
330
17
100
AcDbEntity
  8
ANCON-CHANNEL
100
AcDbLine
 10
-214.1894044075606
 20
36.02658228141931
 30
0.0
 11
-212.1803791593001
 21
36.02658228141931
 31
0.0
  0
LINE
  5
348
330
17
100
AcDbEntity
  8
ANCON-CHANNEL
100
AcDbLine
 10
-221.4300433657742
 20
37.02658228141931
 30
0.0
 11
-219.4689351366752
 21
37.02658228141931
 31
0.0
  0
LINE
  5
349
330
17
100
AcDbEntity
  8
ANCON-CHANNEL
100
AcDbLine
 10
-221.4300433657742
 20
36.02658228141925
 30
0.0
 11
-219.5156576477538
 21
36.02658228141931
 31
0.0
  0
LINE
  5
34A
330
17
100
AcDbEntity
  8
ANCON-CHANNEL
100
AcDbLine
 10
-218.8148351431655
 20
37.02658228141931
 30
0.0
 11
-214.9836705559796
 21
37.02658228141931
 31
0.0
  0
LINE
  5
34B
330
17
100
AcDbEntity
  8
ANCON-CHANNEL
100
AcDbLine
 10
-218.3943408134167
 20
27.98118851796002
 30
0.0
 11
-216.198429655821
 21
27.98118851796002
 31
0.0
  0
LINE
  5
34C
330
17
100
AcDbEntity
  8
ANCON-CHANNEL
100
AcDbLine
 10
-215.6732613567369
 20
16.78608259425581
 30
0.0
 11
-221.4300433657742
 21
16.78608259425584
 31
0.0
  0
LINE
  5
34D
330
17
100
AcDbEntity
  8
ANCON-CHANNEL
100
AcDbLine
 10
-214.1894044075606
 20
25.98118851796002
 30
0.0
 11
-212.1803791593001
 21
25.98118851796002
 31
0.0
  0
LINE
  5
34E
330
17
100
AcDbEntity
  8
ANCON-CHANNEL
100
AcDbLine
 10
-218.1140112602507
 20
25.98118851796002
 30
0.0
 11
-214.9836705559796
 21
25.98118851796002
 31
0.0
  0
LINE
  5
34F
330
17
100
AcDbEntity
  8
ANCON-CHANNEL
100
AcDbLine
 10
-221.4300433657742
 20
25.98118851796002
 30
0.0
 11
-219.5156576477538
 21
25.98118851796002
 31
0.0
  0
LINE
  5
351
330
17
100
AcDbEntity
  8
ANCON-CHANNEL
100
AcDbLine
 10
-221.4300433657742
 20
11.28608259425587
 30
0.0
 11
-209.9164793476997
 21
11.28608259425584
 31
0.0
  0
LINE
  5
352
330
17
100
AcDbEntity
  8
ANCON-CHANNEL
100
AcDbLine
 10
-221.4300433657742
 20
14.28608259425581
 30
0.0
 11
-209.9164793476997
 21
14.28608259425584
 31
0.0
  0
ARC
  5
353
330
17
100
AcDbEntity
  8
ANCON-CHANNEL
100
AcDbCircle
 10
-223.7196794993198
 20
2.286082594255788
 30
0.0
 40
4.5
100
AcDbArc
 50
159.775140568832
 51
270.0
  0
ARC
  5
354
330
17
100
AcDbEntity
  8
ANCON-CHANNEL
100
AcDbCircle
 10
-223.7196794993198
 20
2.286082594255788
 30
0.0
 40
2.0
100
AcDbArc
 50
159.775140568832
 51
270.0
  0
LINE
  5
355
330
17
100
AcDbEntity
  8
ANCON-CHANNEL
100
AcDbLine
 10
-225.596365732954
 20
2.977493311910507
 30
0.0
 11
-221.4300433657742
 21
14.28608259425581
 31
0.0
  0
LINE
  5
356
330
17
100
AcDbEntity
  8
ANCON-CHANNEL
100
AcDbLine
 10
-227.9422235249968
 20
3.841756708978891
 30
0.0
 11
-223.7759011578169
 21
15.15034599132425
 31
0.0
  0
LINE
  5
357
330
17
100
AcDbEntity
  8
ANCON-CHANNEL
100
AcDbLine
 10
-221.4300433657742
 20
14.28608259425581
 30
0.0
 11
-221.4300433657742
 21
11.28608259425581
 31
0.0
  0
LINE
  5
358
330
17
100
AcDbEntity
  8
ANCON-CHANNEL
100
AcDbLine
 10
-222.6732613567369
 20
0.2860825942558165
 30
0.0
 11
-222.6732613567369
 21
-2.213917405744155
 31
0.0
  0
LINE
  5
359
330
17
100
AcDbEntity
  8
ANCON-CHANNEL
100
AcDbLine
 10
-222.6732613567369
 20
-2.213917405744155
 30
0.0
 11
-223.1732613567369
 21
-2.213917405744155
 31
0.0
  0
LINE
  5
35A
330
17
100
AcDbEntity
  8
ANCON-CHANNEL
100
AcDbLine
 10
-223.7196794993198
 20
0.2860825942557881
 30
0.0
 11
-222.6732613567369
 21
0.2860825942558165
 31
0.0
  0
LINE
  5
35B
330
17
100
AcDbEntity
  8
ANCON-CHANNEL
100
AcDbLine
 10
-223.1732613567369
 20
-2.213917405744155
 30
0.0
 11
-223.7196794993198
 21
-2.213917405744183
 31
0.0
  0
LINE
  5
35C
330
17
100
AcDbEntity
  8
ANCON-CHANNEL
100
AcDbLine
 10
-223.7196794993198
 20
-2.213917405744183
 30
0.0
 11
-222.6732613567369
 21
-2.213917405744183
 31
0.0
  0
LINE
  5
35D
330
17
100
AcDbEntity
  8
ANCON-CHANNEL
100
AcDbLine
 10
-209.9164793476997
 20
14.28608259425581
 30
0.0
 11
-205.7501569805198
 21
2.977493311910535
 31
0.0
  0
LINE
  5
35E
330
17
100
AcDbEntity
  8
ANCON-CHANNEL
100
AcDbLine
 10
-207.5706215556568
 20
15.15034599132422
 30
0.0
 11
-203.404299188477
 21
3.84175670897892
 31
0.0
  0
LINE
  5
35F
330
17
100
AcDbEntity
  8
ANCON-CHANNEL
100
AcDbLine
 10
-209.9164793476997
 20
14.28608259425584
 30
0.0
 11
-209.9164793476997
 21
11.28608259425584
 31
0.0
  0
LINE
  5
360
330
17
100
AcDbEntity
  8
ANCON-CHANNEL
100
AcDbLine
 10
-208.6732613567369
 20
0.2860825942558449
 30
0.0
 11
-208.6732613567369
 21
-2.213917405744183
 31
0.0
  0
LINE
  5
361
330
17
100
AcDbEntity
  8
ANCON-CHANNEL
100
AcDbLine
 10
-208.6732613567369
 20
-2.213917405744211
 30
0.0
 11
-207.626843214154
 21
-2.213917405744211
 31
0.0
  0
LINE
  5
362
330
17
100
AcDbEntity
  8
ANCON-CHANNEL
100
AcDbLine
 10
-208.6732613567369
 20
0.2860825942558449
 30
0.0
 11
-207.626843214154
 21
0.2860825942558165
 31
0.0
  0
ARC
  5
363
330
17
100
AcDbEntity
  8
ANCON-CHANNEL
100
AcDbCircle
 10
-207.626843214154
 20
2.286082594255844
 30
0.0
 40
4.5
100
AcDbArc
 50
270.0
 51
20.22485943116798
  0
ARC
  5
364
330
17
100
AcDbEntity
  8
ANCON-CHANNEL
100
AcDbCircle
 10
-207.626843214154
 20
2.286082594255844
 30
0.0
 40
2.0
100
AcDbArc
 50
270.0
 51
20.22485943116798
  0
LINE
  5
365
330
17
100
AcDbEntity
  8
ANCON-CHANNEL
100
AcDbLine
 10
-208.1732613567369
 20
-2.213917405744183
 30
0.0
 11
-208.6732613567369
 21
-2.213917405744183
 31
0.0
  0
LINE
  5
366
330
17
100
AcDbEntity
  8
ANCON-CHANNEL
100
AcDbLine
 10
-208.6732613567369
 20
-2.213917405744183
 30
0.0
 11
-208.1732613567369
 21
-2.213917405744183
 31
0.0
  0
VIEWPORT
  5
6E
330
14
100
AcDbEntity
 67
     1
  8
0
100
AcDbViewport
 10
6.124108416547788
 20
4.5
 30
0.0
 40
12.24821683309557
 41
9.0
 68
     1
 69
     1
 12
6.124108416547788
 22
4.5
 13
0.0
 23
0.0
 14
1.0
 24
1.0
 15
0.0
 25
0.0
 16
0.0
 26
0.0
 36
1.0
 17
0.0
 27
0.0
 37
0.0
 42
50.0
 43
0.0
 44
0.0
 45
9.0
 50
0.0
 51
0.0
 72
   100
 90
    32800
  1

281
     0
 71
     1
 74
     0
110
0.0
120
0.0
130
0.0
111
1.0
121
0.0
131
0.0
112
0.0
122
1.0
132
0.0
 79
     0
146
0.0
  0
ENDSEC
  0
SECTION
  2
OBJECTS
  0
DICTIONARY
  5
C
330
0
100
AcDbDictionary
281
     1
  3
ACAD_GROUP
350
D
  3
ACAD_LAYOUT
350
270
  3
ACAD_MLINESTYLE
350
1A
  3
ACAD_PLOTSETTINGS
350
271
  3
ACAD_PLOTSTYLENAME
350
26E
  3
ACDBVARIABLEDICTIONARY
350
36
  0
DICTIONARY
  5
D
102
{ACAD_REACTORS
330
C
102
}
330
C
100
AcDbDictionary
281
     1
  0
DICTIONARY
  5
270
102
{ACAD_REACTORS
330
C
102
}
330
C
100
AcDbDictionary
281
     1
  3
Layout1
350
273
  3
Model
350
272
  0
DICTIONARY
  5
1A
102
{ACAD_REACTORS
330
C
102
}
330
C
100
AcDbDictionary
281
     1
  3
STANDARD
350
1B
  0
DICTIONARY
  5
271
102
{ACAD_REACTORS
330
C
102
}
330
C
100
AcDbDictionary
281
     1
  0
ACDBDICTIONARYWDFLT
  5
26E
102
{ACAD_REACTORS
330
C
102
}
330
C
100
AcDbDictionary
281
     1
  3
Normal
350
26F
100
AcDbDictionaryWithDefault
340
26F
  0
DICTIONARY
  5
36
102
{ACAD_REACTORS
330
C
102
}
330
C
100
AcDbDictionary
281
     1
  3
DIMADEC
350
37
  0
LAYOUT
  5
273
102
{ACAD_REACTORS
330
270
102
}
330
270
100
AcDbPlotSettings
  1

  2
Ancon 2
  4

  6

 40
0.0
 41
0.0
 42
0.0
 43
0.0
 44
0.0
 45
0.0
 46
0.0
 47
0.0
 48
0.0
 49
0.0
140
0.0
141
0.0
142
1.0
143
1.0
 70
   688
 72
     0
 73
     0
 74
     5
  7

 75
    16
147
1.0
148
0.0
149
0.0
100
AcDbLayout
  1
Layout1
 70
     1
 71
     1
 10
0.0
 20
0.0
 11
420.0
 21
297.0
 12
0.0
 22
0.0
 32
0.0
 14
1.000000000000000E+20
 24
1.000000000000000E+20
 34
1.000000000000000E+20
 15
-1.000000000000000E+20
 25
-1.000000000000000E+20
 35
-1.000000000000000E+20
146
0.0
 13
0.0
 23
0.0
 33
0.0
 16
1.0
 26
0.0
 36
0.0
 17
0.0
 27
1.0
 37
0.0
 76
     0
330
14
331
6E
  0
LAYOUT
  5
272
102
{ACAD_REACTORS
330
270
102
}
330
270
100
AcDbPlotSettings
  1

  2
Ancon 2
  4

  6

 40
0.0
 41
0.0
 42
0.0
 43
0.0
 44
0.0
 45
0.0
 46
0.0
 47
0.0
 48
0.0
 49
0.0
140
0.0
141
0.0
142
1.0
143
1.0
 70
  1712
 72
     0
 73
     0
 74
     0
  7

 75
     0
147
1.0
148
0.0
149
0.0
100
AcDbLayout
  1
Model
 70
     1
 71
     0
 10
0.0
 20
0.0
 11
12.0
 21
9.0
 12
0.0
 22
0.0
 32
0.0
 14
0.0
 24
0.0
 34
0.0
 15
0.0
 25
0.0
 35
0.0
146
0.0
 13
0.0
 23
0.0
 33
0.0
 16
1.0
 26
0.0
 36
0.0
 17
0.0
 27
1.0
 37
0.0
 76
     0
330
17
  0
MLINESTYLE
  5
1B
102
{ACAD_REACTORS
330
1A
102
}
330
1A
100
AcDbMlineStyle
  2
STANDARD
 70
     0
  3

 62
   256
 51
90.0
 52
90.0
 71
     2
 49
0.5
 62
   256
  6
BYLAYER
 49
-0.5
 62
   256
  6
BYLAYER
  0
ACDBPLACEHOLDER
  5
26F
102
{ACAD_REACTORS
330
26E
102
}
330
26E
  0
DICTIONARYVAR
  5
37
102
{ACAD_REACTORS
330
36
102
}
330
36
100
DictionaryVariables
280
     0
  1
4
  0
ENDSEC
  0
EOF
